  0
SECTION
  2
HEADER
  9
$ACADVER
  1
AC1015
  9
$ACADMAINTVER
 70
     6
  9
$DWGCODEPAGE
  3
ANSI_932
  9
$INSBASE
 10
0.0
 20
0.0
 30
0.0
  9
$EXTMIN
 10
0.0
 20
0.0
 30
0.0
  9
$EXTMAX
 10
420.0
 20
297.0
 30
0.0
  9
$LIMMIN
 10
0.0
 20
0.0
  9
$LIMMAX
 10
420.0
 20
297.0
  9
$ORTHOMODE
 70
     0
  9
$REGENMODE
 70
     1
  9
$FILLMODE
 70
     1
  9
$QTEXTMODE
 70
     0
  9
$MIRRTEXT
 70
     1
  9
$LTSCALE
 40
1.0
  9
$ATTMODE
 70
     1
  9
$TEXTSIZE
 40
2.5
  9
$TRACEWID
 40
1.0
  9
$TEXTSTYLE
  7
FX_VECTOR
  9
$CLAYER
  8
0
  9
$CELTYPE
  6
ByLayer
  9
$CECOLOR
 62
   256
  9
$CELTSCALE
 40
1.0
  9
$DISPSILH
 70
     0
  9
$DIMSCALE
 40
1.0
  9
$DIMASZ
 40
4.0
  9
$DIMEXO
 40
1.0
  9
$DIMDLI
 40
10.0
  9
$DIMRND
 40
0.0
  9
$DIMDLE
 40
6.0
  9
$DIMEXE
 40
1.0
  9
$DIMTP
 40
0.0
  9
$DIMTM
 40
0.0
  9
$DIMTXT
 40
4.0
  9
$DIMCEN
 40
2.5
  9
$DIMTSZ
 40
0.0
  9
$DIMTOL
 70
     0
  9
$DIMLIM
 70
     0
  9
$DIMTIH
 70
     0
  9
$DIMTOH
 70
     0
  9
$DIMSE1
 70
     0
  9
$DIMSE2
 70
     0
  9
$DIMTAD
 70
     1
  9
$DIMZIN
 70
     8
  9
$DIMBLK
  1

  9
$DIMASO
 70
     1
  9
$DIMSHO
 70
     1
  9
$DIMPOST
  1

  9
$DIMAPOST
  1

  9
$DIMALT
 70
     0
  9
$DIMALTD
 70
     3
  9
$DIMALTF
 40
0.03937
  9
$DIMLFAC
 40
1.0
  9
$DIMTOFL
 70
     1
  9
$DIMTVP
 40
0.0
  9
$DIMTIX
 70
     0
  9
$DIMSOXD
 70
     0
  9
$DIMSAH
 70
     1
  9
$DIMBLK1
  1
FXTIP_ARROW_S
  9
$DIMBLK2
  1
FXTIP_ARROW_E
  9
$DIMSTYLE
  2
FXDIMINFO
  9
$DIMCLRD
 70
     7
  9
$DIMCLRE
 70
     7
  9
$DIMCLRT
 70
     7
  9
$DIMTFAC
 40
1.0
  9
$DIMGAP
 40
1.0
  9
$DIMJUST
 70
     0
  9
$DIMSD1
 70
     0
  9
$DIMSD2
 70
     0
  9
$DIMTOLJ
 70
     1
  9
$DIMTZIN
 70
     8
  9
$DIMALTZ
 70
     0
  9
$DIMALTTZ
 70
     0
  9
$DIMUPT
 70
     0
  9
$DIMDEC
 70
     2
  9
$DIMTDEC
 70
     2
  9
$DIMALTU
 70
     2
  9
$DIMALTTD
 70
     3
  9
$DIMTXSTY
  7
FX_VECTOR
  9
$DIMAUNIT
 70
     0
  9
$DIMADEC
 70
     2
  9
$DIMALTRND
 40
0.0
  9
$DIMAZIN
 70
     2
  9
$DIMDSEP
 70
    46
  9
$DIMATFIT
 70
     3
  9
$DIMFRAC
 70
     0
  9
$DIMLDRBLK
  1
FXTIP_ARROW_S
  9
$DIMLUNIT
 70
     2
  9
$DIMLWD
 70
    -2
  9
$DIMLWE
 70
    -2
  9
$DIMTMOVE
 70
     0
  9
$LUNITS
 70
     2
  9
$LUPREC
 70
     4
  9
$SKETCHINC
 40
1.0
  9
$FILLETRAD
 40
10.0
  9
$AUNITS
 70
     0
  9
$AUPREC
 70
     0
  9
$MENU
  1
.
  9
$ELEVATION
 40
0.0
  9
$PELEVATION
 40
0.0
  9
$THICKNESS
 40
0.0
  9
$LIMCHECK
 70
     0
  9
$CHAMFERA
 40
10.0
  9
$CHAMFERB
 40
10.0
  9
$CHAMFERC
 40
20.0
  9
$CHAMFERD
 40
0.0
  9
$SKPOLY
 70
     0
  9
$TDCREATE
 40
2455751.557181123
  9
$TDUCREATE
 40
2455751.182181123
  9
$TDUPDATE
 40
2455751.557181134
  9
$TDUUPDATE
 40
2455751.182181134
  9
$TDINDWG
 40
0.0000000116
  9
$TDUSRTIMER
 40
0.0000000116
  9
$USRTIMER
 70
     1
  9
$ANGBASE
 50
0.0
  9
$ANGDIR
 70
     0
  9
$PDMODE
 70
     0
  9
$PDSIZE
 40
0.0
  9
$PLINEWID
 40
0.0
  9
$SPLFRAME
 70
     0
  9
$SPLINETYPE
 70
     6
  9
$SPLINESEGS
 70
     8
  9
$HANDSEED
  5
409
  9
$SURFTAB1
 70
     6
  9
$SURFTAB2
 70
     6
  9
$SURFTYPE
 70
     6
  9
$SURFU
 70
     6
  9
$SURFV
 70
     6
  9
$UCSBASE
  2

  9
$UCSNAME
  2

  9
$UCSORG
 10
0.0
 20
0.0
 30
0.0
  9
$UCSXDIR
 10
1.0
 20
0.0
 30
0.0
  9
$UCSYDIR
 10
0.0
 20
1.0
 30
0.0
  9
$UCSORTHOREF
  2

  9
$UCSORTHOVIEW
 70
     0
  9
$UCSORGTOP
 10
0.0
 20
0.0
 30
0.0
  9
$UCSORGBOTTOM
 10
0.0
 20
0.0
 30
0.0
  9
$UCSORGLEFT
 10
0.0
 20
0.0
 30
0.0
  9
$UCSORGRIGHT
 10
0.0
 20
0.0
 30
0.0
  9
$UCSORGFRONT
 10
0.0
 20
0.0
 30
0.0
  9
$UCSORGBACK
 10
0.0
 20
0.0
 30
0.0
  9
$PUCSBASE
  2

  9
$PUCSNAME
  2

  9
$PUCSORG
 10
0.0
 20
0.0
 30
0.0
  9
$PUCSXDIR
 10
1.0
 20
0.0
 30
0.0
  9
$PUCSYDIR
 10
0.0
 20
1.0
 30
0.0
  9
$PUCSORTHOREF
  2

  9
$PUCSORTHOVIEW
 70
     0
  9
$PUCSORGTOP
 10
0.0
 20
0.0
 30
0.0
  9
$PUCSORGBOTTOM
 10
0.0
 20
0.0
 30
0.0
  9
$PUCSORGLEFT
 10
0.0
 20
0.0
 30
0.0
  9
$PUCSORGRIGHT
 10
0.0
 20
0.0
 30
0.0
  9
$PUCSORGFRONT
 10
0.0
 20
0.0
 30
0.0
  9
$PUCSORGBACK
 10
0.0
 20
0.0
 30
0.0
  9
$USERI1
 70
     0
  9
$USERI2
 70
     0
  9
$USERI3
 70
     0
  9
$USERI4
 70
     0
  9
$USERI5
 70
     0
  9
$USERR1
 40
0.0
  9
$USERR2
 40
0.0
  9
$USERR3
 40
0.0
  9
$USERR4
 40
0.0
  9
$USERR5
 40
0.0
  9
$WORLDVIEW
 70
     1
  9
$SHADEDGE
 70
     3
  9
$SHADEDIF
 70
    70
  9
$TILEMODE
 70
     1
  9
$MAXACTVP
 70
    64
  9
$PINSBASE
 10
0.0
 20
0.0
 30
0.0
  9
$PLIMCHECK
 70
     0
  9
$PEXTMIN
 10
1.000000000000000E+20
 20
1.000000000000000E+20
 30
1.000000000000000E+20
  9
$PEXTMAX
 10
-1.000000000000000E+20
 20
-1.000000000000000E+20
 30
-1.000000000000000E+20
  9
$PLIMMIN
 10
0.0
 20
0.0
  9
$PLIMMAX
 10
420.0
 20
297.0
  9
$UNITMODE
 70
     0
  9
$VISRETAIN
 70
     1
  9
$PLINEGEN
 70
     0
  9
$PSLTSCALE
 70
     1
  9
$TREEDEPTH
 70
  3020
  9
$CMLSTYLE
  2
Standard
  9
$CMLJUST
 70
     0
  9
$CMLSCALE
 40
20.0
  9
$PROXYGRAPHICS
 70
     1
  9
$MEASUREMENT
 70
     1
  9
$CELWEIGHT
370
    -1
  9
$ENDCAPS
280
     0
  9
$JOINSTYLE
280
     0
  9
$LWDISPLAY
290
     0
  9
$INSUNITS
 70
     4
  9
$HYPERLINKBASE
  1

  9
$STYLESHEET
  1

  9
$XEDIT
290
     1
  9
$CEPSNTYPE
380
     0
  9
$PSTYLEMODE
290
     1
  9
$FINGERPRINTGUID
  2
{4D03A8C1-B4B9-488F-94F3-B3C909D4E85C}
  9
$VERSIONGUID
  2
{FAEB1C32-E019-11D5-929B-00C0DF256EC4}
  9
$EXTNAMES
290
     1
  9
$PSVPSCALE
 40
0.0
  9
$OLESTARTUP
290
     0
  0
ENDSEC
  0
SECTION
  2
CLASSES
  0
CLASS
  1
ACDBDICTIONARYWDFLT
  2
AcDbDictionaryWithDefault
  3
ObjectDBX Classes
 90
        0
280
     0
281
     0
  0
CLASS
  1
VISUALSTYLE
  2
AcDbVisualStyle
  3
ObjectDBX Classes
 90
     4095
280
     0
281
     0
  0
CLASS
  1
MATERIAL
  2
AcDbMaterial
  3
ObjectDBX Classes
 90
     1153
280
     0
281
     0
  0
CLASS
  1
DICTIONARYVAR
  2
AcDbDictionaryVar
  3
ObjectDBX Classes
 90
        0
280
     0
281
     0
  0
CLASS
  1
ACDBPLACEHOLDER
  2
AcDbPlaceHolder
  3
ObjectDBX Classes
 90
        0
280
     0
281
     0
  0
CLASS
  1
LAYOUT
  2
AcDbLayout
  3
ObjectDBX Classes
 90
        0
280
     0
281
     0
  0
ENDSEC
  0
SECTION
  2
TABLES
  0
TABLE
  2
VPORT
  5
8
330
0
100
AcDbSymbolTable
 70
     1
  0
VPORT
  5
29
330
8
100
AcDbSymbolTableRecord
100
AcDbViewportTableRecord
  2
*Active
 70
     0
 10
0.0
 20
0.0
 11
1.0
 21
1.0
 12
210.0
 22
148.5
 13
0.0
 23
0.0
 14
10.0
 24
10.0
 15
10.0
 25
10.0
 16
0.0
 26
0.0
 36
1.0
 17
0.0
 27
0.0
 37
0.0
 40
297.0
 41
1.414141414141414
 42
50.0
 43
0.0
 44
0.0
 50
0.0
 51
0.0
 71
     0
 72
   100
 73
     1
 74
     3
 75
     0
 76
     0
 77
     0
 78
     0
281
     0
 65
     1
110
0.0
120
0.0
130
0.0
111
1.0
121
0.0
131
0.0
112
0.0
122
1.0
132
0.0
 79
     0
146
0.0
  0
ENDTAB
  0
TABLE
  2
LTYPE
  5
5
330
0
100
AcDbSymbolTable
 70
     5
  0
LTYPE
  5
14
330
5
100
AcDbSymbolTableRecord
100
AcDbLinetypeTableRecord
  2
ByBlock
 70
     0
  3

 72
    65
 73
     0
 40
0.0
  0
LTYPE
  5
15
330
5
100
AcDbSymbolTableRecord
100
AcDbLinetypeTableRecord
  2
ByLayer
 70
     0
  3

 72
    65
 73
     0
 40
0.0
  0
LTYPE
  5
16
330
5
100
AcDbSymbolTableRecord
100
AcDbLinetypeTableRecord
  2
Continuous
 70
     0
  3
Continuous
 72
    65
 73
     0
 40
0.0
  0
LTYPE
  5
3F
330
5
100
AcDbSymbolTableRecord
100
AcDbLinetypeTableRecord
  2
DASHDOT
 70
     0
  3
Dash dot __ . __ . __ . __ . __ . __ . __ . __
 72
    65
 73
     4
 40
13.0
 49
10.0
 74
     0
 49
-1.0
 74
     0
 49
1.0
 74
     0
 49
-1.0
 74
     0
  0
ENDTAB
  0
TABLE
  2
LAYER
  5
2
330
0
100
AcDbSymbolTable
 70
     8
  0
LAYER
  5
10
330
2
100
AcDbSymbolTableRecord
100
AcDbLayerTableRecord
  2
0
 70
     0
 62
     7
  6
Continuous
370
    -3
390
F
  0
LAYER
  5
AD
330
2
100
AcDbSymbolTableRecord
100
AcDbLayerTableRecord
  2
Defpoints
 70
     0
 62
     7
  6
Continuous
290
     0
370
    -3
390
F
  0
LAYER
  5
AE
330
2
100
AcDbSymbolTableRecord
100
AcDbLayerTableRecord
  2
図面枠ﾚｲﾔ_01
 70
     0
 62
     7
  6
Continuous
370
    -3
390
F
  0
LAYER
  5
BC
330
2
100
AcDbSymbolTableRecord
100
AcDbLayerTableRecord
  2
0_01
 70
     0
 62
     7
  6
Continuous
370
    -3
390
F
  0
LAYER
  5
D0
330
2
100
AcDbSymbolTableRecord
100
AcDbLayerTableRecord
  2
GR1_01
 70
     0
 62
     7
  6
Continuous
370
    -3
390
F
  0
LAYER
  5
283
330
2
100
AcDbSymbolTableRecord
100
AcDbLayerTableRecord
  2
基準ﾚｲﾔｸﾞﾙｰﾌﾟ_01
 70
     0
 62
     7
  6
Continuous
370
    -3
390
F
  0
ENDTAB
  0
TABLE
  2
STYLE
  5
3
330
0
100
AcDbSymbolTable
 70
     2
  0
STYLE
  5
11
330
3
100
AcDbSymbolTableRecord
100
AcDbTextStyleTableRecord
  2
Standard
 70
     0
 40
0.0
 41
1.0
 50
0.0
 71
     0
 42
2.5
  3
txt
  4

  0
STYLE
  5
45
330
3
100
AcDbSymbolTableRecord
100
AcDbTextStyleTableRecord
  2
FX_VECTOR
 70
     0
 40
0.0
 41
1.0
 50
0.0
 71
     0
 42
0.2
  3
MONOTXT.SHX
  4
BigFont.shx
  0
ENDTAB
  0
TABLE
  2
VIEW
  5
6
330
0
100
AcDbSymbolTable
 70
     0
  0
ENDTAB
  0
TABLE
  2
UCS
  5
7
330
0
100
AcDbSymbolTable
 70
     0
  0
ENDTAB
  0
TABLE
  2
APPID
  5
9
330
0
100
AcDbSymbolTable
 70
     1
  0
APPID
  5
12
330
9
100
AcDbSymbolTableRecord
100
AcDbRegAppTableRecord
  2
ACAD
 70
     0
  0
ENDTAB
  0
TABLE
  2
DIMSTYLE
  5
A
330
0
100
AcDbSymbolTable
 70
     2
100
AcDbDimStyleTable
  0
DIMSTYLE
105
27
330
A
100
AcDbSymbolTableRecord
100
AcDbDimStyleTableRecord
  2
ISO-25
 70
     0
 41
2.5
 42
0.625
 43
3.75
 44
1.25
 73
     0
 74
     0
 77
     1
 78
     8
140
2.5
141
2.5
143
0.03937007874016
147
0.625
171
     3
172
     1
178
     0
271
     2
272
     2
274
     3
278
    44
283
     0
284
     8
340
11
  0
DIMSTYLE
105
AC
330
A
100
AcDbSymbolTableRecord
100
AcDbDimStyleTableRecord
  2
FXDIMINFO
 70
     0
 41
4.0
 42
1.0
 43
10.0
 44
1.0
 46
6.0
 73
     0
 74
     0
 77
     1
 78
     8
 79
     2
140
4.0
141
2.5
143
0.03937
147
1.0
171
     3
172
     1
173
     1
176
     7
177
     7
271
     2
178
     7
179
     2
271
     2
272
     2
274
     3
284
     8
340
45
341
46
343
46
344
4C
  0
ENDTAB
  0
TABLE
  2
BLOCK_RECORD
  5
1
330
0
100
AcDbSymbolTable
 70
    23
  0
BLOCK_RECORD
  5
1F
330
1
100
AcDbSymbolTableRecord
100
AcDbBlockTableRecord
  2
*Model_Space
340
22
  0
BLOCK_RECORD
  5
1B
330
1
100
AcDbSymbolTableRecord
100
AcDbBlockTableRecord
  2
*Paper_Space
340
1E
  0
BLOCK_RECORD
  5
23
330
1
100
AcDbSymbolTableRecord
100
AcDbBlockTableRecord
  2
*Paper_Space0
340
26
  0
BLOCK_RECORD
  5
46
330
1
100
AcDbSymbolTableRecord
100
AcDbBlockTableRecord
  2
FXTIP_ARROW_S
340
0
102
{BLKREFS
331
2AA
331
2B0
331
2B5
331
2F0
331
2F6
331
312
331
318
331
31F
331
327
102
}
  0
BLOCK_RECORD
  5
4C
330
1
100
AcDbSymbolTableRecord
100
AcDbBlockTableRecord
  2
FXTIP_ARROW_E
340
0
102
{BLKREFS
331
2AB
331
2B1
331
2B6
331
2F1
331
2F7
331
313
331
319
331
320
331
328
102
}
  0
BLOCK_RECORD
  5
52
330
1
100
AcDbSymbolTableRecord
100
AcDbBlockTableRecord
  2
FXTIP_BLACKDOT_S
340
0
  0
BLOCK_RECORD
  5
58
330
1
100
AcDbSymbolTableRecord
100
AcDbBlockTableRecord
  2
FXTIP_BLACKDOT_E
340
0
  0
BLOCK_RECORD
  5
5E
330
1
100
AcDbSymbolTableRecord
100
AcDbBlockTableRecord
  2
FXTIP_TRIANGLE_S
340
0
  0
BLOCK_RECORD
  5
65
330
1
100
AcDbSymbolTableRecord
100
AcDbBlockTableRecord
  2
FXTIP_TRIANGLE_E
340
0
  0
BLOCK_RECORD
  5
6C
330
1
100
AcDbSymbolTableRecord
100
AcDbBlockTableRecord
  2
FXTIP_ARCHITECT_S
340
0
  0
BLOCK_RECORD
  5
72
330
1
100
AcDbSymbolTableRecord
100
AcDbBlockTableRecord
  2
FXTIP_ARCHITECT_E
340
0
  0
BLOCK_RECORD
  5
78
330
1
100
AcDbSymbolTableRecord
100
AcDbBlockTableRecord
  2
FXTIP_CIVIL_S
340
0
  0
BLOCK_RECORD
  5
7E
330
1
100
AcDbSymbolTableRecord
100
AcDbBlockTableRecord
  2
FXTIP_CIVIL_E
340
0
  0
BLOCK_RECORD
  5
84
330
1
100
AcDbSymbolTableRecord
100
AcDbBlockTableRecord
  2
FXTIP_WHITEDOT_S
340
0
  0
BLOCK_RECORD
  5
89
330
1
100
AcDbSymbolTableRecord
100
AcDbBlockTableRecord
  2
FXTIP_WHITEDOT_E
340
0
  0
BLOCK_RECORD
  5
8E
330
1
100
AcDbSymbolTableRecord
100
AcDbBlockTableRecord
  2
FXTIP_UPARROW_S
340
0
  0
BLOCK_RECORD
  5
93
330
1
100
AcDbSymbolTableRecord
100
AcDbBlockTableRecord
  2
FXTIP_UPARROW_E
340
0
  0
BLOCK_RECORD
  5
98
330
1
100
AcDbSymbolTableRecord
100
AcDbBlockTableRecord
  2
FXTIP_DOWNARROW_S
340
0
  0
BLOCK_RECORD
  5
9D
330
1
100
AcDbSymbolTableRecord
100
AcDbBlockTableRecord
  2
FXTIP_DOWNARROW_E
340
0
  0
BLOCK_RECORD
  5
A2
330
1
100
AcDbSymbolTableRecord
100
AcDbBlockTableRecord
  2
FXTIP_BLACKTRIANGLE_S
340
0
  0
BLOCK_RECORD
  5
A7
330
1
100
AcDbSymbolTableRecord
100
AcDbBlockTableRecord
  2
FXTIP_BLACKTRIANGLE_E
340
0
  0
BLOCK_RECORD
  5
32D
330
1
100
AcDbSymbolTableRecord
100
AcDbBlockTableRecord
  2
BLKF022
340
0
102
{BLKREFS
331
330
102
}
  0
BLOCK_RECORD
  5
33E
330
1
100
AcDbSymbolTableRecord
100
AcDbBlockTableRecord
  2
BLKF023
340
0
102
{BLKREFS
331
341
102
}
  0
BLOCK_RECORD
  5
3B3
330
1
100
AcDbSymbolTableRecord
100
AcDbBlockTableRecord
  2
BLKF024
340
0
102
{BLKREFS
331
3B6
102
}
  0
BLOCK_RECORD
  5
3CB
330
1
100
AcDbSymbolTableRecord
100
AcDbBlockTableRecord
  2
BLKF025
340
0
102
{BLKREFS
331
3CE
102
}
  0
ENDTAB
  0
ENDSEC
  0
SECTION
  2
BLOCKS
  0
BLOCK
  5
20
330
1F
100
AcDbEntity
  8
0
100
AcDbBlockBegin
  2
*Model_Space
 70
     0
 10
0.0
 20
0.0
 30
0.0
  3
*Model_Space
  1

  0
ENDBLK
  5
21
330
1F
100
AcDbEntity
  8
0
100
AcDbBlockEnd
  0
BLOCK
  5
1C
330
1B
100
AcDbEntity
 67
     1
  8
0
100
AcDbBlockBegin
  2
*Paper_Space
 70
     0
 10
0.0
 20
0.0
 30
0.0
  3
*Paper_Space
  1

  0
ENDBLK
  5
1D
330
1B
100
AcDbEntity
 67
     1
  8
0
100
AcDbBlockEnd
  0
BLOCK
  5
24
330
23
100
AcDbEntity
  8
0
100
AcDbBlockBegin
  2
*Paper_Space0
 70
     0
 10
0.0
 20
0.0
 30
0.0
  3
*Paper_Space0
  1

  0
ENDBLK
  5
25
330
23
100
AcDbEntity
  8
0
100
AcDbBlockEnd
  0
BLOCK
  5
47
330
46
100
AcDbEntity
  8
0
100
AcDbBlockBegin
  2
FXTIP_ARROW_S
 70
     0
 10
0.0
 20
0.0
 30
0.0
  3
FXTIP_ARROW_S
  1

  0
LINE
  5
49
330
46
100
AcDbEntity
  8
0
  6
Continuous
 62
     0
370
    -2
100
AcDbLine
 10
0.0
 20
0.0
 30
0.0
 11
-1.0
 21
0.0000000000000001
 31
0.0
  0
LINE
  5
4A
330
46
100
AcDbEntity
  8
0
  6
Continuous
 62
     0
370
    -2
100
AcDbLine
 10
0.0
 20
0.0
 30
0.0
 11
-0.9659258262890683
 21
-0.2588190451025206
 31
0.0
  0
LINE
  5
4B
330
46
100
AcDbEntity
  8
0
  6
Continuous
 62
     0
370
    -2
100
AcDbLine
 10
0.0
 20
0.0
 30
0.0
 11
-0.9659258262890683
 21
0.2588190451025209
 31
0.0
  0
ENDBLK
  5
48
330
46
100
AcDbEntity
  8
0
100
AcDbBlockEnd
  0
BLOCK
  5
4D
330
4C
100
AcDbEntity
  8
0
100
AcDbBlockBegin
  2
FXTIP_ARROW_E
 70
     0
 10
0.0
 20
0.0
 30
0.0
  3
FXTIP_ARROW_E
  1

  0
LINE
  5
4F
330
4C
100
AcDbEntity
  8
0
  6
Continuous
 62
     0
370
    -2
100
AcDbLine
 10
0.0
 20
0.0
 30
0.0
 11
-1.0
 21
0.0
 31
0.0
  0
LINE
  5
50
330
4C
100
AcDbEntity
  8
0
  6
Continuous
 62
     0
370
    -2
100
AcDbLine
 10
0.0
 20
0.0
 30
0.0
 11
-0.9659258262890683
 21
0.2588190451025207
 31
0.0
  0
LINE
  5
51
330
4C
100
AcDbEntity
  8
0
  6
Continuous
 62
     0
370
    -2
100
AcDbLine
 10
0.0
 20
0.0
 30
0.0
 11
-0.9659258262890683
 21
-0.2588190451025207
 31
0.0
  0
ENDBLK
  5
4E
330
4C
100
AcDbEntity
  8
0
100
AcDbBlockEnd
  0
BLOCK
  5
53
330
52
100
AcDbEntity
  8
0
100
AcDbBlockBegin
  2
FXTIP_BLACKDOT_S
 70
     0
 10
0.0
 20
0.0
 30
0.0
  3
FXTIP_BLACKDOT_S
  1

  0
LINE
  5
55
330
52
100
AcDbEntity
  8
0
  6
Continuous
 62
     0
370
    -2
100
AcDbLine
 10
0.0
 20
0.0
 30
0.0
 11
-1.0
 21
0.0000000000000001
 31
0.0
  0
LWPOLYLINE
  5
56
330
52
100
AcDbEntity
  8
0
  6
Continuous
 62
     0
370
    -2
100
AcDbPolyline
 90
        2
 70
     1
 10
-0.25
 20
0.0
 40
0.5
 41
0.5
 42
1.0
 10
0.25
 20
0.0
 40
0.5
 41
0.5
 42
1.0
  0
CIRCLE
  5
57
330
52
100
AcDbEntity
  8
0
  6
Continuous
 62
     0
370
    -2
100
AcDbCircle
 10
0.0
 20
0.0
 30
0.0
 40
0.5
  0
ENDBLK
  5
54
330
52
100
AcDbEntity
  8
0
100
AcDbBlockEnd
  0
BLOCK
  5
59
330
58
100
AcDbEntity
  8
0
100
AcDbBlockBegin
  2
FXTIP_BLACKDOT_E
 70
     0
 10
0.0
 20
0.0
 30
0.0
  3
FXTIP_BLACKDOT_E
  1

  0
LINE
  5
5B
330
58
100
AcDbEntity
  8
0
  6
Continuous
 62
     0
370
    -2
100
AcDbLine
 10
0.0
 20
0.0
 30
0.0
 11
-1.0
 21
0.0
 31
0.0
  0
LWPOLYLINE
  5
5C
330
58
100
AcDbEntity
  8
0
  6
Continuous
 62
     0
370
    -2
100
AcDbPolyline
 90
        2
 70
     1
 10
-0.25
 20
0.0
 40
0.5
 41
0.5
 42
1.0
 10
0.25
 20
0.0
 40
0.5
 41
0.5
 42
1.0
  0
CIRCLE
  5
5D
330
58
100
AcDbEntity
  8
0
  6
Continuous
 62
     0
370
    -2
100
AcDbCircle
 10
0.0
 20
0.0
 30
0.0
 40
0.5
  0
ENDBLK
  5
5A
330
58
100
AcDbEntity
  8
0
100
AcDbBlockEnd
  0
BLOCK
  5
5F
330
5E
100
AcDbEntity
  8
0
100
AcDbBlockBegin
  2
FXTIP_TRIANGLE_S
 70
     0
 10
0.0
 20
0.0
 30
0.0
  3
FXTIP_TRIANGLE_S
  1

  0
LINE
  5
61
330
5E
100
AcDbEntity
  8
0
  6
Continuous
 62
     0
370
    -2
100
AcDbLine
 10
0.0
 20
0.0
 30
0.0
 11
-1.0
 21
0.0000000000000001
 31
0.0
  0
LINE
  5
62
330
5E
100
AcDbEntity
  8
0
  6
Continuous
 62
     0
370
    -2
100
AcDbLine
 10
0.0
 20
0.0
 30
0.0
 11
-0.9659258262890683
 21
-0.2588190451025206
 31
0.0
  0
LINE
  5
63
330
5E
100
AcDbEntity
  8
0
  6
Continuous
 62
     0
370
    -2
100
AcDbLine
 10
0.0
 20
0.0
 30
0.0
 11
-0.9659258262890683
 21
0.2588190451025209
 31
0.0
  0
LINE
  5
64
330
5E
100
AcDbEntity
  8
0
  6
Continuous
 62
     0
370
    -2
100
AcDbLine
 10
-0.9659258262890683
 20
-0.2588190451025206
 30
0.0
 11
-0.9659258262890683
 21
0.2588190451025209
 31
0.0
  0
ENDBLK
  5
60
330
5E
100
AcDbEntity
  8
0
100
AcDbBlockEnd
  0
BLOCK
  5
66
330
65
100
AcDbEntity
  8
0
100
AcDbBlockBegin
  2
FXTIP_TRIANGLE_E
 70
     0
 10
0.0
 20
0.0
 30
0.0
  3
FXTIP_TRIANGLE_E
  1

  0
LINE
  5
68
330
65
100
AcDbEntity
  8
0
  6
Continuous
 62
     0
370
    -2
100
AcDbLine
 10
0.0
 20
0.0
 30
0.0
 11
-1.0
 21
0.0
 31
0.0
  0
LINE
  5
69
330
65
100
AcDbEntity
  8
0
  6
Continuous
 62
     0
370
    -2
100
AcDbLine
 10
0.0
 20
0.0
 30
0.0
 11
-0.9659258262890683
 21
0.2588190451025207
 31
0.0
  0
LINE
  5
6A
330
65
100
AcDbEntity
  8
0
  6
Continuous
 62
     0
370
    -2
100
AcDbLine
 10
0.0
 20
0.0
 30
0.0
 11
-0.9659258262890683
 21
-0.2588190451025207
 31
0.0
  0
LINE
  5
6B
330
65
100
AcDbEntity
  8
0
  6
Continuous
 62
     0
370
    -2
100
AcDbLine
 10
-0.9659258262890683
 20
0.2588190451025207
 30
0.0
 11
-0.9659258262890683
 21
-0.2588190451025207
 31
0.0
  0
ENDBLK
  5
67
330
65
100
AcDbEntity
  8
0
100
AcDbBlockEnd
  0
BLOCK
  5
6D
330
6C
100
AcDbEntity
  8
0
100
AcDbBlockBegin
  2
FXTIP_ARCHITECT_S
 70
     0
 10
0.0
 20
0.0
 30
0.0
  3
FXTIP_ARCHITECT_S
  1

  0
LINE
  5
6F
330
6C
100
AcDbEntity
  8
0
  6
Continuous
 62
     0
370
    -2
100
AcDbLine
 10
0.0
 20
0.0
 30
0.0
 11
-1.0
 21
0.0000000000000001
 31
0.0
  0
LINE
  5
70
330
6C
100
AcDbEntity
  8
0
  6
Continuous
 62
     0
370
    -2
100
AcDbLine
 10
0.0
 20
0.0
 30
0.0
 11
-0.7071067811865476
 21
-0.7071067811865474
 31
0.0
  0
LINE
  5
71
330
6C
100
AcDbEntity
  8
0
  6
Continuous
 62
     0
370
    -2
100
AcDbLine
 10
0.0
 20
0.0
 30
0.0
 11
0.7071067811865476
 21
0.7071067811865474
 31
0.0
  0
ENDBLK
  5
6E
330
6C
100
AcDbEntity
  8
0
100
AcDbBlockEnd
  0
BLOCK
  5
73
330
72
100
AcDbEntity
  8
0
100
AcDbBlockBegin
  2
FXTIP_ARCHITECT_E
 70
     0
 10
0.0
 20
0.0
 30
0.0
  3
FXTIP_ARCHITECT_E
  1

  0
LINE
  5
75
330
72
100
AcDbEntity
  8
0
  6
Continuous
 62
     0
370
    -2
100
AcDbLine
 10
0.0
 20
0.0
 30
0.0
 11
-1.0
 21
0.0
 31
0.0
  0
LINE
  5
76
330
72
100
AcDbEntity
  8
0
  6
Continuous
 62
     0
370
    -2
100
AcDbLine
 10
0.0
 20
0.0
 30
0.0
 11
0.7071067811865475
 21
0.7071067811865475
 31
0.0
  0
LINE
  5
77
330
72
100
AcDbEntity
  8
0
  6
Continuous
 62
     0
370
    -2
100
AcDbLine
 10
0.0
 20
0.0
 30
0.0
 11
-0.7071067811865475
 21
-0.7071067811865475
 31
0.0
  0
ENDBLK
  5
74
330
72
100
AcDbEntity
  8
0
100
AcDbBlockEnd
  0
BLOCK
  5
79
330
78
100
AcDbEntity
  8
0
100
AcDbBlockBegin
  2
FXTIP_CIVIL_S
 70
     0
 10
0.0
 20
0.0
 30
0.0
  3
FXTIP_CIVIL_S
  1

  0
LINE
  5
7B
330
78
100
AcDbEntity
  8
0
  6
Continuous
 62
     0
370
    -2
100
AcDbLine
 10
0.0
 20
0.0
 30
0.0
 11
-1.0
 21
0.0000000000000001
 31
0.0
  0
LINE
  5
7C
330
78
100
AcDbEntity
  8
0
  6
Continuous
 62
     0
370
    -2
100
AcDbLine
 10
0.0
 20
-0.0625
 30
0.0
 11
-1.0
 21
-0.0624999999999999
 31
0.0
  0
LINE
  5
7D
330
78
100
AcDbEntity
  8
0
  6
Continuous
 62
     0
370
    -2
100
AcDbLine
 10
0.0
 20
-0.125
 30
0.0
 11
-1.0
 21
-0.1249999999999999
 31
0.0
  0
ENDBLK
  5
7A
330
78
100
AcDbEntity
  8
0
100
AcDbBlockEnd
  0
BLOCK
  5
7F
330
7E
100
AcDbEntity
  8
0
100
AcDbBlockBegin
  2
FXTIP_CIVIL_E
 70
     0
 10
0.0
 20
0.0
 30
0.0
  3
FXTIP_CIVIL_E
  1

  0
LINE
  5
81
330
7E
100
AcDbEntity
  8
0
  6
Continuous
 62
     0
370
    -2
100
AcDbLine
 10
0.0
 20
0.0
 30
0.0
 11
-1.0
 21
0.0
 31
0.0
  0
LINE
  5
82
330
7E
100
AcDbEntity
  8
0
  6
Continuous
 62
     0
370
    -2
100
AcDbLine
 10
0.0
 20
0.0625
 30
0.0
 11
-1.0
 21
0.0625
 31
0.0
  0
LINE
  5
83
330
7E
100
AcDbEntity
  8
0
  6
Continuous
 62
     0
370
    -2
100
AcDbLine
 10
0.0
 20
0.125
 30
0.0
 11
-1.0
 21
0.125
 31
0.0
  0
ENDBLK
  5
80
330
7E
100
AcDbEntity
  8
0
100
AcDbBlockEnd
  0
BLOCK
  5
85
330
84
100
AcDbEntity
  8
0
100
AcDbBlockBegin
  2
FXTIP_WHITEDOT_S
 70
     0
 10
0.0
 20
0.0
 30
0.0
  3
FXTIP_WHITEDOT_S
  1

  0
LINE
  5
87
330
84
100
AcDbEntity
  8
0
  6
Continuous
 62
     0
370
    -2
100
AcDbLine
 10
0.0
 20
0.0
 30
0.0
 11
-1.0
 21
0.0000000000000001
 31
0.0
  0
CIRCLE
  5
88
330
84
100
AcDbEntity
  8
0
  6
Continuous
 62
     0
370
    -2
100
AcDbCircle
 10
0.0
 20
0.0
 30
0.0
 40
0.5
  0
ENDBLK
  5
86
330
84
100
AcDbEntity
  8
0
100
AcDbBlockEnd
  0
BLOCK
  5
8A
330
89
100
AcDbEntity
  8
0
100
AcDbBlockBegin
  2
FXTIP_WHITEDOT_E
 70
     0
 10
0.0
 20
0.0
 30
0.0
  3
FXTIP_WHITEDOT_E
  1

  0
LINE
  5
8C
330
89
100
AcDbEntity
  8
0
  6
Continuous
 62
     0
370
    -2
100
AcDbLine
 10
0.0
 20
0.0
 30
0.0
 11
-1.0
 21
0.0
 31
0.0
  0
CIRCLE
  5
8D
330
89
100
AcDbEntity
  8
0
  6
Continuous
 62
     0
370
    -2
100
AcDbCircle
 10
0.0
 20
0.0
 30
0.0
 40
0.5
  0
ENDBLK
  5
8B
330
89
100
AcDbEntity
  8
0
100
AcDbBlockEnd
  0
BLOCK
  5
8F
330
8E
100
AcDbEntity
  8
0
100
AcDbBlockBegin
  2
FXTIP_UPARROW_S
 70
     0
 10
0.0
 20
0.0
 30
0.0
  3
FXTIP_UPARROW_S
  1

  0
LINE
  5
91
330
8E
100
AcDbEntity
  8
0
  6
Continuous
 62
     0
370
    -2
100
AcDbLine
 10
0.0
 20
0.0
 30
0.0
 11
-1.0
 21
0.0000000000000001
 31
0.0
  0
LINE
  5
92
330
8E
100
AcDbEntity
  8
0
  6
Continuous
 62
     0
370
    -2
100
AcDbLine
 10
0.0
 20
0.0
 30
0.0
 11
-0.9659258262890683
 21
-0.2588190451025206
 31
0.0
  0
ENDBLK
  5
90
330
8E
100
AcDbEntity
  8
0
100
AcDbBlockEnd
  0
BLOCK
  5
94
330
93
100
AcDbEntity
  8
0
100
AcDbBlockBegin
  2
FXTIP_UPARROW_E
 70
     0
 10
0.0
 20
0.0
 30
0.0
  3
FXTIP_UPARROW_E
  1

  0
LINE
  5
96
330
93
100
AcDbEntity
  8
0
  6
Continuous
 62
     0
370
    -2
100
AcDbLine
 10
0.0
 20
0.0
 30
0.0
 11
-1.0
 21
0.0
 31
0.0
  0
LINE
  5
97
330
93
100
AcDbEntity
  8
0
  6
Continuous
 62
     0
370
    -2
100
AcDbLine
 10
0.0
 20
0.0
 30
0.0
 11
-0.9659258262890683
 21
0.2588190451025207
 31
0.0
  0
ENDBLK
  5
95
330
93
100
AcDbEntity
  8
0
100
AcDbBlockEnd
  0
BLOCK
  5
99
330
98
100
AcDbEntity
  8
0
100
AcDbBlockBegin
  2
FXTIP_DOWNARROW_S
 70
     0
 10
0.0
 20
0.0
 30
0.0
  3
FXTIP_DOWNARROW_S
  1

  0
LINE
  5
9B
330
98
100
AcDbEntity
  8
0
  6
Continuous
 62
     0
370
    -2
100
AcDbLine
 10
0.0
 20
0.0
 30
0.0
 11
-1.0
 21
0.0000000000000001
 31
0.0
  0
LINE
  5
9C
330
98
100
AcDbEntity
  8
0
  6
Continuous
 62
     0
370
    -2
100
AcDbLine
 10
0.0
 20
0.0
 30
0.0
 11
-0.9659258262890683
 21
0.2588190451025209
 31
0.0
  0
ENDBLK
  5
9A
330
98
100
AcDbEntity
  8
0
100
AcDbBlockEnd
  0
BLOCK
  5
9E
330
9D
100
AcDbEntity
  8
0
100
AcDbBlockBegin
  2
FXTIP_DOWNARROW_E
 70
     0
 10
0.0
 20
0.0
 30
0.0
  3
FXTIP_DOWNARROW_E
  1

  0
LINE
  5
A0
330
9D
100
AcDbEntity
  8
0
  6
Continuous
 62
     0
370
    -2
100
AcDbLine
 10
0.0
 20
0.0
 30
0.0
 11
-1.0
 21
0.0
 31
0.0
  0
LINE
  5
A1
330
9D
100
AcDbEntity
  8
0
  6
Continuous
 62
     0
370
    -2
100
AcDbLine
 10
0.0
 20
0.0
 30
0.0
 11
-0.9659258262890683
 21
-0.2588190451025207
 31
0.0
  0
ENDBLK
  5
9F
330
9D
100
AcDbEntity
  8
0
100
AcDbBlockEnd
  0
BLOCK
  5
A3
330
A2
100
AcDbEntity
  8
0
100
AcDbBlockBegin
  2
FXTIP_BLACKTRIANGLE_S
 70
     0
 10
0.0
 20
0.0
 30
0.0
  3
FXTIP_BLACKTRIANGLE_S
  1

  0
LINE
  5
A5
330
A2
100
AcDbEntity
  8
0
  6
Continuous
 62
     0
370
    -2
100
AcDbLine
 10
0.0
 20
0.0
 30
0.0
 11
-1.0
 21
0.0000000000000001
 31
0.0
  0
SOLID
  5
A6
330
A2
100
AcDbEntity
  8
0
  6
Continuous
 62
     0
370
    -2
100
AcDbTrace
 10
0.0
 20
0.0
 30
0.0
 11
-0.9659258262890683
 21
-0.2588190451025206
 31
0.0
 12
-0.9659258262890683
 22
0.2588190451025209
 32
0.0
 13
-0.9659258262890683
 23
0.2588190451025209
 33
0.0
  0
ENDBLK
  5
A4
330
A2
100
AcDbEntity
  8
0
100
AcDbBlockEnd
  0
BLOCK
  5
A8
330
A7
100
AcDbEntity
  8
0
100
AcDbBlockBegin
  2
FXTIP_BLACKTRIANGLE_E
 70
     0
 10
0.0
 20
0.0
 30
0.0
  3
FXTIP_BLACKTRIANGLE_E
  1

  0
LINE
  5
AA
330
A7
100
AcDbEntity
  8
0
  6
Continuous
 62
     0
370
    -2
100
AcDbLine
 10
0.0
 20
0.0
 30
0.0
 11
-1.0
 21
0.0
 31
0.0
  0
SOLID
  5
AB
330
A7
100
AcDbEntity
  8
0
  6
Continuous
 62
     0
370
    -2
100
AcDbTrace
 10
0.0
 20
0.0
 30
0.0
 11
-0.9659258262890683
 21
0.2588190451025207
 31
0.0
 12
-0.9659258262890683
 22
-0.2588190451025207
 32
0.0
 13
-0.9659258262890683
 23
-0.2588190451025207
 33
0.0
  0
ENDBLK
  5
A9
330
A7
100
AcDbEntity
  8
0
100
AcDbBlockEnd
  0
BLOCK
  5
32E
330
32D
100
AcDbEntity
  8
0
100
AcDbBlockBegin
  2
BLKF022
 70
     0
 10
0.0
 20
0.0
 30
0.0
  3
BLKF022
  1

  0
ARC
  5
331
330
32D
100
AcDbEntity
  8
GR1_01
  6
Continuous
 62
     3
370
    50
100
AcDbCircle
 10
231.6239045228344
 20
85.85600000000005
 30
0.0
 40
37.5
100
AcDbArc
 50
99.13205190322377
 51
36.5940959362094
  0
ARC
  5
332
330
32D
100
AcDbEntity
  8
GR1_01
  6
Continuous
 62
     3
370
    50
100
AcDbCircle
 10
231.6239045228344
 20
85.85600000000005
 30
0.0
 40
30.99999999999997
100
AcDbArc
 50
102.8346249928323
 51
32.67079209222452
  0
ARC
  5
333
330
32D
100
AcDbEntity
  8
GR1_01
  6
Continuous
 62
     6
370
    25
100
AcDbCircle
 10
231.6239045228344
 20
85.85600000000005
 30
0.0
 40
25.99999999999997
100
AcDbArc
 50
106.9771149187194
 51
27.99918196388866
  0
TEXT
  5
334
330
32D
100
AcDbEntity
  8
基準ﾚｲﾔｸﾞﾙｰﾌﾟ_01
  6
Continuous
 62
     7
370
    25
100
AcDbText
 10
200.4903869628906
 20
79.60415649414062
 30
0.0
 40
3.90961480140686
  1
Ｄ
 50
96.99999999999997
 41
1.771831307663269
  7
FX_VECTOR
 72
     5
 11
199.8873793749911
 21
84.51525918869149
 31
0.0
100
AcDbText
  0
TEXT
  5
335
330
32D
100
AcDbEntity
  8
基準ﾚｲﾔｸﾞﾙｰﾌﾟ_01
  6
Continuous
 62
     7
370
    25
100
AcDbText
 10
199.9027404785156
 20
87.32174682617188
 30
0.0
 40
3.90961480140686
  1
Ｃ
 50
83.0
 41
1.771831307663263
  7
FX_VECTOR
 72
     5
 11
200.5057480664151
 21
92.23284952072272
 31
0.0
100
AcDbText
  0
TEXT
  5
336
330
32D
100
AcDbEntity
  8
基準ﾚｲﾔｸﾞﾙｰﾌﾟ_01
  6
Continuous
 62
     7
370
    25
100
AcDbText
 10
201.5727691650391
 20
75.59390258789062
 30
0.0
 40
3.90961480140686
  1
Ｌ
 50
104.5000000000001
 41
1.771831307663264
  7
FX_VECTOR
 72
     5
 11
200.3338928563253
 21
80.38428183375382
 31
0.0
100
AcDbText
  0
TEXT
  5
337
330
32D
100
AcDbEntity
  8
基準ﾚｲﾔｸﾞﾙｰﾌﾟ_01
  6
Continuous
 62
     7
370
    25
100
AcDbText
 10
203.0473937988281
 20
72.00808715820312
 30
0.0
 40
3.90961480140686
  1
Ｏ
 50
111.4999999999998
 41
1.771831307663266
  7
FX_VECTOR
 72
     5
 11
201.2339515128997
 21
76.61177860128397
 31
0.0
100
AcDbText
  0
TEXT
  5
338
330
32D
100
AcDbEntity
  8
基準ﾚｲﾔｸﾞﾙｰﾌﾟ_01
  6
Continuous
 62
     7
370
    25
100
AcDbText
 10
205.0993957519531
 20
68.39657592773438
 30
0.0
 40
3.90961480140686
  1
Ｇ
 50
118.9999999999999
 41
1.771831307663265
  7
FX_VECTOR
 72
     5
 11
202.7005654019501
 21
72.7241804359344
 31
0.0
100
AcDbText
  0
TEXT
  5
339
330
32D
100
AcDbEntity
  8
基準ﾚｲﾔｸﾞﾙｰﾌﾟ_01
  6
Continuous
 62
     7
370
    25
100
AcDbText
 10
200.2725830078125
 20
90.90325927734375
 30
0.0
 40
3.90961480140686
  1
Ａ
 50
76.50000000000013
 41
1.771831307663265
  7
FX_VECTOR
 72
     5
 11
201.4276669840762
 21
95.71453029811028
 31
0.0
100
AcDbText
  0
TEXT
  5
33A
330
32D
100
AcDbEntity
  8
基準ﾚｲﾔｸﾞﾙｰﾌﾟ_01
  6
Continuous
 62
     7
370
    25
100
AcDbText
 10
201.3629760742188
 20
95.48184204101562
 30
0.0
 40
3.90961480140686
  1
Ｓ
 50
67.99999999999997
 41
1.771831307663269
  7
FX_VECTOR
 72
     5
 11
203.2165235866232
 21
100.0695331211504
 31
0.0
100
AcDbText
  0
TEXT
  5
33B
330
32D
100
AcDbEntity
  8
基準ﾚｲﾔｸﾞﾙｰﾌﾟ_01
  6
Continuous
 62
     7
370
    25
100
AcDbText
 10
202.7616424560547
 20
99.09799194335938
 30
0.0
 40
3.90961480140686
  1
Ｔ
 50
61.00000000000016
 41
1.771831307663265
  7
FX_VECTOR
 72
     5
 11
205.1604728060578
 21
103.4255964515594
 31
0.0
100
AcDbText
  0
TEXT
  5
33C
330
32D
100
AcDbEntity
  8
基準ﾚｲﾔｸﾞﾙｰﾌﾟ_01
  6
Continuous
 62
     7
370
    25
100
AcDbText
 10
204.5905609130859
 20
102.5166931152344
 30
0.0
 40
3.90961480140686
  1
Ｅ
 50
53.99999999999991
 41
1.77183130766327
  7
FX_VECTOR
 72
     5
 11
207.4989130653534
 21
106.5196964359787
 31
0.0
100
AcDbText
  0
TEXT
  5
33D
330
32D
100
AcDbEntity
  8
基準ﾚｲﾔｸﾞﾙｰﾌﾟ_01
  6
Continuous
 62
     7
370
    25
100
AcDbText
 10
206.8224945068359
 20
105.6870422363281
 30
0.0
 40
3.90961480140686
  1
Ｒ
 50
46.99999999999999
 41
1.771831307663268
  7
FX_VECTOR
 72
     5
 11
210.1970116295345
 21
109.3057688101526
 31
0.0
100
AcDbText
  0
INSERT
  5
341
330
32D
100
AcDbEntity
  8
GR1_01
  6
Continuous
 62
     7
370
    25
100
AcDbBlockReference
  2
BLKF023
 10
0.0
 20
0.0
 30
0.0
  0
LINE
  5
399
330
32D
100
AcDbEntity
  8
GR1_01
  6
Continuous
 62
     3
370
    50
100
AcDbLine
 10
209.5953936337303
 20
62.65417446788695
 30
0.0
 11
207.3238235339409
 21
65.0479098922275
 31
0.0
  0
LINE
  5
39A
330
32D
100
AcDbEntity
  8
GR1_01
  6
Continuous
 62
     3
370
    50
100
AcDbLine
 10
207.3238235339409
 20
65.0479098922275
 30
0.0
 11
204.9300881096004
 21
62.77633979243819
 31
0.0
  0
LINE
  5
39B
330
32D
100
AcDbEntity
  8
GR1_01
  6
Continuous
 62
     3
370
    50
100
AcDbLine
 10
204.9300881096004
 20
62.77633979243819
 30
0.0
 11
207.2016582093898
 21
60.38260436809759
 31
0.0
  0
LINE
  5
39C
330
32D
100
AcDbEntity
  8
GR1_01
  6
Continuous
 62
     3
370
    50
100
AcDbLine
 10
207.2016582093898
 20
60.38260436809759
 30
0.0
 11
209.5953936337303
 21
62.65417446788695
 31
0.0
  0
LINE
  5
39D
330
32D
100
AcDbEntity
  8
GR1_01
  6
Continuous
 62
     3
370
    50
100
AcDbLine
 10
208.3335692859998
 20
61.58683942955076
 30
0.0
 11
206.1343231710536
 21
61.6444287158281
 31
0.0
  0
LINE
  5
39E
330
32D
100
AcDbEntity
  8
GR1_01
  6
Continuous
 62
     3
370
    50
100
AcDbLine
 10
206.1343231710536
 20
61.6444287158281
 30
0.0
 11
206.1858041911033
 21
63.61040955456781
 31
0.0
  0
LINE
  5
39F
330
32D
100
AcDbEntity
  8
GR1_01
  6
Continuous
 62
     3
370
    50
100
AcDbLine
 10
206.1858041911033
 20
63.61040955456781
 30
0.0
 11
206.7212183982706
 21
63.04620070426188
 31
0.0
  0
LINE
  5
3A0
330
32D
100
AcDbEntity
  8
GR1_01
  6
Continuous
 62
     3
370
    50
100
AcDbLine
 10
206.7212183982706
 20
63.04620070426188
 30
0.0
 11
206.6985320213595
 21
62.17984292299536
 31
0.0
  0
LINE
  5
3A1
330
32D
100
AcDbEntity
  8
GR1_01
  6
Continuous
 62
     3
370
    50
100
AcDbLine
 10
206.6985320213595
 20
62.17984292299536
 30
0.0
 11
207.7981550788326
 21
62.15104827985664
 31
0.0
  0
LINE
  5
3A2
330
32D
100
AcDbEntity
  8
GR1_01
  6
Continuous
 62
     3
370
    50
100
AcDbLine
 10
207.7981550788326
 20
62.15104827985664
 30
0.0
 11
207.8269497219712
 21
63.25067133732978
 31
0.0
  0
LINE
  5
3A3
330
32D
100
AcDbEntity
  8
GR1_01
  6
Continuous
 62
     3
370
    50
100
AcDbLine
 10
207.8269497219712
 20
63.25067133732978
 30
0.0
 11
207.2488383697848
 21
63.26580971585634
 31
0.0
  0
ARC
  5
3A4
330
32D
100
AcDbEntity
  8
GR1_01
  6
Continuous
 62
     3
370
    50
100
AcDbCircle
 10
207.2473986376278
 20
63.21082856298273
 30
0.0
 40
0.055
100
AcDbArc
 50
88.5
 51
223.5
  0
LINE
  5
3A5
330
32D
100
AcDbEntity
  8
GR1_01
  6
Continuous
 62
     3
370
    50
100
AcDbLine
 10
207.2075030472222
 20
63.17296906131958
 30
0.0
 11
207.4622188236937
 21
62.90455463847832
 31
0.0
  0
LINE
  5
3A6
330
32D
100
AcDbEntity
  8
GR1_01
  6
Continuous
 62
     3
370
    50
100
AcDbLine
 10
207.4622188236937
 20
62.90455463847832
 30
0.0
 11
207.2627408716653
 21
62.71525713016251
 31
0.0
  0
LINE
  5
3A7
330
32D
100
AcDbEntity
  8
GR1_01
  6
Continuous
 62
     3
370
    50
100
AcDbLine
 10
207.2627408716653
 20
62.71525713016251
 30
0.0
 11
206.1919124573309
 21
63.84367483077426
 31
0.0
  0
LINE
  5
3A8
330
32D
100
AcDbEntity
  8
GR1_01
  6
Continuous
 62
     3
370
    50
100
AcDbLine
 10
206.1919124573309
 20
63.84367483077426
 30
0.0
 11
206.9995271205498
 21
64.61007252972843
 31
0.0
  0
LINE
  5
3A9
330
32D
100
AcDbEntity
  8
GR1_01
  6
Continuous
 62
     3
370
    50
100
AcDbLine
 10
206.9995271205498
 20
64.61007252972843
 30
0.0
 11
207.3781221371814
 21
64.2111166256717
 31
0.0
  0
LINE
  5
3AA
330
32D
100
AcDbEntity
  8
GR1_01
  6
Continuous
 62
     3
370
    50
100
AcDbLine
 10
207.3781221371814
 20
64.2111166256717
 30
0.0
 11
207.0657798534555
 21
63.91471486572902
 31
0.0
  0
ARC
  5
3AB
330
32D
100
AcDbEntity
  8
GR1_01
  6
Continuous
 62
     3
370
    50
100
AcDbCircle
 10
207.1036393551186
 20
63.87481927532332
 30
0.0
 40
0.055
100
AcDbArc
 50
133.5
 51
268.5000000000028
  0
LINE
  5
3AC
330
32D
100
AcDbEntity
  8
GR1_01
  6
Continuous
 62
     3
370
    50
100
AcDbLine
 10
207.1021996229617
 20
63.81983812244965
 30
0.0
 11
208.3911585722771
 21
63.78608554449704
 31
0.0
  0
LINE
  5
3AD
330
32D
100
AcDbEntity
  8
GR1_01
  6
Continuous
 62
     3
370
    50
100
AcDbLine
 10
208.3911585722771
 20
63.78608554449704
 30
0.0
 11
208.3335692859998
 21
61.58683942955076
 31
0.0
  0
TEXT
  5
3AE
330
32D
100
AcDbEntity
  8
基準ﾚｲﾔｸﾞﾙｰﾌﾟ_01
  6
Continuous
 62
     7
370
    25
100
AcDbText
 10
263.3604431152344
 20
84.5152587890625
 30
0.0
 40
3.90961480140686
  1
２
 50
263.0000000000003
 41
1.771831307663268
  7
FX_VECTOR
 72
     5
 11
262.7574355273349
 21
79.60415609451164
 31
0.0
100
AcDbText
  0
TEXT
  5
3AF
330
32D
100
AcDbEntity
  8
基準ﾚｲﾔｸﾞﾙｰﾌﾟ_01
  6
Continuous
 62
     7
370
    25
100
AcDbText
 10
262.7420959472656
 20
92.23284912109375
 30
0.0
 40
3.90961480140686
  1
５
 50
277.0000000000003
 41
1.771831307663265
  7
FX_VECTOR
 72
     5
 11
263.3451035351652
 21
87.3217464265429
 31
0.0
100
AcDbText
  0
TEXT
  5
3B0
330
32D
100
AcDbEntity
  8
基準ﾚｲﾔｸﾞﾙｰﾌﾟ_01
  6
Continuous
 62
     7
370
    25
100
AcDbText
 10
261.9050598144531
 20
95.45065307617188
 30
0.0
 40
3.90961480140686
  1
７
 50
282.9999999999998
 41
1.771831307663262
  7
FX_VECTOR
 72
     5
 11
263.0181140813034
 21
90.6294853725408
 31
0.0
100
AcDbText
  0
TEXT
  5
3B1
330
32D
100
AcDbEntity
  8
基準ﾚｲﾔｸﾞﾙｰﾌﾟ_01
  6
Continuous
 62
     7
370
    25
100
AcDbText
 10
262.9139404296875
 20
80.38427734375
 30
0.0
 40
3.90961480140686
  1
５
 50
255.5000000000002
 41
1.771831307663262
  7
FX_VECTOR
 72
     5
 11
261.6750641209738
 21
75.59389809788681
 31
0.0
100
AcDbText
  0
TEXT
  5
3B2
330
32D
100
AcDbEntity
  8
基準ﾚｲﾔｸﾞﾙｰﾌﾟ_01
  6
Continuous
 62
     7
370
    25
100
AcDbText
 10
263.2872924804688
 20
88.39297485351562
 30
0.0
 40
3.90961480140686
  1
Ｘ
 50
270.0
 41
1.771831307663266
  7
FX_VECTOR
 72
     5
 11
263.2872924804688
 21
83.44499063491821
 31
0.0
100
AcDbText
  0
ENDBLK
  5
32F
330
32D
100
AcDbEntity
  8
0
100
AcDbBlockEnd
  0
BLOCK
  5
33F
330
33E
100
AcDbEntity
  8
0
100
AcDbBlockBegin
  2
BLKF023
 70
     0
 10
0.0
 20
0.0
 30
0.0
  3
BLKF023
  1

  0
LINE
  5
342
330
33E
100
AcDbEntity
  8
GR1_01
  6
Continuous
 62
     7
370
    25
100
AcDbLine
 10
207.4309063753744
 20
64.93506812216629
 30
0.0
 11
207.2109817638798
 21
64.94082705079404
 31
0.0
  0
LINE
  5
343
330
33E
100
AcDbEntity
  8
GR1_01
  6
Continuous
 62
     7
370
    25
100
AcDbLine
 10
207.5379892168078
 20
64.82222635210519
 30
0.0
 11
207.0981399938186
 21
64.83374420936065
 31
0.0
  0
LINE
  5
344
330
33E
100
AcDbEntity
  8
GR1_01
  6
Continuous
 62
     7
370
    25
100
AcDbLine
 10
207.6450720582413
 20
64.70938458204398
 30
0.0
 11
206.9852982237574
 21
64.72666136792714
 31
0.0
  0
LINE
  5
345
330
33E
100
AcDbEntity
  8
GR1_01
  6
Continuous
 62
     7
370
    25
100
AcDbLine
 10
207.7521548996747
 20
64.59654281198283
 30
0.0
 11
206.8724564536963
 21
64.61957852649368
 31
0.0
  0
LINE
  5
346
330
33E
100
AcDbEntity
  8
GR1_01
  6
Continuous
 62
     7
370
    25
100
AcDbLine
 10
207.8592377411081
 20
64.48370104192162
 30
0.0
 11
207.1005973412162
 21
64.50356673993247
 31
0.0
  0
LINE
  5
347
330
33E
100
AcDbEntity
  8
GR1_01
  6
Continuous
 62
     7
370
    25
100
AcDbLine
 10
206.8930213307538
 20
64.509002309062
 30
0.0
 11
206.759614683635
 21
64.51249568506034
 31
0.0
  0
LINE
  5
348
330
33E
100
AcDbEntity
  8
GR1_01
  6
Continuous
 62
     7
370
    25
100
AcDbLine
 10
207.9663205825416
 20
64.37085927186047
 30
0.0
 11
207.2076801826497
 21
64.39072496987126
 31
0.0
  0
LINE
  5
349
330
33E
100
AcDbEntity
  8
GR1_01
  6
Continuous
 62
     7
370
    25
100
AcDbLine
 10
206.7801795606926
 20
64.4019194676286
 30
0.0
 11
206.6467729135739
 21
64.40541284362683
 31
0.0
  0
LINE
  5
34A
330
33E
100
AcDbEntity
  8
GR1_01
  6
Continuous
 62
     7
370
    25
100
AcDbLine
 10
208.073403423975
 20
64.25801750179926
 30
0.0
 11
207.3147630240832
 21
64.27788319981005
 31
0.0
  0
LINE
  5
34B
330
33E
100
AcDbEntity
  8
GR1_01
  6
Continuous
 62
     7
370
    25
100
AcDbLine
 10
206.6673377906314
 20
64.29483662619515
 30
0.0
 11
206.5339311435127
 21
64.29833000219344
 31
0.0
  0
LINE
  5
34C
330
33E
100
AcDbEntity
  8
GR1_01
  6
Continuous
 62
     7
370
    25
100
AcDbLine
 10
208.1804862654085
 20
64.14517573173805
 30
0.0
 11
207.3320469412586
 21
64.16739289733653
 31
0.0
  0
LINE
  5
34D
330
33E
100
AcDbEntity
  8
GR1_01
  6
Continuous
 62
     7
370
    25
100
AcDbLine
 10
206.5544960205703
 20
64.18775378476175
 30
0.0
 11
206.4210893734515
 21
64.19124716075999
 31
0.0
  0
LINE
  5
34E
330
33E
100
AcDbEntity
  8
GR1_01
  6
Continuous
 62
     7
370
    25
100
AcDbLine
 10
208.2875691068419
 20
64.03233396167695
 30
0.0
 11
207.2192051711973
 21
64.06031005590307
 31
0.0
  0
LINE
  5
34F
330
33E
100
AcDbEntity
  8
GR1_01
  6
Continuous
 62
     7
370
    25
100
AcDbLine
 10
206.4416542505091
 20
64.08067094332824
 30
0.0
 11
206.3082476033903
 21
64.08416431932653
 31
0.0
  0
LINE
  5
350
330
33E
100
AcDbEntity
  8
GR1_01
  6
Continuous
 62
     7
370
    25
100
AcDbLine
 10
208.3946519482754
 20
63.91949219161575
 30
0.0
 11
207.1063634011362
 21
63.95322721446962
 31
0.0
  0
LINE
  5
351
330
33E
100
AcDbEntity
  8
GR1_01
  6
Continuous
 62
     7
370
    25
100
AcDbLine
 10
206.3288124804479
 20
63.97358810189479
 30
0.0
 11
206.1954058333292
 21
63.97708147789308
 31
0.0
  0
LINE
  5
352
330
33E
100
AcDbEntity
  8
GR1_01
  6
Continuous
 62
     7
370
    25
100
AcDbLine
 10
208.5017347897088
 20
63.80665042155459
 30
0.0
 11
207.057776253516
 21
63.84446180653248
 31
0.0
  0
LINE
  5
353
330
33E
100
AcDbEntity
  8
GR1_01
  6
Continuous
 62
     7
370
    25
100
AcDbLine
 10
206.2159707103867
 20
63.86650526046134
 30
0.0
 11
206.082564063268
 21
63.86999863645963
 31
0.0
  0
LINE
  5
354
330
33E
100
AcDbEntity
  8
GR1_01
  6
Continuous
 62
     7
370
    25
100
AcDbLine
 10
208.6088176311423
 20
63.69380865149338
 30
0.0
 11
208.3888930196476
 21
63.69956758012114
 31
0.0
  0
LINE
  5
355
330
33E
100
AcDbEntity
  8
GR1_01
  6
Continuous
 62
     7
370
    25
100
AcDbLine
 10
206.2761648690773
 20
63.75489131376895
 30
0.0
 11
205.9697222932068
 21
63.76291579502617
 31
0.0
  0
LINE
  5
356
330
33E
100
AcDbEntity
  8
GR1_01
  6
Continuous
 62
     7
370
    25
100
AcDbLine
 10
208.7159004725757
 20
63.58096688143223
 30
0.0
 11
208.3860135553338
 21
63.58960527437381
 31
0.0
  0
LINE
  5
357
330
33E
100
AcDbEntity
  8
GR1_01
  6
Continuous
 62
     7
370
    25
100
AcDbLine
 10
206.3832477105107
 20
63.6420495437078
 30
0.0
 11
205.8568805231456
 21
63.65583295359272
 31
0.0
  0
LINE
  5
358
330
33E
100
AcDbEntity
  8
GR1_01
  6
Continuous
 62
     7
370
    25
100
AcDbLine
 10
208.8229833140092
 20
63.46812511137102
 30
0.0
 11
208.3831340910199
 21
63.47964296862654
 31
0.0
  0
LINE
  5
359
330
33E
100
AcDbEntity
  8
GR1_01
  6
Continuous
 62
     7
370
    25
100
AcDbLine
 10
206.4903305519442
 20
63.52920777364659
 30
0.0
 11
206.2570652757377
 21
63.53531603987415
 31
0.0
  0
LINE
  5
35A
330
33E
100
AcDbEntity
  8
GR1_01
  6
Continuous
 62
     7
370
    25
100
AcDbLine
 10
206.1838879760737
 20
63.53723225490387
 30
0.0
 11
205.7440387530845
 21
63.54875011215927
 31
0.0
  0
LINE
  5
35B
330
33E
100
AcDbEntity
  8
GR1_01
  6
Continuous
 62
     7
370
    25
100
AcDbLine
 10
208.9300661554426
 20
63.35528334130987
 30
0.0
 11
208.380254626706
 21
63.3696806628792
 31
0.0
  0
LINE
  5
35C
330
33E
100
AcDbEntity
  8
GR1_01
  6
Continuous
 62
     7
370
    25
100
AcDbLine
 10
206.5974133933776
 20
63.41636600358544
 30
0.0
 11
206.3641481171711
 21
63.42247426981294
 31
0.0
  0
LINE
  5
35D
330
33E
100
AcDbEntity
  8
GR1_01
  6
Continuous
 62
     7
370
    25
100
AcDbLine
 10
206.1810085117598
 20
63.42726994915643
 30
0.0
 11
205.6311969830233
 21
63.44166727072582
 31
0.0
  0
LINE
  5
35E
330
33E
100
AcDbEntity
  8
GR1_01
  6
Continuous
 62
     7
370
    25
100
AcDbLine
 10
209.0371489968761
 20
63.24244157124866
 30
0.0
 11
208.3773751623922
 21
63.25971835713187
 31
0.0
  0
LINE
  5
35F
330
33E
100
AcDbEntity
  8
GR1_01
  6
Continuous
 62
     7
370
    25
100
AcDbLine
 10
206.7044962348111
 20
63.30352423352429
 30
0.0
 11
206.4712309586046
 21
63.30963249975179
 31
0.0
  0
LINE
  5
360
330
33E
100
AcDbEntity
  8
GR1_01
  6
Continuous
 62
     7
370
    25
100
AcDbLine
 10
206.178129047446
 20
63.31730764340921
 30
0.0
 11
205.5183552129621
 21
63.33458442929236
 31
0.0
  0
LINE
  5
361
330
33E
100
AcDbEntity
  8
GR1_01
  6
Continuous
 62
     7
370
    25
100
AcDbLine
 10
209.1442318383095
 20
63.12959980118751
 30
0.0
 11
208.3744956980783
 21
63.14975605138454
 31
0.0
  0
LINE
  5
362
330
33E
100
AcDbEntity
  8
GR1_01
  6
Continuous
 62
     7
370
    25
100
AcDbLine
 10
207.8246841693417
 20
63.16415337295393
 30
0.0
 11
207.2015355360252
 21
63.18047109419183
 31
0.0
  0
LINE
  5
363
330
33E
100
AcDbEntity
  8
GR1_01
  6
Continuous
 62
     7
370
    25
100
AcDbLine
 10
206.8115790762445
 20
63.19068246346308
 30
0.0
 11
206.578313800038
 21
63.19679072969063
 31
0.0
  0
LINE
  5
364
330
33E
100
AcDbEntity
  8
GR1_01
  6
Continuous
 62
     7
370
    25
100
AcDbLine
 10
206.1752495831321
 20
63.20734533766188
 30
0.0
 11
205.4055134429009
 21
63.22750158785891
 31
0.0
  0
LINE
  5
365
330
33E
100
AcDbEntity
  8
GR1_01
  6
Continuous
 62
     7
370
    25
100
AcDbLine
 10
209.2513146797429
 20
63.01675803112636
 30
0.0
 11
208.3716162337645
 21
63.03979374563721
 31
0.0
  0
LINE
  5
366
330
33E
100
AcDbEntity
  8
GR1_01
  6
Continuous
 62
     7
370
    25
100
AcDbLine
 10
207.8218047050279
 20
63.0541910672066
 30
0.0
 11
207.3074373780221
 21
63.06766024968931
 31
0.0
  0
LINE
  5
367
330
33E
100
AcDbEntity
  8
GR1_01
  6
Continuous
 62
     7
370
    25
100
AcDbLine
 10
206.918661917678
 20
63.07784069340187
 30
0.0
 11
206.6853966414715
 21
63.08394895962942
 31
0.0
  0
LINE
  5
368
330
33E
100
AcDbEntity
  8
GR1_01
  6
Continuous
 62
     7
370
    25
100
AcDbLine
 10
206.1723701188183
 20
63.09738303191455
 30
0.0
 11
205.2926716728398
 21
63.12041874642551
 31
0.0
  0
LINE
  5
369
330
33E
100
AcDbEntity
  8
GR1_01
  6
Continuous
 62
     7
370
    25
100
AcDbLine
 10
209.3583975211764
 20
62.90391626106515
 30
0.0
 11
208.3687367694505
 21
62.92983143988988
 31
0.0
  0
LINE
  5
36A
330
33E
100
AcDbEntity
  8
GR1_01
  6
Continuous
 62
     7
370
    25
100
AcDbLine
 10
207.818925240714
 20
62.94422876145927
 30
0.0
 11
207.4145202194556
 21
62.95481847962816
 31
0.0
  0
LINE
  5
36B
330
33E
100
AcDbEntity
  8
GR1_01
  6
Continuous
 62
     7
370
    25
100
AcDbLine
 10
207.0257447591114
 20
62.96499892334072
 30
0.0
 11
206.7193021832409
 21
62.97302340459794
 31
0.0
  0
LINE
  5
36C
330
33E
100
AcDbEntity
  8
GR1_01
  6
Continuous
 62
     7
370
    25
100
AcDbLine
 10
206.1694906545044
 20
62.98742072616727
 30
0.0
 11
205.1798299027786
 21
63.013335904992
 31
0.0
  0
LINE
  5
36D
330
33E
100
AcDbEntity
  8
GR1_01
  6
Continuous
 62
     7
370
    25
100
AcDbLine
 10
209.4654803626098
 20
62.791074491004
 30
0.0
 11
208.3658573051367
 21
62.81986913414266
 31
0.0
  0
LINE
  5
36E
330
33E
100
AcDbEntity
  8
GR1_01
  6
Continuous
 62
     7
370
    25
100
AcDbLine
 10
207.8160457764002
 20
62.83426645571194
 30
0.0
 11
207.3996408947824
 21
62.84517040128299
 31
0.0
  0
LINE
  5
36F
330
33E
100
AcDbEntity
  8
GR1_01
  6
Continuous
 62
     7
370
    25
100
AcDbLine
 10
207.1328276005448
 20
62.85215715327956
 30
0.0
 11
206.7164227189271
 21
62.86306109885061
 31
0.0
  0
LINE
  5
370
330
33E
100
AcDbEntity
  8
GR1_01
  6
Continuous
 62
     7
370
    25
100
AcDbLine
 10
206.1666111901905
 20
62.87745842042
 30
0.0
 11
205.0669881327174
 21
62.90625306355861
 31
0.0
  0
LINE
  5
371
330
33E
100
AcDbEntity
  8
GR1_01
  6
Continuous
 62
     7
370
    25
100
AcDbLine
 10
209.5725632040433
 20
62.67823272094279
 30
0.0
 11
208.3629778408229
 21
62.70990682839533
 31
0.0
  0
LINE
  5
372
330
33E
100
AcDbEntity
  8
GR1_01
  6
Continuous
 62
     7
370
    25
100
AcDbLine
 10
207.8131663120863
 20
62.72430414996467
 30
0.0
 11
207.2867991247212
 21
62.73808755984959
 31
0.0
  0
LINE
  5
373
330
33E
100
AcDbEntity
  8
GR1_01
  6
Continuous
 62
     7
370
    25
100
AcDbLine
 10
207.2399104419783
 20
62.73931538321835
 30
0.0
 11
206.7135432546132
 21
62.75309879310333
 31
0.0
  0
LINE
  5
374
330
33E
100
AcDbEntity
  8
GR1_01
  6
Continuous
 62
     7
370
    25
100
AcDbLine
 10
206.1637317258767
 20
62.76749611467267
 30
0.0
 11
204.9541463626562
 21
62.79917022212516
 31
0.0
  0
LINE
  5
375
330
33E
100
AcDbEntity
  8
GR1_01
  6
Continuous
 62
     7
370
    25
100
AcDbLine
 10
209.5066101167249
 20
62.56992205614057
 30
0.0
 11
208.360098376509
 21
62.599944522648
 31
0.0
  0
LINE
  5
376
330
33E
100
AcDbEntity
  8
GR1_01
  6
Continuous
 62
     7
370
    25
100
AcDbLine
 10
207.8102868477724
 20
62.61434184421734
 30
0.0
 11
206.7106637902993
 21
62.643136487356
 31
0.0
  0
LINE
  5
377
330
33E
100
AcDbEntity
  8
GR1_01
  6
Continuous
 62
     7
370
    25
100
AcDbLine
 10
206.1608522615628
 20
62.65753380892534
 30
0.0
 11
205.0143405213468
 21
62.68755627543283
 31
0.0
  0
LINE
  5
378
330
33E
100
AcDbEntity
  8
GR1_01
  6
Continuous
 62
     7
370
    25
100
AcDbLine
 10
209.3937683466638
 20
62.46283921470712
 30
0.0
 11
208.3572189121951
 21
62.48998221690067
 31
0.0
  0
LINE
  5
379
330
33E
100
AcDbEntity
  8
GR1_01
  6
Continuous
 62
     7
370
    25
100
AcDbLine
 10
207.8074073834586
 20
62.50437953847
 30
0.0
 11
206.7077843259854
 21
62.53317418160873
 31
0.0
  0
LINE
  5
37A
330
33E
100
AcDbEntity
  8
GR1_01
  6
Continuous
 62
     7
370
    25
100
AcDbLine
 10
206.1579727972489
 20
62.54757150317801
 30
0.0
 11
205.1214233627803
 21
62.57471450537162
 31
0.0
  0
LINE
  5
37B
330
33E
100
AcDbEntity
  8
GR1_01
  6
Continuous
 62
     7
370
    25
100
AcDbLine
 10
209.2809265766026
 20
62.35575637327366
 30
0.0
 11
208.3543394478812
 21
62.38001991115334
 31
0.0
  0
LINE
  5
37C
330
33E
100
AcDbEntity
  8
GR1_01
  6
Continuous
 62
     7
370
    25
100
AcDbLine
 10
207.8045279191447
 20
62.39441723272273
 30
0.0
 11
206.7049048616716
 21
62.4232118758614
 31
0.0
  0
LINE
  5
37D
330
33E
100
AcDbEntity
  8
GR1_01
  6
Continuous
 62
     7
370
    25
100
AcDbLine
 10
206.155093332935
 20
62.43760919743067
 30
0.0
 11
205.2285062042137
 21
62.46187273531046
 31
0.0
  0
LINE
  5
37E
330
33E
100
AcDbEntity
  8
GR1_01
  6
Continuous
 62
     7
370
    25
100
AcDbLine
 10
209.1680848065413
 20
62.24867353184027
 30
0.0
 11
208.3514599835674
 21
62.27005760540612
 31
0.0
  0
LINE
  5
37F
330
33E
100
AcDbEntity
  8
GR1_01
  6
Continuous
 62
     7
370
    25
100
AcDbLine
 10
207.8016484548309
 20
62.2844549269754
 30
0.0
 11
206.7020253973577
 21
62.31324957011407
 31
0.0
  0
LINE
  5
380
330
33E
100
AcDbEntity
  8
GR1_01
  6
Continuous
 62
     7
370
    25
100
AcDbLine
 10
206.1522138686212
 20
62.3276468916834
 30
0.0
 11
205.3355890456471
 21
62.34903096524926
 31
0.0
  0
LINE
  5
381
330
33E
100
AcDbEntity
  8
GR1_01
  6
Continuous
 62
     7
370
    25
100
AcDbLine
 10
209.0552430364802
 20
62.14159069040682
 30
0.0
 11
208.3485805192535
 21
62.16009529965879
 31
0.0
  0
LINE
  5
382
330
33E
100
AcDbEntity
  8
GR1_01
  6
Continuous
 62
     7
370
    25
100
AcDbLine
 10
207.798768990517
 20
62.17449262122807
 30
0.0
 11
206.6991459330438
 21
62.20328726436674
 31
0.0
  0
LINE
  5
383
330
33E
100
AcDbEntity
  8
GR1_01
  6
Continuous
 62
     7
370
    25
100
AcDbLine
 10
206.1493344043073
 20
62.21768458593607
 30
0.0
 11
205.4426718870805
 21
62.2361891951881
 31
0.0
  0
LINE
  5
384
330
33E
100
AcDbEntity
  8
GR1_01
  6
Continuous
 62
     7
370
    25
100
AcDbLine
 10
208.9424012664191
 20
62.03450784897336
 30
0.0
 11
208.3457010549396
 21
62.05013299391146
 31
0.0
  0
LINE
  5
385
330
33E
100
AcDbEntity
  8
GR1_01
  6
Continuous
 62
     7
370
    25
100
AcDbLine
 10
206.1464549399934
 20
62.1077222801888
 30
0.0
 11
205.549754728514
 21
62.12334742512689
 31
0.0
  0
LINE
  5
386
330
33E
100
AcDbEntity
  8
GR1_01
  6
Continuous
 62
     7
370
    25
100
AcDbLine
 10
208.8295594963579
 20
61.92742500753991
 30
0.0
 11
208.3428215906258
 21
61.94017068816413
 31
0.0
  0
LINE
  5
387
330
33E
100
AcDbEntity
  8
GR1_01
  6
Continuous
 62
     7
370
    25
100
AcDbLine
 10
206.1435754756796
 20
61.99775997444146
 30
0.0
 11
205.6568375699474
 21
62.01050565506574
 31
0.0
  0
LINE
  5
388
330
33E
100
AcDbEntity
  8
GR1_01
  6
Continuous
 62
     7
370
    25
100
AcDbLine
 10
208.7167177262967
 20
61.82034216610646
 30
0.0
 11
208.3399421263119
 21
61.8302083824168
 31
0.0
  0
LINE
  5
389
330
33E
100
AcDbEntity
  8
GR1_01
  6
Continuous
 62
     7
370
    25
100
AcDbLine
 10
206.1406960113657
 20
61.88779766869413
 30
0.0
 11
205.7639204113809
 21
61.89766388500459
 31
0.0
  0
LINE
  5
38A
330
33E
100
AcDbEntity
  8
GR1_01
  6
Continuous
 62
     7
370
    25
100
AcDbLine
 10
208.6038759562355
 20
61.713259324673
 30
0.0
 11
208.337062661998
 21
61.72024607666953
 31
0.0
  0
LINE
  5
38B
330
33E
100
AcDbEntity
  8
GR1_01
  6
Continuous
 62
     7
370
    25
100
AcDbLine
 10
206.1378165470519
 20
61.7778353629468
 30
0.0
 11
205.8710032528143
 21
61.78482211494338
 31
0.0
  0
LINE
  5
38C
330
33E
100
AcDbEntity
  8
GR1_01
  6
Continuous
 62
     7
370
    25
100
AcDbLine
 10
208.4910341861743
 20
61.60617648323955
 30
0.0
 11
208.3341831976842
 21
61.61028377092225
 31
0.0
  0
LINE
  5
38D
330
33E
100
AcDbEntity
  8
GR1_01
  6
Continuous
 62
     7
370
    25
100
AcDbLine
 10
206.1349370827379
 20
61.66787305719959
 30
0.0
 11
205.9780860942478
 21
61.67198034488217
 31
0.0
  0
LINE
  5
38E
330
33E
100
AcDbEntity
  8
GR1_01
  6
Continuous
 62
     7
370
    25
100
AcDbLine
 10
208.3781924161132
 20
61.4990936418061
 30
0.0
 11
206.0851689356813
 21
61.55913857482096
 31
0.0
  0
LINE
  5
38F
330
33E
100
AcDbEntity
  8
GR1_01
  6
Continuous
 62
     7
370
    25
100
AcDbLine
 10
208.265350646052
 20
61.39201080037265
 30
0.0
 11
206.1922517771147
 21
61.44629680475987
 31
0.0
  0
LINE
  5
390
330
33E
100
AcDbEntity
  8
GR1_01
  6
Continuous
 62
     7
370
    25
100
AcDbLine
 10
208.1525088759908
 20
61.28492795893919
 30
0.0
 11
206.2993346185481
 21
61.33345503469866
 31
0.0
  0
LINE
  5
391
330
33E
100
AcDbEntity
  8
GR1_01
  6
Continuous
 62
     7
370
    25
100
AcDbLine
 10
208.0396671059297
 20
61.17784511750574
 30
0.0
 11
206.4064174599816
 21
61.22061326463751
 31
0.0
  0
LINE
  5
392
330
33E
100
AcDbEntity
  8
GR1_01
  6
Continuous
 62
     7
370
    25
100
AcDbLine
 10
207.9268253358684
 20
61.07076227607229
 30
0.0
 11
206.513500301415
 21
61.10777149457624
 31
0.0
  0
LINE
  5
393
330
33E
100
AcDbEntity
  8
GR1_01
  6
Continuous
 62
     7
370
    25
100
AcDbLine
 10
207.8139835658073
 20
60.96367943463883
 30
0.0
 11
206.6205831428485
 21
60.99492972451515
 31
0.0
  0
LINE
  5
394
330
33E
100
AcDbEntity
  8
GR1_01
  6
Continuous
 62
     7
370
    25
100
AcDbLine
 10
207.7011417957461
 20
60.85659659320538
 30
0.0
 11
206.7276659842819
 21
60.88208795445394
 31
0.0
  0
LINE
  5
395
330
33E
100
AcDbEntity
  8
GR1_01
  6
Continuous
 62
     7
370
    25
100
AcDbLine
 10
207.5883000256849
 20
60.74951375177199
 30
0.0
 11
206.8347488257154
 21
60.76924618439278
 31
0.0
  0
LINE
  5
396
330
33E
100
AcDbEntity
  8
GR1_01
  6
Continuous
 62
     7
370
    25
100
AcDbLine
 10
207.4754582556238
 20
60.64243091033853
 30
0.0
 11
206.9418316671488
 21
60.65640441433163
 31
0.0
  0
LINE
  5
397
330
33E
100
AcDbEntity
  8
GR1_01
  6
Continuous
 62
     7
370
    25
100
AcDbLine
 10
207.3626164855626
 20
60.53534806890508
 30
0.0
 11
207.0489145085822
 21
60.54356264427042
 31
0.0
  0
LINE
  5
398
330
33E
100
AcDbEntity
  8
GR1_01
  6
Continuous
 62
     7
370
    25
100
AcDbLine
 10
207.2497747155014
 20
60.42826522747168
 30
0.0
 11
207.1559973500157
 21
60.43072087420921
 31
0.0
  0
ENDBLK
  5
340
330
33E
100
AcDbEntity
  8
0
100
AcDbBlockEnd
  0
BLOCK
  5
3B4
330
3B3
100
AcDbEntity
  8
0
100
AcDbBlockBegin
  2
BLKF024
 70
     0
 10
0.0
 20
0.0
 30
0.0
  3
BLKF024
  1

  0
ARC
  5
3B7
330
3B3
100
AcDbEntity
  8
GR1_01
  6
Continuous
 62
     3
370
    50
100
AcDbCircle
 10
140.414926194661
 20
120.6460381679296
 30
0.0
 40
2.0
100
AcDbArc
 50
0.0
 51
82.26361996004577
  0
ARC
  5
3B8
330
3B3
100
AcDbEntity
  8
GR1_01
  6
Continuous
 62
     3
370
    50
100
AcDbCircle
 10
129.914926194661
 20
43.35600000000005
 30
0.0
 40
80.0
100
AcDbArc
 50
82.26361996004556
 51
97.73638003995443
  0
ARC
  5
3B9
330
3B3
100
AcDbEntity
  8
GR1_01
  6
Continuous
 62
     3
370
    50
100
AcDbCircle
 10
119.414926194661
 20
120.6460381679296
 30
0.0
 40
2.0
100
AcDbArc
 50
97.73638003995461
 51
180.0
  0
LINE
  5
3BA
330
3B3
100
AcDbEntity
  8
GR1_01
  6
Continuous
 62
     3
370
    50
100
AcDbLine
 10
117.414926194661
 20
120.6460381679296
 30
0.0
 11
117.414926194661
 21
51.06596183207046
 31
0.0
  0
LINE
  5
3BB
330
3B3
100
AcDbEntity
  8
GR1_01
  6
Continuous
 62
     3
370
    50
100
AcDbLine
 10
142.414926194661
 20
120.6460381679296
 30
0.0
 11
142.414926194661
 21
51.06596183207051
 31
0.0
  0
ARC
  5
3BC
330
3B3
100
AcDbEntity
  8
GR1_01
  6
Continuous
 62
     3
370
    50
100
AcDbCircle
 10
140.414926194661
 20
51.06596183207051
 30
0.0
 40
2.0
100
AcDbArc
 50
277.7363800399542
 51
0.0
  0
ARC
  5
3BD
330
3B3
100
AcDbEntity
  8
GR1_01
  6
Continuous
 62
     3
370
    50
100
AcDbCircle
 10
129.9149261946609
 20
128.356
 30
0.0
 40
80.0
100
AcDbArc
 50
262.2636199600457
 51
277.7363800399545
  0
ARC
  5
3BE
330
3B3
100
AcDbEntity
  8
GR1_01
  6
Continuous
 62
     3
370
    50
100
AcDbCircle
 10
119.414926194661
 20
51.06596183207051
 30
0.0
 40
2.0
100
AcDbArc
 50
180.0000000000008
 51
262.2636199600455
  0
LINE
  5
3BF
330
3B3
100
AcDbEntity
  8
GR1_01
  6
Continuous
 62
     3
370
    50
100
AcDbLine
 10
115.7412780169939
 20
96.0017081218349
 30
0.0
 11
117.414926194661
 21
96.29681745177118
 31
0.0
  0
ARC
  5
3C0
330
3B3
100
AcDbEntity
  8
GR1_01
  6
Continuous
 62
     3
370
    50
100
AcDbCircle
 10
115.9149261946608
 20
95.0169003688228
 30
0.0
 40
1.0
100
AcDbArc
 50
100.0000000000002
 51
180.0
  0
LINE
  5
3C1
330
3B3
100
AcDbEntity
  8
GR1_01
  6
Continuous
 62
     3
370
    50
100
AcDbLine
 10
114.9149261946609
 20
95.0169003688228
 30
0.0
 11
114.9149261946609
 21
76.6950996311773
 31
0.0
  0
ARC
  5
3C2
330
3B3
100
AcDbEntity
  8
GR1_01
  6
Continuous
 62
     3
370
    50
100
AcDbCircle
 10
115.9149261946608
 20
76.6950996311773
 30
0.0
 40
1.0
100
AcDbArc
 50
180.0
 51
259.9999999999998
  0
LINE
  5
3C3
330
3B3
100
AcDbEntity
  8
GR1_01
  6
Continuous
 62
     3
370
    50
100
AcDbLine
 10
115.7412780169939
 20
75.71029187816521
 30
0.0
 11
117.414926194661
 21
75.41518254822893
 31
0.0
  0
LINE
  5
3C4
330
3B3
100
AcDbEntity
  8
GR1_01
  6
Continuous
 62
     3
370
    50
100
AcDbLine
 10
144.0885743723281
 20
96.0017081218349
 30
0.0
 11
142.414926194661
 21
96.29681745177118
 31
0.0
  0
ARC
  5
3C5
330
3B3
100
AcDbEntity
  8
GR1_01
  6
Continuous
 62
     3
370
    50
100
AcDbCircle
 10
143.9149261946612
 20
95.0169003688228
 30
0.0
 40
1.0
100
AcDbArc
 50
0.0
 51
79.99999999999979
  0
LINE
  5
3C6
330
3B3
100
AcDbEntity
  8
GR1_01
  6
Continuous
 62
     3
370
    50
100
AcDbLine
 10
144.9149261946611
 20
95.0169003688228
 30
0.0
 11
144.9149261946611
 21
76.6950996311773
 31
0.0
  0
ARC
  5
3C7
330
3B3
100
AcDbEntity
  8
GR1_01
  6
Continuous
 62
     3
370
    50
100
AcDbCircle
 10
143.9149261946612
 20
76.6950996311773
 30
0.0
 40
1.0
100
AcDbArc
 50
280.0000000000002
 51
0.0
  0
LINE
  5
3C8
330
3B3
100
AcDbEntity
  8
GR1_01
  6
Continuous
 62
     3
370
    50
100
AcDbLine
 10
144.0885743723281
 20
75.71029187816521
 30
0.0
 11
142.414926194661
 21
75.41518254822893
 31
0.0
  0
ENDBLK
  5
3B5
330
3B3
100
AcDbEntity
  8
0
100
AcDbBlockEnd
  0
BLOCK
  5
3CC
330
3CB
100
AcDbEntity
  8
0
100
AcDbBlockBegin
  2
BLKF025
 70
     0
 10
0.0
 20
0.0
 30
0.0
  3
BLKF025
  1

  0
ARC
  5
3CF
330
3CB
100
AcDbEntity
  8
GR1_01
  6
Continuous
 62
     3
370
    50
100
AcDbCircle
 10
196.8338663549048
 20
254.3993808049536
 30
0.0
 40
2.0
100
AcDbArc
 50
90.0
 51
172.2636199600458
  0
ARC
  5
3D0
330
3CB
100
AcDbEntity
  8
GR1_01
  6
Continuous
 62
     3
370
    50
100
AcDbCircle
 10
274.1239045228344
 20
243.8993808049535
 30
0.0
 40
80.0
100
AcDbArc
 50
172.2636199600456
 51
187.7363800399545
  0
ARC
  5
3D1
330
3CB
100
AcDbEntity
  8
GR1_01
  6
Continuous
 62
     3
370
    50
100
AcDbCircle
 10
196.8338663549048
 20
233.3993808049536
 30
0.0
 40
2.0
100
AcDbArc
 50
187.7363800399546
 51
270.0
  0
LINE
  5
3D2
330
3CB
100
AcDbEntity
  8
GR1_01
  6
Continuous
 62
     3
370
    50
100
AcDbLine
 10
196.8338663549048
 20
231.3993808049536
 30
0.0
 11
226.397409071162
 21
231.3993808049536
 31
0.0
  0
LINE
  5
3D3
330
3CB
100
AcDbEntity
  8
GR1_01
  6
Continuous
 62
     3
370
    50
100
AcDbLine
 10
196.8338663549048
 20
256.3993808049536
 30
0.0
 11
226.3974090711621
 21
256.3993808049536
 31
0.0
  0
LINE
  5
3D4
330
3CB
100
AcDbEntity
  8
GR1_01
  6
Continuous
 62
     3
370
    50
100
AcDbLine
 10
221.4781964009995
 20
229.7257326272864
 30
0.0
 11
221.1830870710632
 21
231.3993808049536
 31
0.0
  0
ARC
  5
3D5
330
3CB
100
AcDbEntity
  8
GR1_01
  6
Continuous
 62
     3
370
    50
100
AcDbCircle
 10
222.4630041540116
 20
229.8993808049534
 30
0.0
 40
1.0
100
AcDbArc
 50
190.0000000000002
 51
270.0
  0
LINE
  5
3D6
330
3CB
100
AcDbEntity
  8
GR1_01
  6
Continuous
 62
     3
370
    50
100
AcDbLine
 10
222.4630041540116
 20
228.8993808049535
 30
0.0
 11
227.4486034364421
 21
228.8993808049535
 31
0.0
  0
LINE
  5
3D7
330
3CB
100
AcDbEntity
  8
GR1_01
  6
Continuous
 62
     3
370
    50
100
AcDbLine
 10
221.4781964009995
 20
258.0730289826207
 30
0.0
 11
221.1830870710632
 21
256.3993808049536
 31
0.0
  0
ARC
  5
3D8
330
3CB
100
AcDbEntity
  8
GR1_01
  6
Continuous
 62
     3
370
    50
100
AcDbCircle
 10
222.4630041540116
 20
257.8993808049538
 30
0.0
 40
1.0
100
AcDbArc
 50
90.0
 51
169.9999999999998
  0
LINE
  5
3D9
330
3CB
100
AcDbEntity
  8
GR1_01
  6
Continuous
 62
     3
370
    50
100
AcDbLine
 10
222.4630041540116
 20
258.8993808049537
 30
0.0
 11
227.4486034364421
 21
258.8993808049537
 31
0.0
  0
LINE
  5
3DA
330
3CB
100
AcDbEntity
  8
GR1_01
  6
Continuous
 62
     3
370
    50
100
AcDbLine
 10
227.6239045228344
 20
259.6493808049536
 30
0.0
 11
227.6239045228345
 21
259.2698069538932
 31
0.0
  0
LINE
  5
3DB
330
3CB
100
AcDbEntity
  8
GR1_01
  6
Continuous
 62
     3
370
    50
100
AcDbLine
 10
227.6239045228344
 20
228.1493808049536
 30
0.0
 11
227.6239045228345
 21
228.5289546560139
 31
0.0
  0
ENDBLK
  5
3CD
330
3CB
100
AcDbEntity
  8
0
100
AcDbBlockEnd
  0
ENDSEC
  0
SECTION
  2
ENTITIES
  0
LINE
  5
AF
330
1F
100
AcDbEntity
  8
図面枠ﾚｲﾔ_01
  6
Continuous
 62
     7
370
    50
100
AcDbLine
 10
10.0
 20
10.0
 30
0.0
 11
410.0
 21
10.0
 31
0.0
  0
LINE
  5
B0
330
1F
100
AcDbEntity
  8
図面枠ﾚｲﾔ_01
  6
Continuous
 62
     7
370
    50
100
AcDbLine
 10
10.0
 20
10.0
 30
0.0
 11
10.0
 21
287.0
 31
0.0
  0
LINE
  5
B1
330
1F
100
AcDbEntity
  8
図面枠ﾚｲﾔ_01
  6
Continuous
 62
     7
370
    50
100
AcDbLine
 10
10.0
 20
287.0
 30
0.0
 11
410.0
 21
287.0
 31
0.0
  0
LINE
  5
B2
330
1F
100
AcDbEntity
  8
図面枠ﾚｲﾔ_01
  6
Continuous
 62
     7
370
    50
100
AcDbLine
 10
410.0
 20
287.0
 30
0.0
 11
410.0
 21
10.0
 31
0.0
  0
LINE
  5
B3
330
1F
100
AcDbEntity
  8
図面枠ﾚｲﾔ_01
  6
Continuous
 62
     7
370
    25
100
AcDbLine
 10
153.0
 20
9.999999999999998
 30
0.0
 11
153.0
 21
20.0
 31
0.0
  0
TEXT
  5
B4
330
1F
100
AcDbEntity
  8
図面枠ﾚｲﾔ_01
  6
Continuous
 62
     7
370
    25
100
AcDbText
 10
137.7388153076172
 20
11.59687900543213
 30
0.0
 40
6.648748874664307
  1
品名
 41
1.083413404130886
  7
FX_VECTOR
 72
     5
 11
149.0583553314209
 21
11.59687900543213
 31
0.0
100
AcDbText
  0
LINE
  5
B5
330
1F
100
AcDbEntity
  8
図面枠ﾚｲﾔ_01
  6
Continuous
 62
     7
370
    50
100
AcDbLine
 10
233.0
 20
20.0
 30
0.0
 11
233.0
 21
10.0
 31
0.0
  0
LINE
  5
B6
330
1F
100
AcDbEntity
  8
図面枠ﾚｲﾔ_01
  6
Continuous
 62
     7
370
    50
100
AcDbLine
 10
133.0
 20
20.0
 30
0.0
 11
410.0
 21
20.0
 31
0.0
  0
TEXT
  5
B7
330
1F
100
AcDbEntity
  8
図面枠ﾚｲﾔ_01
  6
Continuous
 62
     7
370
    25
100
AcDbText
 10
349.2257690429688
 20
11.46128463745117
 30
0.0
 40
7.170907974243164
  1
ＧＯＬＤ　ＣＡＳＴＥＲ
 41
0.702117011671778
  7
FX_VECTOR
 72
     5
 11
395.9776363372803
 21
11.46128463745117
 31
0.0
100
AcDbText
  0
LINE
  5
B8
330
1F
100
AcDbEntity
  8
図面枠ﾚｲﾔ_01
  6
Continuous
 62
     7
370
    25
100
AcDbLine
 10
253.0
 20
9.999999999999998
 30
0.0
 11
253.0
 21
20.0
 31
0.0
  0
TEXT
  5
B9
330
1F
100
AcDbEntity
  8
図面枠ﾚｲﾔ_01
  6
Continuous
 62
     7
370
    25
100
AcDbText
 10
237.7388153076172
 20
11.59687900543213
 30
0.0
 40
6.648748874664307
  1
図番
 41
1.083413404130886
  7
FX_VECTOR
 72
     5
 11
249.0583553314209
 21
11.59687900543213
 31
0.0
100
AcDbText
  0
LINE
  5
BA
330
1F
100
AcDbEntity
  8
図面枠ﾚｲﾔ_01
  6
Continuous
 62
     7
370
    50
100
AcDbLine
 10
333.0
 20
20.0
 30
0.0
 11
333.0
 21
10.0
 31
0.0
  0
LINE
  5
BB
330
1F
100
AcDbEntity
  8
図面枠ﾚｲﾔ_01
  6
Continuous
 62
     7
370
    50
100
AcDbLine
 10
133.0
 20
20.0
 30
0.0
 11
133.0
 21
10.0
 31
0.0
  0
LINE
  5
BD
330
1F
100
AcDbEntity
  8
0_01
  6
Continuous
 62
     7
370
    25
100
AcDbLine
 10
344.8018997861325
 20
17.91346152
 30
0.0
 11
338.8018997861325
 21
17.91346152
 31
0.0
  0
LINE
  5
BE
330
1F
100
AcDbEntity
  8
0_01
  6
Continuous
 62
     7
370
    25
100
AcDbLine
 10
338.8018997861325
 20
17.91346152
 30
0.0
 11
338.8018997861325
 21
11.91346152
 31
0.0
  0
LINE
  5
BF
330
1F
100
AcDbEntity
  8
0_01
  6
Continuous
 62
     7
370
    25
100
AcDbLine
 10
338.8018997861325
 20
11.91346152
 30
0.0
 11
344.8018997861325
 21
11.91346152
 31
0.0
  0
LINE
  5
C0
330
1F
100
AcDbEntity
  8
0_01
  6
Continuous
 62
     7
370
    25
100
AcDbLine
 10
344.8018997861325
 20
11.91346152
 30
0.0
 11
344.8018997861325
 21
17.91346152
 31
0.0
  0
LINE
  5
C1
330
1F
100
AcDbEntity
  8
0_01
  6
Continuous
 62
     7
370
    25
100
AcDbLine
 10
344.2249766861325
 20
15.3461538
 30
0.0
 11
341.8018997861325
 21
17.76923076000002
 31
0.0
  0
LINE
  5
C2
330
1F
100
AcDbEntity
  8
0_01
  6
Continuous
 62
     7
370
    25
100
AcDbLine
 10
341.8018997861325
 20
17.76923076000002
 30
0.0
 11
338.9461305461325
 21
14.91346152
 31
0.0
  0
LINE
  5
C3
330
1F
100
AcDbEntity
  8
0_01
  6
Continuous
 62
     7
370
    25
100
AcDbLine
 10
338.9461305461325
 20
14.91346152
 30
0.0
 11
341.8018997861325
 21
12.05769228000001
 31
0.0
  0
LINE
  5
C4
330
1F
100
AcDbEntity
  8
0_01
  6
Continuous
 62
     7
370
    25
100
AcDbLine
 10
341.8018997861325
 20
12.05769228000001
 30
0.0
 11
343.3595920661325
 21
13.61538462
 31
0.0
  0
LINE
  5
C5
330
1F
100
AcDbEntity
  8
0_01
  6
Continuous
 62
     7
370
    25
100
AcDbLine
 10
343.3595920661325
 20
13.61538462
 30
0.0
 11
343.3595920661325
 21
12.98076924
 31
0.0
  0
LINE
  5
C6
330
1F
100
AcDbEntity
  8
0_01
  6
Continuous
 62
     7
370
    25
100
AcDbLine
 10
343.3595920661325
 20
12.98076924
 30
0.0
 11
344.2249766861325
 21
12.98076924
 31
0.0
  0
LINE
  5
C7
330
1F
100
AcDbEntity
  8
0_01
  6
Continuous
 62
     7
370
    25
100
AcDbLine
 10
344.2249766861325
 20
12.98076924
 30
0.0
 11
344.2249766861325
 21
15.00000000000001
 31
0.0
  0
LINE
  5
C8
330
1F
100
AcDbEntity
  8
0_01
  6
Continuous
 62
     7
370
    25
100
AcDbLine
 10
344.2249766861325
 20
15.00000000000001
 30
0.0
 11
341.8018997861325
 21
15.00000000000001
 31
0.0
  0
LINE
  5
C9
330
1F
100
AcDbEntity
  8
0_01
  6
Continuous
 62
     7
370
    25
100
AcDbLine
 10
341.8018997861325
 20
15.00000000000001
 30
0.0
 11
341.8018997861325
 21
14.13461538000001
 31
0.0
  0
LINE
  5
CA
330
1F
100
AcDbEntity
  8
0_01
  6
Continuous
 62
     7
370
    25
100
AcDbLine
 10
341.8018997861325
 20
14.13461538000001
 30
0.0
 11
342.2461305461325
 21
14.13461538000001
 31
0.0
  0
LINE
  5
CB
330
1F
100
AcDbEntity
  8
0_01
  6
Continuous
 62
     7
370
    25
100
AcDbLine
 10
342.2461305461325
 20
14.13461538000001
 30
0.0
 11
341.8018997861325
 21
13.69038462
 31
0.0
  0
LINE
  5
CC
330
1F
100
AcDbEntity
  8
0_01
  6
Continuous
 62
     7
370
    25
100
AcDbLine
 10
341.8018997861325
 20
13.69038462
 30
0.0
 11
340.5788228861325
 21
14.91346152
 31
0.0
  0
LINE
  5
CD
330
1F
100
AcDbEntity
  8
0_01
  6
Continuous
 62
     7
370
    25
100
AcDbLine
 10
340.5788228861325
 20
14.91346152
 30
0.0
 11
341.8018997861325
 21
16.13653842000003
 31
0.0
  0
LINE
  5
CE
330
1F
100
AcDbEntity
  8
0_01
  6
Continuous
 62
     7
370
    25
100
AcDbLine
 10
341.8018997861325
 20
16.13653842000003
 30
0.0
 11
342.5922844061325
 21
15.3461538
 31
0.0
  0
LINE
  5
CF
330
1F
100
AcDbEntity
  8
0_01
  6
Continuous
 62
     7
370
    25
100
AcDbLine
 10
342.5922844061325
 20
15.3461538
 30
0.0
 11
344.2249766861325
 21
15.3461538
 31
0.0
  0
LINE
  5
D1
330
1F
100
AcDbEntity
  8
GR1_01
  6
Continuous
 62
     7
370
    25
100
AcDbLine
 10
339.7223799643118
 20
11.91346152
 30
0.0
 11
340.8342552552222
 21
13.02533681091035
 31
0.0
  0
LINE
  5
D2
330
1F
100
AcDbEntity
  8
GR1_01
  6
Continuous
 62
     7
370
    25
100
AcDbLine
 10
341.6506014252221
 20
13.84168298091037
 30
0.0
 11
341.9435338243118
 21
14.13461538
 31
0.0
  0
LINE
  5
D3
330
1F
100
AcDbEntity
  8
GR1_01
  6
Continuous
 62
     7
370
    25
100
AcDbLine
 10
342.8089184443118
 20
15.0
 30
0.0
 11
343.1550722443118
 21
15.34615379999997
 31
0.0
  0
LINE
  5
D4
330
1F
100
AcDbEntity
  8
GR1_01
  6
Continuous
 62
     7
370
    25
100
AcDbLine
 10
343.6900244718453
 20
15.88110602753357
 30
0.0
 11
344.8018997861325
 21
16.9929813418207
 31
0.0
  0
LINE
  5
D5
330
1F
100
AcDbEntity
  8
GR1_01
  6
Continuous
 62
     7
370
    25
100
AcDbLine
 10
339.6516692861931
 20
11.91346151999999
 30
0.0
 11
340.7988999161628
 21
13.06069214996967
 31
0.0
  0
LINE
  5
D6
330
1F
100
AcDbEntity
  8
GR1_01
  6
Continuous
 62
     7
370
    25
100
AcDbLine
 10
341.6152460861629
 20
13.87703831996969
 30
0.0
 11
341.8728231461931
 21
14.13461538
 31
0.0
  0
LINE
  5
D7
330
1F
100
AcDbEntity
  8
GR1_01
  6
Continuous
 62
     7
370
    25
100
AcDbLine
 10
342.7382077661931
 20
15.0
 30
0.0
 11
343.0843615661931
 21
15.34615379999997
 31
0.0
  0
LINE
  5
D8
330
1F
100
AcDbEntity
  8
GR1_01
  6
Continuous
 62
     7
370
    25
100
AcDbLine
 10
343.6546691332238
 20
15.91646136703062
 30
0.0
 11
344.8018997861325
 21
17.06369201993936
 31
0.0
  0
LINE
  5
D9
330
1F
100
AcDbEntity
  8
GR1_01
  6
Continuous
 62
     7
370
    25
100
AcDbLine
 10
339.5809586080745
 20
11.91346152
 30
0.0
 11
340.7635445771035
 21
13.09604748902901
 31
0.0
  0
LINE
  5
DA
330
1F
100
AcDbEntity
  8
GR1_01
  6
Continuous
 62
     7
370
    25
100
AcDbLine
 10
341.5798907471035
 20
13.91239365902902
 30
0.0
 11
341.8021124680745
 21
14.13461538
 31
0.0
  0
LINE
  5
DB
330
1F
100
AcDbEntity
  8
GR1_01
  6
Continuous
 62
     7
370
    25
100
AcDbLine
 10
342.6674970880745
 20
15.0
 30
0.0
 11
343.0136508880745
 21
15.3461538
 31
0.0
  0
LINE
  5
DC
330
1F
100
AcDbEntity
  8
GR1_01
  6
Continuous
 62
     7
370
    25
100
AcDbLine
 10
343.6193137946021
 20
15.95181670652768
 30
0.0
 11
344.8018997861325
 21
17.13440269805803
 31
0.0
  0
LINE
  5
DD
330
1F
100
AcDbEntity
  8
GR1_01
  6
Continuous
 62
     7
370
    25
100
AcDbLine
 10
339.5102479299558
 20
11.91346151999999
 30
0.0
 11
340.7281892380441
 21
13.13140282808833
 31
0.0
  0
LINE
  5
DE
330
1F
100
AcDbEntity
  8
GR1_01
  6
Continuous
 62
     7
370
    25
100
AcDbLine
 10
341.5445354080442
 20
13.94774899808835
 30
0.0
 11
341.8018997861325
 21
14.20511337617669
 31
0.0
  0
LINE
  5
DF
330
1F
100
AcDbEntity
  8
GR1_01
  6
Continuous
 62
     7
370
    25
100
AcDbLine
 10
342.5967864099558
 20
15.00000000000002
 30
0.0
 11
342.9429402099558
 21
15.34615379999999
 31
0.0
  0
LINE
  5
E0
330
1F
100
AcDbEntity
  8
GR1_01
  6
Continuous
 62
     7
370
    25
100
AcDbLine
 10
343.5839584559806
 20
15.98717204602474
 30
0.0
 11
344.8018997861325
 21
17.20511337617667
 31
0.0
  0
LINE
  5
E1
330
1F
100
AcDbEntity
  8
GR1_01
  6
Continuous
 62
     7
370
    25
100
AcDbLine
 10
339.4395372518372
 20
11.91346152
 30
0.0
 11
340.6928338989848
 21
13.16675816714765
 31
0.0
  0
LINE
  5
E2
330
1F
100
AcDbEntity
  8
GR1_01
  6
Continuous
 62
     7
370
    25
100
AcDbLine
 10
341.5091800689848
 20
13.98310433714767
 30
0.0
 11
341.8018997861325
 21
14.27582405429533
 31
0.0
  0
LINE
  5
E3
330
1F
100
AcDbEntity
  8
GR1_01
  6
Continuous
 62
     7
370
    25
100
AcDbLine
 10
342.5260757318372
 20
15.0
 30
0.0
 11
342.8722295318371
 21
15.34615379999997
 31
0.0
  0
LINE
  5
E4
330
1F
100
AcDbEntity
  8
GR1_01
  6
Continuous
 62
     7
370
    25
100
AcDbLine
 10
343.548603117359
 20
16.0225273855218
 30
0.0
 11
344.8018997861325
 21
17.2758240542953
 31
0.0
  0
LINE
  5
E5
330
1F
100
AcDbEntity
  8
GR1_01
  6
Continuous
 62
     7
370
    25
100
AcDbLine
 10
339.3688265737185
 20
11.91346151999999
 30
0.0
 11
340.6574785599255
 21
13.20211350620697
 31
0.0
  0
LINE
  5
E6
330
1F
100
AcDbEntity
  8
GR1_01
  6
Continuous
 62
     7
370
    25
100
AcDbLine
 10
341.4738247299255
 20
14.01845967620699
 30
0.0
 11
341.8018997861325
 21
14.34653473241399
 31
0.0
  0
LINE
  5
E7
330
1F
100
AcDbEntity
  8
GR1_01
  6
Continuous
 62
     7
370
    25
100
AcDbLine
 10
342.4553650537185
 20
15.0
 30
0.0
 11
342.8015188537185
 21
15.34615379999997
 31
0.0
  0
LINE
  5
E8
330
1F
100
AcDbEntity
  8
GR1_01
  6
Continuous
 62
     7
370
    25
100
AcDbLine
 10
343.5132477787374
 20
16.05788272501886
 30
0.0
 11
344.8018997861325
 21
17.34653473241396
 31
0.0
  0
LINE
  5
E9
330
1F
100
AcDbEntity
  8
GR1_01
  6
Continuous
 62
     7
370
    25
100
AcDbLine
 10
339.2981158955998
 20
11.91346152
 30
0.0
 11
340.6221232208662
 21
13.23746884526631
 31
0.0
  0
LINE
  5
EA
330
1F
100
AcDbEntity
  8
GR1_01
  6
Continuous
 62
     7
370
    25
100
AcDbLine
 10
341.4384693908662
 20
14.05381501526633
 30
0.0
 11
341.8018997861325
 21
14.41724541053265
 31
0.0
  0
LINE
  5
EB
330
1F
100
AcDbEntity
  8
GR1_01
  6
Continuous
 62
     7
370
    25
100
AcDbLine
 10
342.3846543755999
 20
15.0
 30
0.0
 11
342.7308081755999
 21
15.3461538
 31
0.0
  0
LINE
  5
EC
330
1F
100
AcDbEntity
  8
GR1_01
  6
Continuous
 62
     7
370
    25
100
AcDbLine
 10
343.4778924401158
 20
16.09323806451593
 30
0.0
 11
344.8018997861325
 21
17.41724541053263
 31
0.0
  0
LINE
  5
ED
330
1F
100
AcDbEntity
  8
GR1_01
  6
Continuous
 62
     7
370
    25
100
AcDbLine
 10
339.2274052174812
 20
11.91346151999999
 30
0.0
 11
340.5867678818068
 21
13.27282418432563
 31
0.0
  0
LINE
  5
EE
330
1F
100
AcDbEntity
  8
GR1_01
  6
Continuous
 62
     7
370
    25
100
AcDbLine
 10
341.4031140518069
 20
14.08917035432565
 30
0.0
 11
341.8018997861325
 21
14.48795608865129
 31
0.0
  0
LINE
  5
EF
330
1F
100
AcDbEntity
  8
GR1_01
  6
Continuous
 62
     7
370
    25
100
AcDbLine
 10
342.3139436974812
 20
15.00000000000002
 30
0.0
 11
342.6600974974812
 21
15.34615379999999
 31
0.0
  0
LINE
  5
F0
330
1F
100
AcDbEntity
  8
GR1_01
  6
Continuous
 62
     7
370
    25
100
AcDbLine
 10
343.4425371014942
 20
16.12859340401299
 30
0.0
 11
344.8018997861325
 21
17.48795608865128
 31
0.0
  0
LINE
  5
F1
330
1F
100
AcDbEntity
  8
GR1_01
  6
Continuous
 62
     7
370
    25
100
AcDbLine
 10
339.1566945393625
 20
11.91346152
 30
0.0
 11
340.5514125427475
 21
13.30817952338495
 31
0.0
  0
LINE
  5
F2
330
1F
100
AcDbEntity
  8
GR1_01
  6
Continuous
 62
     7
370
    25
100
AcDbLine
 10
341.3677587127476
 20
14.12452569338497
 30
0.0
 11
341.8018997861325
 21
14.55866676676994
 31
0.0
  0
LINE
  5
F3
330
1F
100
AcDbEntity
  8
GR1_01
  6
Continuous
 62
     7
370
    25
100
AcDbLine
 10
342.2432330193626
 20
15.0
 30
0.0
 11
342.5908356127475
 21
15.34760259338495
 31
0.0
  0
LINE
  5
F4
330
1F
100
AcDbEntity
  8
GR1_01
  6
Continuous
 62
     7
370
    25
100
AcDbLine
 10
343.4071817628726
 20
16.16394874351002
 30
0.0
 11
344.8018997861325
 21
17.55866676676991
 31
0.0
  0
LINE
  5
F5
330
1F
100
AcDbEntity
  8
GR1_01
  6
Continuous
 62
     7
370
    25
100
AcDbLine
 10
339.0859838612439
 20
11.91346151999999
 30
0.0
 11
340.5160572036882
 21
13.34353486244428
 31
0.0
  0
LINE
  5
F6
330
1F
100
AcDbEntity
  8
GR1_01
  6
Continuous
 62
     7
370
    25
100
AcDbLine
 10
341.3324033736882
 20
14.15988103244429
 30
0.0
 11
341.8018997861325
 21
14.62937744488858
 31
0.0
  0
LINE
  5
F7
330
1F
100
AcDbEntity
  8
GR1_01
  6
Continuous
 62
     7
370
    25
100
AcDbLine
 10
342.172522341244
 20
15.0
 30
0.0
 11
342.5554802736882
 21
15.38295793244427
 31
0.0
  0
LINE
  5
F8
330
1F
100
AcDbEntity
  8
GR1_01
  6
Continuous
 62
     7
370
    25
100
AcDbLine
 10
343.371826424251
 20
16.19930408300708
 30
0.0
 11
344.8018997861325
 21
17.62937744488856
 31
0.0
  0
LINE
  5
F9
330
1F
100
AcDbEntity
  8
GR1_01
  6
Continuous
 62
     7
370
    25
100
AcDbLine
 10
339.0152731831253
 20
11.91346152
 30
0.0
 11
340.4807018646289
 21
13.37889020150361
 31
0.0
  0
LINE
  5
FA
330
1F
100
AcDbEntity
  8
GR1_01
  6
Continuous
 62
     7
370
    25
100
AcDbLine
 10
341.2970480346289
 20
14.19523637150363
 30
0.0
 11
341.8018997861325
 21
14.70008812300725
 31
0.0
  0
LINE
  5
FB
330
1F
100
AcDbEntity
  8
GR1_01
  6
Continuous
 62
     7
370
    25
100
AcDbLine
 10
342.1018116631253
 20
15.0
 30
0.0
 11
342.5201249346289
 21
15.41831327150361
 31
0.0
  0
LINE
  5
FC
330
1F
100
AcDbEntity
  8
GR1_01
  6
Continuous
 62
     7
370
    25
100
AcDbLine
 10
343.3364710856295
 20
16.23465942250415
 30
0.0
 11
344.8018997861325
 21
17.70008812300724
 31
0.0
  0
LINE
  5
FD
330
1F
100
AcDbEntity
  8
GR1_01
  6
Continuous
 62
     7
370
    25
100
AcDbLine
 10
338.9445625050066
 20
11.91346151999999
 30
0.0
 11
340.4453465255696
 21
13.41424554056293
 31
0.0
  0
LINE
  5
FE
330
1F
100
AcDbEntity
  8
GR1_01
  6
Continuous
 62
     7
370
    25
100
AcDbLine
 10
341.2616926955696
 20
14.23059171056295
 30
0.0
 11
341.8018997861325
 21
14.7707988011259
 31
0.0
  0
LINE
  5
FF
330
1F
100
AcDbEntity
  8
GR1_01
  6
Continuous
 62
     7
370
    25
100
AcDbLine
 10
342.0311009850066
 20
15.00000000000002
 30
0.0
 11
342.4847695955696
 21
15.45366861056293
 31
0.0
  0
LINE
  5
100
330
1F
100
AcDbEntity
  8
GR1_01
  6
Continuous
 62
     7
370
    25
100
AcDbLine
 10
343.3011157470078
 20
16.27001476200121
 30
0.0
 11
344.8018997861325
 21
17.77079880112588
 31
0.0
  0
LINE
  5
101
330
1F
100
AcDbEntity
  8
GR1_01
  6
Continuous
 62
     7
370
    25
100
AcDbLine
 10
338.873851826888
 20
11.91346152
 30
0.0
 11
340.4099911865102
 21
13.44960087962226
 31
0.0
  0
LINE
  5
102
330
1F
100
AcDbEntity
  8
GR1_01
  6
Continuous
 62
     7
370
    25
100
AcDbLine
 10
341.2263373565103
 20
14.26594704962227
 30
0.0
 11
341.8018997861325
 21
14.84150947924453
 31
0.0
  0
LINE
  5
103
330
1F
100
AcDbEntity
  8
GR1_01
  6
Continuous
 62
     7
370
    25
100
AcDbLine
 10
341.960390306888
 20
15.0
 30
0.0
 11
342.4494142565102
 21
15.48902394962225
 31
0.0
  0
LINE
  5
104
330
1F
100
AcDbEntity
  8
GR1_01
  6
Continuous
 62
     7
370
    25
100
AcDbLine
 10
343.2657604083863
 20
16.30537010149827
 30
0.0
 11
344.8018997861325
 21
17.84150947924451
 31
0.0
  0
LINE
  5
105
330
1F
100
AcDbEntity
  8
GR1_01
  6
Continuous
 62
     7
370
    25
100
AcDbLine
 10
338.8031411487693
 20
11.91346151999999
 30
0.0
 11
340.3746358474509
 21
13.48495621868158
 31
0.0
  0
LINE
  5
106
330
1F
100
AcDbEntity
  8
GR1_01
  6
Continuous
 62
     7
370
    25
100
AcDbLine
 10
341.1909820174509
 20
14.3013023886816
 30
0.0
 11
341.8018997861325
 21
14.91222015736318
 31
0.0
  0
LINE
  5
107
330
1F
100
AcDbEntity
  8
GR1_01
  6
Continuous
 62
     7
370
    25
100
AcDbLine
 10
341.8896796287693
 20
15.0
 30
0.0
 11
342.4140589174509
 21
15.52437928868158
 31
0.0
  0
LINE
  5
108
330
1F
100
AcDbEntity
  8
GR1_01
  6
Continuous
 62
     7
370
    25
100
AcDbLine
 10
343.2304050697646
 20
16.34072544099533
 30
0.0
 11
344.8018997861325
 21
17.91222015736317
 31
0.0
  0
LINE
  5
109
330
1F
100
AcDbEntity
  8
GR1_01
  6
Continuous
 62
     7
370
    25
100
AcDbLine
 10
338.8018997861325
 20
11.98293083548183
 30
0.0
 11
340.3392805083916
 21
13.5203115577409
 31
0.0
  0
LINE
  5
10A
330
1F
100
AcDbEntity
  8
GR1_01
  6
Continuous
 62
     7
370
    25
100
AcDbLine
 10
341.1556266783916
 20
14.3366577277409
 30
0.0
 11
341.8018997861325
 21
14.98293083548184
 31
0.0
  0
LINE
  5
10B
330
1F
100
AcDbEntity
  8
GR1_01
  6
Continuous
 62
     7
370
    25
100
AcDbLine
 10
341.8189689506507
 20
14.99999999999999
 30
0.0
 11
342.3787035783916
 21
15.55973462774091
 31
0.0
  0
LINE
  5
10C
330
1F
100
AcDbEntity
  8
GR1_01
  6
Continuous
 62
     7
370
    25
100
AcDbLine
 10
343.1950497311431
 20
16.37608078049238
 30
0.0
 11
344.7324304706507
 21
17.91346152
 31
0.0
  0
LINE
  5
10D
330
1F
100
AcDbEntity
  8
GR1_01
  6
Continuous
 62
     7
370
    25
100
AcDbLine
 10
338.8018997861325
 20
12.0536415136005
 30
0.0
 11
340.3039251693323
 21
13.55566689680024
 31
0.0
  0
LINE
  5
10E
330
1F
100
AcDbEntity
  8
GR1_01
  6
Continuous
 62
     7
370
    25
100
AcDbLine
 10
341.1202713393322
 20
14.37201306680024
 30
0.0
 11
342.3433482393323
 21
15.59508996680025
 31
0.0
  0
LINE
  5
10F
330
1F
100
AcDbEntity
  8
GR1_01
  6
Continuous
 62
     7
370
    25
100
AcDbLine
 10
343.1596943925215
 20
16.41143611998945
 30
0.0
 11
344.661719792532
 21
17.91346152000002
 31
0.0
  0
LINE
  5
110
330
1F
100
AcDbEntity
  8
GR1_01
  6
Continuous
 62
     7
370
    25
100
AcDbLine
 10
338.8018997861325
 20
12.12435219171916
 30
0.0
 11
340.2685698302729
 21
13.59102223585956
 31
0.0
  0
LINE
  5
111
330
1F
100
AcDbEntity
  8
GR1_01
  6
Continuous
 62
     7
370
    25
100
AcDbLine
 10
341.0849160002729
 20
14.40736840585956
 30
0.0
 11
342.307992900273
 21
15.63044530585957
 31
0.0
  0
LINE
  5
112
330
1F
100
AcDbEntity
  8
GR1_01
  6
Continuous
 62
     7
370
    25
100
AcDbLine
 10
343.1243390538999
 20
16.44679145948651
 30
0.0
 11
344.5910091144134
 21
17.91346152
 31
0.0
  0
LINE
  5
113
330
1F
100
AcDbEntity
  8
GR1_01
  6
Continuous
 62
     7
370
    25
100
AcDbLine
 10
338.8018997861325
 20
12.19506286983779
 30
0.0
 11
340.2332144912136
 21
13.62637757491888
 31
0.0
  0
LINE
  5
114
330
1F
100
AcDbEntity
  8
GR1_01
  6
Continuous
 62
     7
370
    25
100
AcDbLine
 10
341.0495606612136
 20
14.44272374491888
 30
0.0
 11
342.2726375612136
 21
15.66580064491889
 31
0.0
  0
LINE
  5
115
330
1F
100
AcDbEntity
  8
GR1_01
  6
Continuous
 62
     7
370
    25
100
AcDbLine
 10
343.0889837152783
 20
16.48214679898357
 30
0.0
 11
344.5202984362948
 21
17.91346152000002
 31
0.0
  0
LINE
  5
116
330
1F
100
AcDbEntity
  8
GR1_01
  6
Continuous
 62
     7
370
    25
100
AcDbLine
 10
338.8018997861325
 20
12.26577354795643
 30
0.0
 11
340.1978591521543
 21
13.6617329139782
 31
0.0
  0
LINE
  5
117
330
1F
100
AcDbEntity
  8
GR1_01
  6
Continuous
 62
     7
370
    25
100
AcDbLine
 10
341.0142053221543
 20
14.4780790839782
 30
0.0
 11
342.2372822221543
 21
15.70115598397821
 31
0.0
  0
LINE
  5
118
330
1F
100
AcDbEntity
  8
GR1_01
  6
Continuous
 62
     7
370
    25
100
AcDbLine
 10
343.0536283766567
 20
16.51750213848063
 30
0.0
 11
344.4495877581761
 21
17.91346152
 31
0.0
  0
LINE
  5
119
330
1F
100
AcDbEntity
  8
GR1_01
  6
Continuous
 62
     7
370
    25
100
AcDbLine
 10
338.8018997861325
 20
12.3364842260751
 30
0.0
 11
340.1625038130949
 21
13.69708825303754
 31
0.0
  0
LINE
  5
11A
330
1F
100
AcDbEntity
  8
GR1_01
  6
Continuous
 62
     7
370
    25
100
AcDbLine
 10
340.978849983095
 20
14.51343442303754
 30
0.0
 11
342.201926883095
 21
15.73651132303755
 31
0.0
  0
LINE
  5
11B
330
1F
100
AcDbEntity
  8
GR1_01
  6
Continuous
 62
     7
370
    25
100
AcDbLine
 10
343.0182730380351
 20
16.55285747797767
 30
0.0
 11
344.3788770800574
 21
17.91346152000002
 31
0.0
  0
LINE
  5
11C
330
1F
100
AcDbEntity
  8
GR1_01
  6
Continuous
 62
     7
370
    25
100
AcDbLine
 10
338.8018997861325
 20
12.40719490419376
 30
0.0
 11
340.1271484740356
 21
13.73244359209686
 31
0.0
  0
LINE
  5
11D
330
1F
100
AcDbEntity
  8
GR1_01
  6
Continuous
 62
     7
370
    25
100
AcDbLine
 10
340.9434946440356
 20
14.54878976209686
 30
0.0
 11
342.1665715440357
 21
15.77186666209687
 31
0.0
  0
LINE
  5
11E
330
1F
100
AcDbEntity
  8
GR1_01
  6
Continuous
 62
     7
370
    25
100
AcDbLine
 10
342.9829176994135
 20
16.58821281747473
 30
0.0
 11
344.3081664019388
 21
17.91346152
 31
0.0
  0
LINE
  5
11F
330
1F
100
AcDbEntity
  8
GR1_01
  6
Continuous
 62
     7
370
    25
100
AcDbLine
 10
338.8018997861325
 20
12.47790558231239
 30
0.0
 11
340.0917931349763
 21
13.76779893115618
 31
0.0
  0
LINE
  5
120
330
1F
100
AcDbEntity
  8
GR1_01
  6
Continuous
 62
     7
370
    25
100
AcDbLine
 10
340.9081393049763
 20
14.58414510115619
 30
0.0
 11
342.1312162049763
 21
15.80722200115619
 31
0.0
  0
LINE
  5
121
330
1F
100
AcDbEntity
  8
GR1_01
  6
Continuous
 62
     7
370
    25
100
AcDbLine
 10
342.9475623607919
 20
16.62356815697179
 30
0.0
 11
344.2374557238201
 21
17.91346152000002
 31
0.0
  0
LINE
  5
122
330
1F
100
AcDbEntity
  8
GR1_01
  6
Continuous
 62
     7
370
    25
100
AcDbLine
 10
338.8018997861325
 20
12.54861626043104
 30
0.0
 11
340.056437795917
 21
13.8031542702155
 31
0.0
  0
LINE
  5
123
330
1F
100
AcDbEntity
  8
GR1_01
  6
Continuous
 62
     7
370
    25
100
AcDbLine
 10
340.872783965917
 20
14.61950044021551
 30
0.0
 11
342.095860865917
 21
15.84257734021552
 31
0.0
  0
LINE
  5
124
330
1F
100
AcDbEntity
  8
GR1_01
  6
Continuous
 62
     7
370
    25
100
AcDbLine
 10
342.9122070221703
 20
16.65892349646885
 30
0.0
 11
344.1667450457015
 21
17.91346152
 31
0.0
  0
LINE
  5
125
330
1F
100
AcDbEntity
  8
GR1_01
  6
Continuous
 62
     7
370
    25
100
AcDbLine
 10
338.8018997861325
 20
12.61932693854971
 30
0.0
 11
340.0210824568576
 21
13.83850960927484
 31
0.0
  0
LINE
  5
126
330
1F
100
AcDbEntity
  8
GR1_01
  6
Continuous
 62
     7
370
    25
100
AcDbLine
 10
340.8374286268577
 20
14.65485577927484
 30
0.0
 11
342.0605055268577
 21
15.87793267927485
 31
0.0
  0
LINE
  5
127
330
1F
100
AcDbEntity
  8
GR1_01
  6
Continuous
 62
     7
370
    25
100
AcDbLine
 10
342.8768516835487
 20
16.69427883596592
 30
0.0
 11
344.0960343675828
 21
17.91346152000002
 31
0.0
  0
LINE
  5
128
330
1F
100
AcDbEntity
  8
GR1_01
  6
Continuous
 62
     7
370
    25
100
AcDbLine
 10
338.8018997861325
 20
12.69003761666835
 30
0.0
 11
339.9857271177983
 21
13.87386494833416
 31
0.0
  0
LINE
  5
129
330
1F
100
AcDbEntity
  8
GR1_01
  6
Continuous
 62
     7
370
    25
100
AcDbLine
 10
340.8020732877983
 20
14.69021111833417
 30
0.0
 11
342.0251501877983
 21
15.91328801833417
 31
0.0
  0
LINE
  5
12A
330
1F
100
AcDbEntity
  8
GR1_01
  6
Continuous
 62
     7
370
    25
100
AcDbLine
 10
342.8414963449271
 20
16.72963417546298
 30
0.0
 11
344.0253236894642
 21
17.91346152
 31
0.0
  0
LINE
  5
12B
330
1F
100
AcDbEntity
  8
GR1_01
  6
Continuous
 62
     7
370
    25
100
AcDbLine
 10
338.8018997861325
 20
12.760748294787
 30
0.0
 11
339.950371778739
 21
13.90922028739348
 31
0.0
  0
LINE
  5
12C
330
1F
100
AcDbEntity
  8
GR1_01
  6
Continuous
 62
     7
370
    25
100
AcDbLine
 10
340.766717948739
 20
14.72556645739349
 30
0.0
 11
341.9897948487391
 21
15.94864335739353
 31
0.0
  0
LINE
  5
12D
330
1F
100
AcDbEntity
  8
GR1_01
  6
Continuous
 62
     7
370
    25
100
AcDbLine
 10
342.8061410063056
 20
16.76498951496002
 30
0.0
 11
343.9546130113455
 21
17.91346152000002
 31
0.0
  0
LINE
  5
12E
330
1F
100
AcDbEntity
  8
GR1_01
  6
Continuous
 62
     7
370
    25
100
AcDbLine
 10
338.8018997861325
 20
12.83145897290564
 30
0.0
 11
339.9150164396797
 21
13.94457562645281
 31
0.0
  0
LINE
  5
12F
330
1F
100
AcDbEntity
  8
GR1_01
  6
Continuous
 62
     7
370
    25
100
AcDbLine
 10
340.7313626096796
 20
14.76092179645281
 30
0.0
 11
341.9544395096797
 21
15.98399869645285
 31
0.0
  0
LINE
  5
130
330
1F
100
AcDbEntity
  8
GR1_01
  6
Continuous
 62
     7
370
    25
100
AcDbLine
 10
342.770785667684
 20
16.80034485445708
 30
0.0
 11
343.8839023332268
 21
17.91346152
 31
0.0
  0
LINE
  5
131
330
1F
100
AcDbEntity
  8
GR1_01
  6
Continuous
 62
     7
370
    25
100
AcDbLine
 10
338.8018997861325
 20
12.9021696510243
 30
0.0
 11
339.8796611006204
 21
13.97993096551214
 31
0.0
  0
LINE
  5
132
330
1F
100
AcDbEntity
  8
GR1_01
  6
Continuous
 62
     7
370
    25
100
AcDbLine
 10
340.6960072706203
 20
14.79627713551215
 30
0.0
 11
341.9190841706204
 21
16.01935403551218
 31
0.0
  0
LINE
  5
133
330
1F
100
AcDbEntity
  8
GR1_01
  6
Continuous
 62
     7
370
    25
100
AcDbLine
 10
342.7354303290624
 20
16.83570019395416
 30
0.0
 11
343.8131916551082
 21
17.91346152000002
 31
0.0
  0
LINE
  5
134
330
1F
100
AcDbEntity
  8
GR1_01
  6
Continuous
 62
     7
370
    25
100
AcDbLine
 10
338.8018997861325
 20
12.97288032914296
 30
0.0
 11
339.844305761561
 21
14.01528630457146
 31
0.0
  0
LINE
  5
135
330
1F
100
AcDbEntity
  8
GR1_01
  6
Continuous
 62
     7
370
    25
100
AcDbLine
 10
340.660651931561
 20
14.83163247457147
 30
0.0
 11
341.883728831561
 21
16.05470937457151
 31
0.0
  0
LINE
  5
136
330
1F
100
AcDbEntity
  8
GR1_01
  6
Continuous
 62
     7
370
    25
100
AcDbLine
 10
342.7000749904408
 20
16.87105553345122
 30
0.0
 11
343.7424809769896
 21
17.91346152
 31
0.0
  0
LINE
  5
137
330
1F
100
AcDbEntity
  8
GR1_01
  6
Continuous
 62
     7
370
    25
100
AcDbLine
 10
338.8018997861325
 20
13.0435910072616
 30
0.0
 11
339.8089504225017
 21
14.05064164363079
 31
0.0
  0
LINE
  5
138
330
1F
100
AcDbEntity
  8
GR1_01
  6
Continuous
 62
     7
370
    25
100
AcDbLine
 10
340.6252965925017
 20
14.86698781363079
 30
0.0
 11
341.8483734925018
 21
16.09006471363083
 31
0.0
  0
LINE
  5
139
330
1F
100
AcDbEntity
  8
GR1_01
  6
Continuous
 62
     7
370
    25
100
AcDbLine
 10
342.6647196518192
 20
16.90641087294827
 30
0.0
 11
343.6717702988709
 21
17.91346152000002
 31
0.0
  0
LINE
  5
13A
330
1F
100
AcDbEntity
  8
GR1_01
  6
Continuous
 62
     7
370
    25
100
AcDbLine
 10
338.8018997861325
 20
13.11430168538024
 30
0.0
 11
339.7735950834424
 21
14.08599698269011
 31
0.0
  0
LINE
  5
13B
330
1F
100
AcDbEntity
  8
GR1_01
  6
Continuous
 62
     7
370
    25
100
AcDbLine
 10
340.5899412534424
 20
14.90234315269011
 30
0.0
 11
341.8130181534424
 21
16.12542005269015
 31
0.0
  0
LINE
  5
13C
330
1F
100
AcDbEntity
  8
GR1_01
  6
Continuous
 62
     7
370
    25
100
AcDbLine
 10
342.6293643131976
 20
16.94176621244533
 30
0.0
 11
343.6010596207523
 21
17.91346152
 31
0.0
  0
LINE
  5
13D
330
1F
100
AcDbEntity
  8
GR1_01
  6
Continuous
 62
     7
370
    25
100
AcDbLine
 10
338.8018997861325
 20
13.1850123634989
 30
0.0
 11
339.7382397443831
 21
14.12135232174944
 31
0.0
  0
LINE
  5
13E
330
1F
100
AcDbEntity
  8
GR1_01
  6
Continuous
 62
     7
370
    25
100
AcDbLine
 10
342.594008974576
 20
16.97712155194238
 30
0.0
 11
343.5303489426336
 21
17.91346152000002
 31
0.0
  0
LINE
  5
13F
330
1F
100
AcDbEntity
  8
GR1_01
  6
Continuous
 62
     7
370
    25
100
AcDbLine
 10
338.8018997861325
 20
13.25572304161756
 30
0.0
 11
339.7028844053237
 21
14.15670766080877
 31
0.0
  0
LINE
  5
140
330
1F
100
AcDbEntity
  8
GR1_01
  6
Continuous
 62
     7
370
    25
100
AcDbLine
 10
342.5586536359544
 20
17.01247689143944
 30
0.0
 11
343.459638264515
 21
17.91346152
 31
0.0
  0
LINE
  5
141
330
1F
100
AcDbEntity
  8
GR1_01
  6
Continuous
 62
     7
370
    25
100
AcDbLine
 10
338.8018997861325
 20
13.3264337197362
 30
0.0
 11
339.6675290662644
 21
14.19206299986809
 31
0.0
  0
LINE
  5
142
330
1F
100
AcDbEntity
  8
GR1_01
  6
Continuous
 62
     7
370
    25
100
AcDbLine
 10
342.5232982973328
 20
17.0478322309365
 30
0.0
 11
343.3889275863963
 21
17.91346152000002
 31
0.0
  0
LINE
  5
143
330
1F
100
AcDbEntity
  8
GR1_01
  6
Continuous
 62
     7
370
    25
100
AcDbLine
 10
338.8018997861325
 20
13.39714439785483
 30
0.0
 11
339.632173727205
 21
14.2274183389274
 31
0.0
  0
LINE
  5
144
330
1F
100
AcDbEntity
  8
GR1_01
  6
Continuous
 62
     7
370
    25
100
AcDbLine
 10
342.4879429587112
 20
17.08318757043356
 30
0.0
 11
343.3182169082777
 21
17.91346152
 31
0.0
  0
LINE
  5
145
330
1F
100
AcDbEntity
  8
GR1_01
  6
Continuous
 62
     7
370
    25
100
AcDbLine
 10
338.8018997861325
 20
13.46785507597349
 30
0.0
 11
339.5968183881457
 21
14.26277367798672
 31
0.0
  0
LINE
  5
146
330
1F
100
AcDbEntity
  8
GR1_01
  6
Continuous
 62
     7
370
    25
100
AcDbLine
 10
342.4525876200896
 20
17.11854290993061
 30
0.0
 11
343.247506230159
 21
17.91346152
 31
0.0
  0
LINE
  5
147
330
1F
100
AcDbEntity
  8
GR1_01
  6
Continuous
 62
     7
370
    25
100
AcDbLine
 10
338.8018997861325
 20
13.53856575409216
 30
0.0
 11
339.5614630490864
 21
14.29812901704605
 31
0.0
  0
LINE
  5
148
330
1F
100
AcDbEntity
  8
GR1_01
  6
Continuous
 62
     7
370
    25
100
AcDbLine
 10
342.417232281468
 20
17.15389824942769
 30
0.0
 11
343.1767955520403
 21
17.91346152000002
 31
0.0
  0
LINE
  5
149
330
1F
100
AcDbEntity
  8
GR1_01
  6
Continuous
 62
     7
370
    25
100
AcDbLine
 10
338.8018997861325
 20
13.60927643221081
 30
0.0
 11
339.5261077100271
 21
14.33348435610538
 31
0.0
  0
LINE
  5
14A
330
1F
100
AcDbEntity
  8
GR1_01
  6
Continuous
 62
     7
370
    25
100
AcDbLine
 10
342.3818769428464
 20
17.18925358892473
 30
0.0
 11
343.1060848739217
 21
17.91346152000002
 31
0.0
  0
LINE
  5
14B
330
1F
100
AcDbEntity
  8
GR1_01
  6
Continuous
 62
     7
370
    25
100
AcDbLine
 10
338.8018997861325
 20
13.67998711032944
 30
0.0
 11
339.4907523709678
 21
14.3688396951647
 31
0.0
  0
LINE
  5
14C
330
1F
100
AcDbEntity
  8
GR1_01
  6
Continuous
 62
     7
370
    25
100
AcDbLine
 10
342.3465216042248
 20
17.22460892842179
 30
0.0
 11
343.0353741958031
 21
17.91346152
 31
0.0
  0
LINE
  5
14D
330
1F
100
AcDbEntity
  8
GR1_01
  6
Continuous
 62
     7
370
    25
100
AcDbLine
 10
338.8018997861325
 20
13.7506977884481
 30
0.0
 11
339.4553970319084
 21
14.40419503422402
 31
0.0
  0
LINE
  5
14E
330
1F
100
AcDbEntity
  8
GR1_01
  6
Continuous
 62
     7
370
    25
100
AcDbLine
 10
342.3111662656033
 20
17.25996426791885
 30
0.0
 11
342.9646635176844
 21
17.91346152000002
 31
0.0
  0
LINE
  5
14F
330
1F
100
AcDbEntity
  8
GR1_01
  6
Continuous
 62
     7
370
    25
100
AcDbLine
 10
338.8018997861325
 20
13.82140846656677
 30
0.0
 11
339.4200416928491
 21
14.43955037328336
 31
0.0
  0
LINE
  5
150
330
1F
100
AcDbEntity
  8
GR1_01
  6
Continuous
 62
     7
370
    25
100
AcDbLine
 10
342.2758109269816
 20
17.29531960741592
 30
0.0
 11
342.8939528395658
 21
17.91346152000002
 31
0.0
  0
LINE
  5
151
330
1F
100
AcDbEntity
  8
GR1_01
  6
Continuous
 62
     7
370
    25
100
AcDbLine
 10
338.8018997861325
 20
13.89211914468541
 30
0.0
 11
339.3846863537898
 21
14.47490571234268
 31
0.0
  0
LINE
  5
152
330
1F
100
AcDbEntity
  8
GR1_01
  6
Continuous
 62
     7
370
    25
100
AcDbLine
 10
342.2404555883601
 20
17.33067494691298
 30
0.0
 11
342.8232421614471
 21
17.91346152000002
 31
0.0
  0
LINE
  5
153
330
1F
100
AcDbEntity
  8
GR1_01
  6
Continuous
 62
     7
370
    25
100
AcDbLine
 10
338.8018997861325
 20
13.96282982280404
 30
0.0
 11
339.3493310147305
 21
14.510261051402
 31
0.0
  0
LINE
  5
154
330
1F
100
AcDbEntity
  8
GR1_01
  6
Continuous
 62
     7
370
    25
100
AcDbLine
 10
342.2051002497385
 20
17.36603028641001
 30
0.0
 11
342.7525314833284
 21
17.91346152
 31
0.0
  0
LINE
  5
155
330
1F
100
AcDbEntity
  8
GR1_01
  6
Continuous
 62
     7
370
    25
100
AcDbLine
 10
338.8018997861325
 20
14.0335405009227
 30
0.0
 11
339.3139756756711
 21
14.54561639046132
 31
0.0
  0
LINE
  5
156
330
1F
100
AcDbEntity
  8
GR1_01
  6
Continuous
 62
     7
370
    25
100
AcDbLine
 10
342.1697449111169
 20
17.40138562590707
 30
0.0
 11
342.6818208052098
 21
17.91346152000002
 31
0.0
  0
LINE
  5
157
330
1F
100
AcDbEntity
  8
GR1_01
  6
Continuous
 62
     7
370
    25
100
AcDbLine
 10
338.8018997861325
 20
14.10425117904137
 30
0.0
 11
339.2786203366118
 21
14.58097172952066
 31
0.0
  0
LINE
  5
158
330
1F
100
AcDbEntity
  8
GR1_01
  6
Continuous
 62
     7
370
    25
100
AcDbLine
 10
342.1343895724953
 20
17.43674096540414
 30
0.0
 11
342.6111101270911
 21
17.91346152000002
 31
0.0
  0
LINE
  5
159
330
1F
100
AcDbEntity
  8
GR1_01
  6
Continuous
 62
     7
370
    25
100
AcDbLine
 10
338.8018997861325
 20
14.17496185716002
 30
0.0
 11
339.2432649975525
 21
14.61632706857998
 31
0.0
  0
LINE
  5
15A
330
1F
100
AcDbEntity
  8
GR1_01
  6
Continuous
 62
     7
370
    25
100
AcDbLine
 10
342.0990342338737
 20
17.4720963049012
 30
0.0
 11
342.5403994489725
 21
17.91346152000002
 31
0.0
  0
LINE
  5
15B
330
1F
100
AcDbEntity
  8
GR1_01
  6
Continuous
 62
     7
370
    25
100
AcDbLine
 10
338.8018997861325
 20
14.24567253527865
 30
0.0
 11
339.2079096584931
 21
14.6516824076393
 31
0.0
  0
LINE
  5
15C
330
1F
100
AcDbEntity
  8
GR1_01
  6
Continuous
 62
     7
370
    25
100
AcDbLine
 10
342.0636788952521
 20
17.50745164439826
 30
0.0
 11
342.4696887708538
 21
17.91346152
 31
0.0
  0
LINE
  5
15D
330
1F
100
AcDbEntity
  8
GR1_01
  6
Continuous
 62
     7
370
    25
100
AcDbLine
 10
338.8018997861325
 20
14.31638321339731
 30
0.0
 11
339.1725543194339
 21
14.68703774669862
 31
0.0
  0
LINE
  5
15E
330
1F
100
AcDbEntity
  8
GR1_01
  6
Continuous
 62
     7
370
    25
100
AcDbLine
 10
342.0283235566305
 20
17.54280698389532
 30
0.0
 11
342.3989780927352
 21
17.91346152000002
 31
0.0
  0
LINE
  5
15F
330
1F
100
AcDbEntity
  8
GR1_01
  6
Continuous
 62
     7
370
    25
100
AcDbLine
 10
338.8018997861325
 20
14.38709389151598
 30
0.0
 11
339.1371989803745
 21
14.72239308575796
 31
0.0
  0
LINE
  5
160
330
1F
100
AcDbEntity
  8
GR1_01
  6
Continuous
 62
     7
370
    25
100
AcDbLine
 10
341.9929682180089
 20
17.57816232339238
 30
0.0
 11
342.3282674146166
 21
17.91346152000002
 31
0.0
  0
LINE
  5
161
330
1F
100
AcDbEntity
  8
GR1_01
  6
Continuous
 62
     7
370
    25
100
AcDbLine
 10
338.8018997861325
 20
14.45780456963462
 30
0.0
 11
339.1018436413152
 21
14.75774842481728
 31
0.0
  0
LINE
  5
162
330
1F
100
AcDbEntity
  8
GR1_01
  6
Continuous
 62
     7
370
    25
100
AcDbLine
 10
341.9576128793873
 20
17.61351766288944
 30
0.0
 11
342.2575567364979
 21
17.91346152000002
 31
0.0
  0
LINE
  5
163
330
1F
100
AcDbEntity
  8
GR1_01
  6
Continuous
 62
     7
370
    25
100
AcDbLine
 10
338.8018997861325
 20
14.52851524775325
 30
0.0
 11
339.0664883022558
 21
14.7931037638766
 31
0.0
  0
LINE
  5
164
330
1F
100
AcDbEntity
  8
GR1_01
  6
Continuous
 62
     7
370
    25
100
AcDbLine
 10
341.9222575407657
 20
17.6488730023865
 30
0.0
 11
342.1868460583793
 21
17.91346152
 31
0.0
  0
LINE
  5
165
330
1F
100
AcDbEntity
  8
GR1_01
  6
Continuous
 62
     7
370
    25
100
AcDbLine
 10
338.8018997861325
 20
14.59922592587191
 30
0.0
 11
339.0311329631965
 21
14.82845910293593
 31
0.0
  0
LINE
  5
166
330
1F
100
AcDbEntity
  8
GR1_01
  6
Continuous
 62
     7
370
    25
100
AcDbLine
 10
341.8869022021441
 20
17.68422834188356
 30
0.0
 11
342.1161353802606
 21
17.91346152000002
 31
0.0
  0
LINE
  5
167
330
1F
100
AcDbEntity
  8
GR1_01
  6
Continuous
 62
     7
370
    25
100
AcDbLine
 10
338.8018997861325
 20
14.66993660399058
 30
0.0
 11
338.9957776241372
 21
14.86381444199526
 31
0.0
  0
LINE
  5
168
330
1F
100
AcDbEntity
  8
GR1_01
  6
Continuous
 62
     7
370
    25
100
AcDbLine
 10
341.8515468635226
 20
17.71958368138063
 30
0.0
 11
342.045424702142
 21
17.91346152000002
 31
0.0
  0
LINE
  5
169
330
1F
100
AcDbEntity
  8
GR1_01
  6
Continuous
 62
     7
370
    25
100
AcDbLine
 10
338.8018997861325
 20
14.74064728210923
 30
0.0
 11
338.9604222850779
 21
14.89916978105459
 31
0.0
  0
LINE
  5
16A
330
1F
100
AcDbEntity
  8
GR1_01
  6
Continuous
 62
     7
370
    25
100
AcDbLine
 10
341.816191524901
 20
17.75493902087769
 30
0.0
 11
341.9747140240233
 21
17.91346152000002
 31
0.0
  0
LINE
  5
16B
330
1F
100
AcDbEntity
  8
GR1_01
  6
Continuous
 62
     7
370
    25
100
AcDbLine
 10
338.8018997861325
 20
14.81135796022786
 30
0.0
 11
341.9040033459046
 21
17.91346152
 31
0.0
  0
LINE
  5
16C
330
1F
100
AcDbEntity
  8
GR1_01
  6
Continuous
 62
     7
370
    25
100
AcDbLine
 10
338.8018997861325
 20
14.88206863834651
 30
0.0
 11
341.833292667786
 21
17.91346151999999
 31
0.0
  0
LINE
  5
16D
330
1F
100
AcDbEntity
  8
GR1_01
  6
Continuous
 62
     7
370
    25
100
AcDbLine
 10
338.8018997861325
 20
14.95277931646517
 30
0.0
 11
341.7625819896674
 21
17.91346152
 31
0.0
  0
LINE
  5
16E
330
1F
100
AcDbEntity
  8
GR1_01
  6
Continuous
 62
     7
370
    25
100
AcDbLine
 10
338.8018997861325
 20
15.02348999458383
 30
0.0
 11
341.6918713115487
 21
17.91346152
 31
0.0
  0
LINE
  5
16F
330
1F
100
AcDbEntity
  8
GR1_01
  6
Continuous
 62
     7
370
    25
100
AcDbLine
 10
338.8018997861325
 20
15.09420067270246
 30
0.0
 11
341.62116063343
 21
17.91346152
 31
0.0
  0
LINE
  5
170
330
1F
100
AcDbEntity
  8
GR1_01
  6
Continuous
 62
     7
370
    25
100
AcDbLine
 10
338.8018997861325
 20
15.16491135082112
 30
0.0
 11
341.5504499553114
 21
17.91346151999999
 31
0.0
  0
LINE
  5
171
330
1F
100
AcDbEntity
  8
GR1_01
  6
Continuous
 62
     7
370
    25
100
AcDbLine
 10
338.8018997861325
 20
15.23562202893978
 30
0.0
 11
341.4797392771927
 21
17.91346152
 31
0.0
  0
LINE
  5
172
330
1F
100
AcDbEntity
  8
GR1_01
  6
Continuous
 62
     7
370
    25
100
AcDbLine
 10
338.8018997861325
 20
15.30633270705843
 30
0.0
 11
341.4090285990741
 21
17.91346152
 31
0.0
  0
LINE
  5
173
330
1F
100
AcDbEntity
  8
GR1_01
  6
Continuous
 62
     7
370
    25
100
AcDbLine
 10
338.8018997861325
 20
15.37704338517706
 30
0.0
 11
341.3383179209554
 21
17.91346152
 31
0.0
  0
LINE
  5
174
330
1F
100
AcDbEntity
  8
GR1_01
  6
Continuous
 62
     7
370
    25
100
AcDbLine
 10
338.8018997861325
 20
15.44775406329572
 30
0.0
 11
341.2676072428368
 21
17.91346151999999
 31
0.0
  0
LINE
  5
175
330
1F
100
AcDbEntity
  8
GR1_01
  6
Continuous
 62
     7
370
    25
100
AcDbLine
 10
338.8018997861325
 20
15.51846474141438
 30
0.0
 11
341.1968965647181
 21
17.91346152
 31
0.0
  0
LINE
  5
176
330
1F
100
AcDbEntity
  8
GR1_01
  6
Continuous
 62
     7
370
    25
100
AcDbLine
 10
338.8018997861325
 20
15.58917541953304
 30
0.0
 11
341.1261858865995
 21
17.91346152
 31
0.0
  0
LINE
  5
177
330
1F
100
AcDbEntity
  8
GR1_01
  6
Continuous
 62
     7
370
    25
100
AcDbLine
 10
338.8018997861325
 20
15.65988609765167
 30
0.0
 11
341.0554752084809
 21
17.91346152
 31
0.0
  0
LINE
  5
178
330
1F
100
AcDbEntity
  8
GR1_01
  6
Continuous
 62
     7
370
    25
100
AcDbLine
 10
338.8018997861325
 20
15.73059677577033
 30
0.0
 11
340.9847645303622
 21
17.91346151999999
 31
0.0
  0
LINE
  5
179
330
1F
100
AcDbEntity
  8
GR1_01
  6
Continuous
 62
     7
370
    25
100
AcDbLine
 10
338.8018997861325
 20
15.80130745388898
 30
0.0
 11
340.9140538522436
 21
17.91346152
 31
0.0
  0
LINE
  5
17A
330
1F
100
AcDbEntity
  8
GR1_01
  6
Continuous
 62
     7
370
    25
100
AcDbLine
 10
338.8018997861325
 20
15.87201813200764
 30
0.0
 11
340.8433431741249
 21
17.91346152
 31
0.0
  0
LINE
  5
17B
330
1F
100
AcDbEntity
  8
GR1_01
  6
Continuous
 62
     7
370
    25
100
AcDbLine
 10
338.8018997861325
 20
15.94272881012627
 30
0.0
 11
340.7726324960062
 21
17.91346152
 31
0.0
  0
LINE
  5
17C
330
1F
100
AcDbEntity
  8
GR1_01
  6
Continuous
 62
     7
370
    25
100
AcDbLine
 10
338.8018997861325
 20
16.01343948824493
 30
0.0
 11
340.7019218178876
 21
17.91346151999999
 31
0.0
  0
LINE
  5
17D
330
1F
100
AcDbEntity
  8
GR1_01
  6
Continuous
 62
     7
370
    25
100
AcDbLine
 10
338.8018997861325
 20
16.08415016636359
 30
0.0
 11
340.6312111397689
 21
17.91346152
 31
0.0
  0
LINE
  5
17E
330
1F
100
AcDbEntity
  8
GR1_01
  6
Continuous
 62
     7
370
    25
100
AcDbLine
 10
338.8018997861325
 20
16.15486084448223
 30
0.0
 11
340.5605004616503
 21
17.91346152
 31
0.0
  0
LINE
  5
17F
330
1F
100
AcDbEntity
  8
GR1_01
  6
Continuous
 62
     7
370
    25
100
AcDbLine
 10
338.8018997861325
 20
16.22557152260088
 30
0.0
 11
340.4897897835316
 21
17.91346152
 31
0.0
  0
LINE
  5
180
330
1F
100
AcDbEntity
  8
GR1_01
  6
Continuous
 62
     7
370
    25
100
AcDbLine
 10
338.8018997861325
 20
16.29628220071953
 30
0.0
 11
340.4190791054129
 21
17.91346152
 31
0.0
  0
LINE
  5
181
330
1F
100
AcDbEntity
  8
GR1_01
  6
Continuous
 62
     7
370
    25
100
AcDbLine
 10
338.8018997861325
 20
16.36699287883819
 30
0.0
 11
340.3483684272943
 21
17.91346152
 31
0.0
  0
LINE
  5
182
330
1F
100
AcDbEntity
  8
GR1_01
  6
Continuous
 62
     7
370
    25
100
AcDbLine
 10
338.8018997861325
 20
16.43770355695684
 30
0.0
 11
340.2776577491757
 21
17.91346152
 31
0.0
  0
LINE
  5
183
330
1F
100
AcDbEntity
  8
GR1_01
  6
Continuous
 62
     7
370
    25
100
AcDbLine
 10
338.8018997861325
 20
16.50841423507548
 30
0.0
 11
340.206947071057
 21
17.91346152000002
 31
0.0
  0
LINE
  5
184
330
1F
100
AcDbEntity
  8
GR1_01
  6
Continuous
 62
     7
370
    25
100
AcDbLine
 10
338.8018997861325
 20
16.57912491319414
 30
0.0
 11
340.1362363929384
 21
17.91346152
 31
0.0
  0
LINE
  5
185
330
1F
100
AcDbEntity
  8
GR1_01
  6
Continuous
 62
     7
370
    25
100
AcDbLine
 10
338.8018997861325
 20
16.6498355913128
 30
0.0
 11
340.0655257148197
 21
17.91346152
 31
0.0
  0
LINE
  5
186
330
1F
100
AcDbEntity
  8
GR1_01
  6
Continuous
 62
     7
370
    25
100
AcDbLine
 10
338.8018997861325
 20
16.72054626943143
 30
0.0
 11
339.9948150367011
 21
17.91346151999999
 31
0.0
  0
LINE
  5
187
330
1F
100
AcDbEntity
  8
GR1_01
  6
Continuous
 62
     7
370
    25
100
AcDbLine
 10
338.8018997861325
 20
16.79125694755009
 30
0.0
 11
339.9241043585824
 21
17.91346152000002
 31
0.0
  0
LINE
  5
188
330
1F
100
AcDbEntity
  8
GR1_01
  6
Continuous
 62
     7
370
    25
100
AcDbLine
 10
338.8018997861325
 20
16.86196762566874
 30
0.0
 11
339.8533936804638
 21
17.91346152
 31
0.0
  0
LINE
  5
189
330
1F
100
AcDbEntity
  8
GR1_01
  6
Continuous
 62
     7
370
    25
100
AcDbLine
 10
338.8018997861325
 20
16.9326783037874
 30
0.0
 11
339.7826830023452
 21
17.91346152
 31
0.0
  0
LINE
  5
18A
330
1F
100
AcDbEntity
  8
GR1_01
  6
Continuous
 62
     7
370
    25
100
AcDbLine
 10
338.8018997861325
 20
17.00338898190603
 30
0.0
 11
339.7119723242265
 21
17.91346151999999
 31
0.0
  0
LINE
  5
18B
330
1F
100
AcDbEntity
  8
GR1_01
  6
Continuous
 62
     7
370
    25
100
AcDbLine
 10
338.8018997861325
 20
17.07409966002469
 30
0.0
 11
339.6412616461078
 21
17.91346152000002
 31
0.0
  0
LINE
  5
18C
330
1F
100
AcDbEntity
  8
GR1_01
  6
Continuous
 62
     7
370
    25
100
AcDbLine
 10
338.8018997861325
 20
17.14481033814335
 30
0.0
 11
339.5705509679892
 21
17.91346152
 31
0.0
  0
LINE
  5
18D
330
1F
100
AcDbEntity
  8
GR1_01
  6
Continuous
 62
     7
370
    25
100
AcDbLine
 10
338.8018997861325
 20
17.21552101626201
 30
0.0
 11
339.4998402898705
 21
17.91346152
 31
0.0
  0
LINE
  5
18E
330
1F
100
AcDbEntity
  8
GR1_01
  6
Continuous
 62
     7
370
    25
100
AcDbLine
 10
338.8018997861325
 20
17.28623169438064
 30
0.0
 11
339.4291296117519
 21
17.91346151999999
 31
0.0
  0
LINE
  5
18F
330
1F
100
AcDbEntity
  8
GR1_01
  6
Continuous
 62
     7
370
    25
100
AcDbLine
 10
338.8018997861325
 20
17.35694237249929
 30
0.0
 11
339.3584189336332
 21
17.91346152000002
 31
0.0
  0
LINE
  5
190
330
1F
100
AcDbEntity
  8
GR1_01
  6
Continuous
 62
     7
370
    25
100
AcDbLine
 10
338.8018997861325
 20
17.42765305061795
 30
0.0
 11
339.2877082555145
 21
17.91346152
 31
0.0
  0
LINE
  5
191
330
1F
100
AcDbEntity
  8
GR1_01
  6
Continuous
 62
     7
370
    25
100
AcDbLine
 10
338.8018997861325
 20
17.49836372873661
 30
0.0
 11
339.2169975773959
 21
17.91346152
 31
0.0
  0
LINE
  5
192
330
1F
100
AcDbEntity
  8
GR1_01
  6
Continuous
 62
     7
370
    25
100
AcDbLine
 10
338.8018997861325
 20
17.56907440685524
 30
0.0
 11
339.1462868992772
 21
17.91346151999999
 31
0.0
  0
LINE
  5
193
330
1F
100
AcDbEntity
  8
GR1_01
  6
Continuous
 62
     7
370
    25
100
AcDbLine
 10
338.8018997861325
 20
17.6397850849739
 30
0.0
 11
339.0755762211586
 21
17.91346152000002
 31
0.0
  0
LINE
  5
194
330
1F
100
AcDbEntity
  8
GR1_01
  6
Continuous
 62
     7
370
    25
100
AcDbLine
 10
338.8018997861325
 20
17.71049576309256
 30
0.0
 11
339.00486554304
 21
17.91346152
 31
0.0
  0
LINE
  5
195
330
1F
100
AcDbEntity
  8
GR1_01
  6
Continuous
 62
     7
370
    25
100
AcDbLine
 10
338.8018997861325
 20
17.78120644121121
 30
0.0
 11
338.9341548649213
 21
17.91346152
 31
0.0
  0
LINE
  5
196
330
1F
100
AcDbEntity
  8
GR1_01
  6
Continuous
 62
     7
370
    25
100
AcDbLine
 10
338.8018997861325
 20
17.85191711932984
 30
0.0
 11
338.8634441868027
 21
17.91346151999999
 31
0.0
  0
LINE
  5
197
330
1F
100
AcDbEntity
  8
GR1_01
  6
Continuous
 62
     7
370
    25
100
AcDbLine
 10
339.7930906424304
 20
11.91346151999999
 30
0.0
 11
340.8696105942814
 21
12.98998147185103
 31
0.0
  0
LINE
  5
198
330
1F
100
AcDbEntity
  8
GR1_01
  6
Continuous
 62
     7
370
    25
100
AcDbLine
 10
341.6859567642815
 20
13.80632764185104
 30
0.0
 11
342.0142445024304
 21
14.13461538000002
 31
0.0
  0
LINE
  5
199
330
1F
100
AcDbEntity
  8
GR1_01
  6
Continuous
 62
     7
370
    25
100
AcDbLine
 10
342.8796291224305
 20
15.00000000000002
 30
0.0
 11
343.2257829224304
 21
15.34615379999999
 31
0.0
  0
LINE
  5
19A
330
1F
100
AcDbEntity
  8
GR1_01
  6
Continuous
 62
     7
370
    25
100
AcDbLine
 10
343.725379810467
 20
15.84575068803651
 30
0.0
 11
344.8018997861325
 21
16.92227066370207
 31
0.0
  0
LINE
  5
19B
330
1F
100
AcDbEntity
  8
GR1_01
  6
Continuous
 62
     7
370
    25
100
AcDbLine
 10
339.8638013205491
 20
11.91346152
 30
0.0
 11
340.9049659333408
 21
12.95462613279171
 31
0.0
  0
LINE
  5
19C
330
1F
100
AcDbEntity
  8
GR1_01
  6
Continuous
 62
     7
370
    25
100
AcDbLine
 10
341.7213121033408
 20
13.77097230279172
 30
0.0
 11
342.0849551805491
 21
14.13461538
 31
0.0
  0
LINE
  5
19D
330
1F
100
AcDbEntity
  8
GR1_01
  6
Continuous
 62
     7
370
    25
100
AcDbLine
 10
342.950339800549
 20
15.0
 30
0.0
 11
343.2964936005491
 21
15.3461538
 31
0.0
  0
LINE
  5
19E
330
1F
100
AcDbEntity
  8
GR1_01
  6
Continuous
 62
     7
370
    25
100
AcDbLine
 10
343.7607351490885
 20
15.81039534853945
 30
0.0
 11
344.8018997861325
 21
16.85155998558342
 31
0.0
  0
LINE
  5
19F
330
1F
100
AcDbEntity
  8
GR1_01
  6
Continuous
 62
     7
370
    25
100
AcDbLine
 10
339.9345119986677
 20
11.91346151999999
 30
0.0
 11
340.9403212724001
 21
12.91927079373237
 31
0.0
  0
LINE
  5
1A0
330
1F
100
AcDbEntity
  8
GR1_01
  6
Continuous
 62
     7
370
    25
100
AcDbLine
 10
341.7566674424002
 20
13.73561696373239
 30
0.0
 11
342.1556658586677
 21
14.13461537999999
 31
0.0
  0
LINE
  5
1A1
330
1F
100
AcDbEntity
  8
GR1_01
  6
Continuous
 62
     7
370
    25
100
AcDbLine
 10
343.0210504786677
 20
14.99999999999999
 30
0.0
 11
343.3672042786677
 21
15.34615379999997
 31
0.0
  0
LINE
  5
1A2
330
1F
100
AcDbEntity
  8
GR1_01
  6
Continuous
 62
     7
370
    25
100
AcDbLine
 10
343.7960904877101
 20
15.77504000904237
 30
0.0
 11
344.8018997861325
 21
16.78084930746475
 31
0.0
  0
LINE
  5
1A3
330
1F
100
AcDbEntity
  8
GR1_01
  6
Continuous
 62
     7
370
    25
100
AcDbLine
 10
340.0052226767864
 20
11.91346152
 30
0.0
 11
340.9756766114594
 21
12.88391545467305
 31
0.0
  0
LINE
  5
1A4
330
1F
100
AcDbEntity
  8
GR1_01
  6
Continuous
 62
     7
370
    25
100
AcDbLine
 10
341.7920227814595
 20
13.70026162467306
 30
0.0
 11
342.2263765367864
 21
14.13461538
 31
0.0
  0
LINE
  5
1A5
330
1F
100
AcDbEntity
  8
GR1_01
  6
Continuous
 62
     7
370
    25
100
AcDbLine
 10
343.0917611567864
 20
15.0
 30
0.0
 11
343.4379149567864
 21
15.34615379999997
 31
0.0
  0
LINE
  5
1A6
330
1F
100
AcDbEntity
  8
GR1_01
  6
Continuous
 62
     7
370
    25
100
AcDbLine
 10
343.8314458263317
 20
15.73968466954534
 30
0.0
 11
344.8018997861325
 21
16.71013862934611
 31
0.0
  0
LINE
  5
1A7
330
1F
100
AcDbEntity
  8
GR1_01
  6
Continuous
 62
     7
370
    25
100
AcDbLine
 10
340.075933354905
 20
11.91346151999999
 30
0.0
 11
341.0110319505188
 21
12.84856011561373
 31
0.0
  0
LINE
  5
1A8
330
1F
100
AcDbEntity
  8
GR1_01
  6
Continuous
 62
     7
370
    25
100
AcDbLine
 10
343.162471834905
 20
14.99999999999999
 30
0.0
 11
343.508625634905
 21
15.34615379999999
 31
0.0
  0
LINE
  5
1A9
330
1F
100
AcDbEntity
  8
GR1_01
  6
Continuous
 62
     7
370
    25
100
AcDbLine
 10
343.8668011649533
 20
15.70432933004829
 30
0.0
 11
344.8018997861325
 21
16.63942795122746
 31
0.0
  0
LINE
  5
1AA
330
1F
100
AcDbEntity
  8
GR1_01
  6
Continuous
 62
     7
370
    25
100
AcDbLine
 10
340.1466440330237
 20
11.91346152
 30
0.0
 11
341.0463872895781
 21
12.8132047765544
 31
0.0
  0
LINE
  5
1AB
330
1F
100
AcDbEntity
  8
GR1_01
  6
Continuous
 62
     7
370
    25
100
AcDbLine
 10
343.2331825130237
 20
15.0
 30
0.0
 11
343.5793363130236
 21
15.3461538
 31
0.0
  0
LINE
  5
1AC
330
1F
100
AcDbEntity
  8
GR1_01
  6
Continuous
 62
     7
370
    25
100
AcDbLine
 10
343.9021565035749
 20
15.66897399055123
 30
0.0
 11
344.8018997861325
 21
16.56871727310882
 31
0.0
  0
LINE
  5
1AD
330
1F
100
AcDbEntity
  8
GR1_01
  6
Continuous
 62
     7
370
    25
100
AcDbLine
 10
340.2173547111423
 20
11.91346151999999
 30
0.0
 11
341.0817426286374
 21
12.77784943749507
 31
0.0
  0
LINE
  5
1AE
330
1F
100
AcDbEntity
  8
GR1_01
  6
Continuous
 62
     7
370
    25
100
AcDbLine
 10
343.3038931911423
 20
14.99999999999999
 30
0.0
 11
343.6500469911423
 21
15.34615379999997
 31
0.0
  0
LINE
  5
1AF
330
1F
100
AcDbEntity
  8
GR1_01
  6
Continuous
 62
     7
370
    25
100
AcDbLine
 10
343.9375118421965
 20
15.63361865105415
 30
0.0
 11
344.8018997861325
 21
16.49800659499016
 31
0.0
  0
LINE
  5
1B0
330
1F
100
AcDbEntity
  8
GR1_01
  6
Continuous
 62
     7
370
    25
100
AcDbLine
 10
340.288065389261
 20
11.91346151999999
 30
0.0
 11
341.1170979676967
 21
12.74249409843576
 31
0.0
  0
LINE
  5
1B1
330
1F
100
AcDbEntity
  8
GR1_01
  6
Continuous
 62
     7
370
    25
100
AcDbLine
 10
343.374603869261
 20
14.99999999999999
 30
0.0
 11
343.7207576692609
 21
15.34615379999997
 31
0.0
  0
LINE
  5
1B2
330
1F
100
AcDbEntity
  8
GR1_01
  6
Continuous
 62
     7
370
    25
100
AcDbLine
 10
343.9728671808181
 20
15.59826331155709
 30
0.0
 11
344.8018997861325
 21
16.4272959168715
 31
0.0
  0
LINE
  5
1B3
330
1F
100
AcDbEntity
  8
GR1_01
  6
Continuous
 62
     7
370
    25
100
AcDbLine
 10
340.3587760673796
 20
11.91346151999999
 30
0.0
 11
341.1524533067561
 21
12.70713875937644
 31
0.0
  0
LINE
  5
1B4
330
1F
100
AcDbEntity
  8
GR1_01
  6
Continuous
 62
     7
370
    25
100
AcDbLine
 10
343.4453145473796
 20
14.99999999999999
 30
0.0
 11
343.7914683473796
 21
15.34615379999999
 31
0.0
  0
LINE
  5
1B5
330
1F
100
AcDbEntity
  8
GR1_01
  6
Continuous
 62
     7
370
    25
100
AcDbLine
 10
344.0082225194396
 20
15.56290797206004
 30
0.0
 11
344.8018997861325
 21
16.35658523875286
 31
0.0
  0
LINE
  5
1B6
330
1F
100
AcDbEntity
  8
GR1_01
  6
Continuous
 62
     7
370
    25
100
AcDbLine
 10
340.4294867454983
 20
11.91346152
 30
0.0
 11
341.1878086458154
 21
12.67178342031712
 31
0.0
  0
LINE
  5
1B7
330
1F
100
AcDbEntity
  8
GR1_01
  6
Continuous
 62
     7
370
    25
100
AcDbLine
 10
343.5160252254983
 20
15.0
 30
0.0
 11
343.8621790254983
 21
15.34615379999999
 31
0.0
  0
LINE
  5
1B8
330
1F
100
AcDbEntity
  8
GR1_01
  6
Continuous
 62
     7
370
    25
100
AcDbLine
 10
344.0435778580613
 20
15.52755263256299
 30
0.0
 11
344.8018997861325
 21
16.28587456063423
 31
0.0
  0
LINE
  5
1B9
330
1F
100
AcDbEntity
  8
GR1_01
  6
Continuous
 62
     7
370
    25
100
AcDbLine
 10
340.500197423617
 20
11.91346151999999
 30
0.0
 11
341.2231639848748
 21
12.63642808125779
 31
0.0
  0
LINE
  5
1BA
330
1F
100
AcDbEntity
  8
GR1_01
  6
Continuous
 62
     7
370
    25
100
AcDbLine
 10
343.586735903617
 20
14.99999999999999
 30
0.0
 11
343.9328897036169
 21
15.34615379999999
 31
0.0
  0
LINE
  5
1BB
330
1F
100
AcDbEntity
  8
GR1_01
  6
Continuous
 62
     7
370
    25
100
AcDbLine
 10
344.0789331966829
 20
15.49219729306593
 30
0.0
 11
344.8018997861325
 21
16.21516388251557
 31
0.0
  0
LINE
  5
1BC
330
1F
100
AcDbEntity
  8
GR1_01
  6
Continuous
 62
     7
370
    25
100
AcDbLine
 10
340.5709081017356
 20
11.91346151999999
 30
0.0
 11
341.2585193239341
 21
12.60107274219846
 31
0.0
  0
LINE
  5
1BD
330
1F
100
AcDbEntity
  8
GR1_01
  6
Continuous
 62
     7
370
    25
100
AcDbLine
 10
343.6574465817356
 20
14.99999999999999
 30
0.0
 11
344.0036003817356
 21
15.34615379999997
 31
0.0
  0
LINE
  5
1BE
330
1F
100
AcDbEntity
  8
GR1_01
  6
Continuous
 62
     7
370
    25
100
AcDbLine
 10
344.1142885353045
 20
15.45684195356886
 30
0.0
 11
344.8018997861325
 21
16.1444532043969
 31
0.0
  0
LINE
  5
1BF
330
1F
100
AcDbEntity
  8
GR1_01
  6
Continuous
 62
     7
370
    25
100
AcDbLine
 10
340.6416187798542
 20
11.91346151999999
 30
0.0
 11
341.2938746629934
 21
12.56571740313914
 31
0.0
  0
LINE
  5
1C0
330
1F
100
AcDbEntity
  8
GR1_01
  6
Continuous
 62
     7
370
    25
100
AcDbLine
 10
343.7281572598542
 20
14.99999999999999
 30
0.0
 11
344.0743110598542
 21
15.34615379999999
 31
0.0
  0
LINE
  5
1C1
330
1F
100
AcDbEntity
  8
GR1_01
  6
Continuous
 62
     7
370
    25
100
AcDbLine
 10
344.149643873926
 20
15.4214866140718
 30
0.0
 11
344.8018997861325
 21
16.07374252627826
 31
0.0
  0
LINE
  5
1C2
330
1F
100
AcDbEntity
  8
GR1_01
  6
Continuous
 62
     7
370
    25
100
AcDbLine
 10
340.7123294579729
 20
11.91346152
 30
0.0
 11
341.3292300020527
 21
12.53036206407981
 31
0.0
  0
LINE
  5
1C3
330
1F
100
AcDbEntity
  8
GR1_01
  6
Continuous
 62
     7
370
    25
100
AcDbLine
 10
343.7988679379729
 20
15.0
 30
0.0
 11
344.1450217379729
 21
15.34615379999999
 31
0.0
  0
LINE
  5
1C4
330
1F
100
AcDbEntity
  8
GR1_01
  6
Continuous
 62
     7
370
    25
100
AcDbLine
 10
344.1849992125476
 20
15.38613127457474
 30
0.0
 11
344.8018997861325
 21
16.00303184815963
 31
0.0
  0
LINE
  5
1C5
330
1F
100
AcDbEntity
  8
GR1_01
  6
Continuous
 62
     7
370
    25
100
AcDbLine
 10
340.7830401360915
 20
11.91346151999999
 30
0.0
 11
341.364585341112
 21
12.49500672502049
 31
0.0
  0
LINE
  5
1C6
330
1F
100
AcDbEntity
  8
GR1_01
  6
Continuous
 62
     7
370
    25
100
AcDbLine
 10
343.8695786160915
 20
14.99999999999999
 30
0.0
 11
344.2157324160915
 21
15.34615379999999
 31
0.0
  0
LINE
  5
1C7
330
1F
100
AcDbEntity
  8
GR1_01
  6
Continuous
 62
     7
370
    25
100
AcDbLine
 10
344.2203545511692
 20
15.35077593507768
 30
0.0
 11
344.8018997861325
 21
15.93232117004097
 31
0.0
  0
LINE
  5
1C8
330
1F
100
AcDbEntity
  8
GR1_01
  6
Continuous
 62
     7
370
    25
100
AcDbLine
 10
340.8537508142102
 20
11.91346151999999
 30
0.0
 11
341.3999406801714
 21
12.45965138596116
 31
0.0
  0
LINE
  5
1C9
330
1F
100
AcDbEntity
  8
GR1_01
  6
Continuous
 62
     7
370
    25
100
AcDbLine
 10
343.9402892942102
 20
14.99999999999999
 30
0.0
 11
344.8018997861325
 21
15.8616104919223
 31
0.0
  0
LINE
  5
1CA
330
1F
100
AcDbEntity
  8
GR1_01
  6
Continuous
 62
     7
370
    25
100
AcDbLine
 10
340.9244614923288
 20
11.91346151999999
 30
0.0
 11
341.4352960192307
 21
12.42429604690183
 31
0.0
  0
LINE
  5
1CB
330
1F
100
AcDbEntity
  8
GR1_01
  6
Continuous
 62
     7
370
    25
100
AcDbLine
 10
344.0109999723288
 20
14.99999999999999
 30
0.0
 11
344.8018997861325
 21
15.79089981380365
 31
0.0
  0
LINE
  5
1CC
330
1F
100
AcDbEntity
  8
GR1_01
  6
Continuous
 62
     7
370
    25
100
AcDbLine
 10
340.9951721704475
 20
11.91346152
 30
0.0
 11
341.47065135829
 21
12.38894070784251
 31
0.0
  0
LINE
  5
1CD
330
1F
100
AcDbEntity
  8
GR1_01
  6
Continuous
 62
     7
370
    25
100
AcDbLine
 10
344.0817106504475
 20
15.0
 30
0.0
 11
344.8018997861325
 21
15.72018913568502
 31
0.0
  0
LINE
  5
1CE
330
1F
100
AcDbEntity
  8
GR1_01
  6
Continuous
 62
     7
370
    25
100
AcDbLine
 10
341.0658828485661
 20
11.91346151999999
 30
0.0
 11
341.5060066973493
 21
12.35358536878319
 31
0.0
  0
LINE
  5
1CF
330
1F
100
AcDbEntity
  8
GR1_01
  6
Continuous
 62
     7
370
    25
100
AcDbLine
 10
344.1524213285661
 20
14.99999999999999
 30
0.0
 11
344.8018997861325
 21
15.64947845756636
 31
0.0
  0
LINE
  5
1D0
330
1F
100
AcDbEntity
  8
GR1_01
  6
Continuous
 62
     7
370
    25
100
AcDbLine
 10
341.1365935266848
 20
11.91346151999999
 30
0.0
 11
341.5413620364087
 21
12.31823002972385
 31
0.0
  0
LINE
  5
1D1
330
1F
100
AcDbEntity
  8
GR1_01
  6
Continuous
 62
     7
370
    25
100
AcDbLine
 10
344.2231320066848
 20
14.99999999999999
 30
0.0
 11
344.8018997861325
 21
15.57876777944769
 31
0.0
  0
LINE
  5
1D2
330
1F
100
AcDbEntity
  8
GR1_01
  6
Continuous
 62
     7
370
    25
100
AcDbLine
 10
341.2073042048034
 20
11.91346151999999
 30
0.0
 11
341.576717375468
 21
12.28287469066453
 31
0.0
  0
LINE
  5
1D3
330
1F
100
AcDbEntity
  8
GR1_01
  6
Continuous
 62
     7
370
    25
100
AcDbLine
 10
344.2249766861325
 20
14.93113400132905
 30
0.0
 11
344.8018997861325
 21
15.50805710132905
 31
0.0
  0
LINE
  5
1D4
330
1F
100
AcDbEntity
  8
GR1_01
  6
Continuous
 62
     7
370
    25
100
AcDbLine
 10
341.2780148829221
 20
11.91346152
 30
0.0
 11
341.6120727145273
 21
12.24751935160521
 31
0.0
  0
LINE
  5
1D5
330
1F
100
AcDbEntity
  8
GR1_01
  6
Continuous
 62
     7
370
    25
100
AcDbLine
 10
344.2249766861325
 20
14.86042332321039
 30
0.0
 11
344.8018997861325
 21
15.43734642321042
 31
0.0
  0
LINE
  5
1D6
330
1F
100
AcDbEntity
  8
GR1_01
  6
Continuous
 62
     7
370
    25
100
AcDbLine
 10
341.3487255610407
 20
11.91346151999999
 30
0.0
 11
341.6474280535866
 21
12.21216401254589
 31
0.0
  0
LINE
  5
1D7
330
1F
100
AcDbEntity
  8
GR1_01
  6
Continuous
 62
     7
370
    25
100
AcDbLine
 10
344.2249766861325
 20
14.78971264509174
 30
0.0
 11
344.8018997861325
 21
15.36663574509176
 31
0.0
  0
LINE
  5
1D8
330
1F
100
AcDbEntity
  8
GR1_01
  6
Continuous
 62
     7
370
    25
100
AcDbLine
 10
341.4194362391594
 20
11.91346151999999
 30
0.0
 11
341.682783392646
 21
12.17680867348655
 31
0.0
  0
LINE
  5
1D9
330
1F
100
AcDbEntity
  8
GR1_01
  6
Continuous
 62
     7
370
    25
100
AcDbLine
 10
344.2249766861325
 20
14.7190019669731
 30
0.0
 11
344.8018997861325
 21
15.29592506697309
 31
0.0
  0
LINE
  5
1DA
330
1F
100
AcDbEntity
  8
GR1_01
  6
Continuous
 62
     7
370
    25
100
AcDbLine
 10
341.490146917278
 20
11.91346151999999
 30
0.0
 11
341.7181387317053
 21
12.14145333442723
 31
0.0
  0
LINE
  5
1DB
330
1F
100
AcDbEntity
  8
GR1_01
  6
Continuous
 62
     7
370
    25
100
AcDbLine
 10
344.2249766861325
 20
14.64829128885444
 30
0.0
 11
344.8018997861325
 21
15.22521438885444
 31
0.0
  0
LINE
  5
1DC
330
1F
100
AcDbEntity
  8
GR1_01
  6
Continuous
 62
     7
370
    25
100
AcDbLine
 10
341.5608575953967
 20
11.91346152
 30
0.0
 11
341.7534940707646
 21
12.10609799536791
 31
0.0
  0
LINE
  5
1DD
330
1F
100
AcDbEntity
  8
GR1_01
  6
Continuous
 62
     7
370
    25
100
AcDbLine
 10
344.2249766861325
 20
14.57758061073578
 30
0.0
 11
344.8018997861325
 21
15.15450371073581
 31
0.0
  0
LINE
  5
1DE
330
1F
100
AcDbEntity
  8
GR1_01
  6
Continuous
 62
     7
370
    25
100
AcDbLine
 10
341.6315682735153
 20
11.91346151999999
 30
0.0
 11
341.7888494098239
 21
12.07074265630859
 31
0.0
  0
LINE
  5
1DF
330
1F
100
AcDbEntity
  8
GR1_01
  6
Continuous
 62
     7
370
    25
100
AcDbLine
 10
344.2249766861325
 20
14.50686993261714
 30
0.0
 11
344.8018997861325
 21
15.08379303261716
 31
0.0
  0
LINE
  5
1E0
330
1F
100
AcDbEntity
  8
GR1_01
  6
Continuous
 62
     7
370
    25
100
AcDbLine
 10
341.702278951634
 20
11.91346151999999
 30
0.0
 11
343.3595920661325
 21
13.57077463449849
 31
0.0
  0
LINE
  5
1E1
330
1F
100
AcDbEntity
  8
GR1_01
  6
Continuous
 62
     7
370
    25
100
AcDbLine
 10
344.2249766861325
 20
14.4361592544985
 30
0.0
 11
344.8018997861325
 21
15.01308235449848
 31
0.0
  0
LINE
  5
1E2
330
1F
100
AcDbEntity
  8
GR1_01
  6
Continuous
 62
     7
370
    25
100
AcDbLine
 10
341.7729896297527
 20
11.91346151999999
 30
0.0
 11
343.3595920661325
 21
13.50006395637985
 31
0.0
  0
LINE
  5
1E3
330
1F
100
AcDbEntity
  8
GR1_01
  6
Continuous
 62
     7
370
    25
100
AcDbLine
 10
344.2249766861325
 20
14.36544857637984
 30
0.0
 11
344.8018997861325
 21
14.94237167637984
 31
0.0
  0
LINE
  5
1E4
330
1F
100
AcDbEntity
  8
GR1_01
  6
Continuous
 62
     7
370
    25
100
AcDbLine
 10
341.8437003078713
 20
11.91346152
 30
0.0
 11
343.3595920661325
 21
13.42935327826119
 31
0.0
  0
LINE
  5
1E5
330
1F
100
AcDbEntity
  8
GR1_01
  6
Continuous
 62
     7
370
    25
100
AcDbLine
 10
344.2249766861325
 20
14.29473789826118
 30
0.0
 11
344.8018997861325
 21
14.87166099826121
 31
0.0
  0
LINE
  5
1E6
330
1F
100
AcDbEntity
  8
GR1_01
  6
Continuous
 62
     7
370
    25
100
AcDbLine
 10
341.9144109859899
 20
11.91346152000002
 30
0.0
 11
343.3595920661325
 21
13.35864260014256
 31
0.0
  0
LINE
  5
1E7
330
1F
100
AcDbEntity
  8
GR1_01
  6
Continuous
 62
     7
370
    25
100
AcDbLine
 10
344.2249766861325
 20
14.22402722014253
 30
0.0
 11
344.8018997861325
 21
14.80095032014255
 31
0.0
  0
LINE
  5
1E8
330
1F
100
AcDbEntity
  8
GR1_01
  6
Continuous
 62
     7
370
    25
100
AcDbLine
 10
341.9851216641086
 20
11.91346151999999
 30
0.0
 11
343.3595920661325
 21
13.28793192202389
 31
0.0
  0
LINE
  5
1E9
330
1F
100
AcDbEntity
  8
GR1_01
  6
Continuous
 62
     7
370
    25
100
AcDbLine
 10
344.2249766861325
 20
14.15331654202389
 30
0.0
 11
344.8018997861325
 21
14.73023964202388
 31
0.0
  0
LINE
  5
1EA
330
1F
100
AcDbEntity
  8
GR1_01
  6
Continuous
 62
     7
370
    25
100
AcDbLine
 10
342.0558323422273
 20
11.91346152
 30
0.0
 11
343.3595920661325
 21
13.21722124390525
 31
0.0
  0
LINE
  5
1EB
330
1F
100
AcDbEntity
  8
GR1_01
  6
Continuous
 62
     7
370
    25
100
AcDbLine
 10
344.2249766861325
 20
14.08260586390523
 30
0.0
 11
344.8018997861325
 21
14.65952896390523
 31
0.0
  0
LINE
  5
1EC
330
1F
100
AcDbEntity
  8
GR1_01
  6
Continuous
 62
     7
370
    25
100
AcDbLine
 10
342.1265430203459
 20
11.91346152
 30
0.0
 11
343.3595920661325
 21
13.14651056578659
 31
0.0
  0
LINE
  5
1ED
330
1F
100
AcDbEntity
  8
GR1_01
  6
Continuous
 62
     7
370
    25
100
AcDbLine
 10
344.2249766861325
 20
14.01189518578657
 30
0.0
 11
344.8018997861325
 21
14.5888182857866
 31
0.0
  0
LINE
  5
1EE
330
1F
100
AcDbEntity
  8
GR1_01
  6
Continuous
 62
     7
370
    25
100
AcDbLine
 10
342.1972536984646
 20
11.91346152000002
 30
0.0
 11
343.3595920661325
 21
13.07579988766796
 31
0.0
  0
LINE
  5
1EF
330
1F
100
AcDbEntity
  8
GR1_01
  6
Continuous
 62
     7
370
    25
100
AcDbLine
 10
344.2249766861325
 20
13.94118450766793
 30
0.0
 11
344.8018997861325
 21
14.51810760766795
 31
0.0
  0
LINE
  5
1F0
330
1F
100
AcDbEntity
  8
GR1_01
  6
Continuous
 62
     7
370
    25
100
AcDbLine
 10
342.2679643765832
 20
11.91346152
 30
0.0
 11
343.3595920661325
 21
13.0050892095493
 31
0.0
  0
LINE
  5
1F1
330
1F
100
AcDbEntity
  8
GR1_01
  6
Continuous
 62
     7
370
    25
100
AcDbLine
 10
344.2249766861325
 20
13.8704738295493
 30
0.0
 11
344.8018997861325
 21
14.44739692954929
 31
0.0
  0
LINE
  5
1F2
330
1F
100
AcDbEntity
  8
GR1_01
  6
Continuous
 62
     7
370
    25
100
AcDbLine
 10
342.3386750547019
 20
11.91346152
 30
0.0
 11
343.4059827747019
 21
12.98076924
 31
0.0
  0
LINE
  5
1F3
330
1F
100
AcDbEntity
  8
GR1_01
  6
Continuous
 62
     7
370
    25
100
AcDbLine
 10
344.2249766861325
 20
13.79976315143063
 30
0.0
 11
344.8018997861325
 21
14.37668625143063
 31
0.0
  0
LINE
  5
1F4
330
1F
100
AcDbEntity
  8
GR1_01
  6
Continuous
 62
     7
370
    25
100
AcDbLine
 10
342.4093857328205
 20
11.91346152
 30
0.0
 11
343.4766934528205
 21
12.98076924
 31
0.0
  0
LINE
  5
1F5
330
1F
100
AcDbEntity
  8
GR1_01
  6
Continuous
 62
     7
370
    25
100
AcDbLine
 10
344.2249766861325
 20
13.72905247331197
 30
0.0
 11
344.8018997861325
 21
14.305975573312
 31
0.0
  0
LINE
  5
1F6
330
1F
100
AcDbEntity
  8
GR1_01
  6
Continuous
 62
     7
370
    25
100
AcDbLine
 10
342.4800964109392
 20
11.91346152000002
 30
0.0
 11
343.5474041309392
 21
12.98076924000002
 31
0.0
  0
LINE
  5
1F7
330
1F
100
AcDbEntity
  8
GR1_01
  6
Continuous
 62
     7
370
    25
100
AcDbLine
 10
344.2249766861325
 20
13.65834179519333
 30
0.0
 11
344.8018997861325
 21
14.23526489519334
 31
0.0
  0
LINE
  5
1F8
330
1F
100
AcDbEntity
  8
GR1_01
  6
Continuous
 62
     7
370
    25
100
AcDbLine
 10
342.5508070890578
 20
11.91346152
 30
0.0
 11
343.6181148090578
 21
12.98076924
 31
0.0
  0
LINE
  5
1F9
330
1F
100
AcDbEntity
  8
GR1_01
  6
Continuous
 62
     7
370
    25
100
AcDbLine
 10
344.2249766861325
 20
13.5876311170747
 30
0.0
 11
344.8018997861325
 21
14.16455421707468
 31
0.0
  0
LINE
  5
1FA
330
1F
100
AcDbEntity
  8
GR1_01
  6
Continuous
 62
     7
370
    25
100
AcDbLine
 10
342.6215177671764
 20
11.91346152
 30
0.0
 11
343.6888254871765
 21
12.98076924
 31
0.0
  0
LINE
  5
1FB
330
1F
100
AcDbEntity
  8
GR1_01
  6
Continuous
 62
     7
370
    25
100
AcDbLine
 10
344.2249766861325
 20
13.51692043895602
 30
0.0
 11
344.8018997861325
 21
14.09384353895603
 31
0.0
  0
LINE
  5
1FC
330
1F
100
AcDbEntity
  8
GR1_01
  6
Continuous
 62
     7
370
    25
100
AcDbLine
 10
342.6922284452951
 20
11.91346152
 30
0.0
 11
343.7595361652951
 21
12.98076924
 31
0.0
  0
LINE
  5
1FD
330
1F
100
AcDbEntity
  8
GR1_01
  6
Continuous
 62
     7
370
    25
100
AcDbLine
 10
344.2249766861325
 20
13.44620976083737
 30
0.0
 11
344.8018997861325
 21
14.0231328608374
 31
0.0
  0
LINE
  5
1FE
330
1F
100
AcDbEntity
  8
GR1_01
  6
Continuous
 62
     7
370
    25
100
AcDbLine
 10
342.7629391234138
 20
11.91346152
 30
0.0
 11
343.8302468434138
 21
12.98076923999999
 31
0.0
  0
LINE
  5
1FF
330
1F
100
AcDbEntity
  8
GR1_01
  6
Continuous
 62
     7
370
    25
100
AcDbLine
 10
344.2249766861325
 20
13.37549908271872
 30
0.0
 11
344.8018997861325
 21
13.95242218271874
 31
0.0
  0
LINE
  5
200
330
1F
100
AcDbEntity
  8
GR1_01
  6
Continuous
 62
     7
370
    25
100
AcDbLine
 10
342.8336498015324
 20
11.91346152
 30
0.0
 11
343.9009575215324
 21
12.98076924
 31
0.0
  0
LINE
  5
201
330
1F
100
AcDbEntity
  8
GR1_01
  6
Continuous
 62
     7
370
    25
100
AcDbLine
 10
344.2249766861325
 20
13.30478840460009
 30
0.0
 11
344.8018997861325
 21
13.88171150460008
 31
0.0
  0
LINE
  5
202
330
1F
100
AcDbEntity
  8
GR1_01
  6
Continuous
 62
     7
370
    25
100
AcDbLine
 10
342.9043604796511
 20
11.91346152
 30
0.0
 11
343.971668199651
 21
12.98076923999999
 31
0.0
  0
LINE
  5
203
330
1F
100
AcDbEntity
  8
GR1_01
  6
Continuous
 62
     7
370
    25
100
AcDbLine
 10
344.2249766861325
 20
13.23407772648142
 30
0.0
 11
344.8018997861325
 21
13.81100082648142
 31
0.0
  0
LINE
  5
204
330
1F
100
AcDbEntity
  8
GR1_01
  6
Continuous
 62
     7
370
    25
100
AcDbLine
 10
342.9750711577697
 20
11.91346152
 30
0.0
 11
344.0423788777697
 21
12.98076924
 31
0.0
  0
LINE
  5
205
330
1F
100
AcDbEntity
  8
GR1_01
  6
Continuous
 62
     7
370
    25
100
AcDbLine
 10
344.2249766861325
 20
13.16336704836276
 30
0.0
 11
344.8018997861325
 21
13.74029014836279
 31
0.0
  0
LINE
  5
206
330
1F
100
AcDbEntity
  8
GR1_01
  6
Continuous
 62
     7
370
    25
100
AcDbLine
 10
343.0457818358884
 20
11.91346152
 30
0.0
 11
344.1130895558883
 21
12.98076923999999
 31
0.0
  0
LINE
  5
207
330
1F
100
AcDbEntity
  8
GR1_01
  6
Continuous
 62
     7
370
    25
100
AcDbLine
 10
344.2249766861325
 20
13.09265637024412
 30
0.0
 11
344.8018997861325
 21
13.66957947024413
 31
0.0
  0
LINE
  5
208
330
1F
100
AcDbEntity
  8
GR1_01
  6
Continuous
 62
     7
370
    25
100
AcDbLine
 10
343.116492514007
 20
11.91346152
 30
0.0
 11
344.183800234007
 21
12.98076924
 31
0.0
  0
LINE
  5
209
330
1F
100
AcDbEntity
  8
GR1_01
  6
Continuous
 62
     7
370
    25
100
AcDbLine
 10
344.2249766861325
 20
13.02194569212549
 30
0.0
 11
344.8018997861325
 21
13.59886879212548
 31
0.0
  0
LINE
  5
20A
330
1F
100
AcDbEntity
  8
GR1_01
  6
Continuous
 62
     7
370
    25
100
AcDbLine
 10
343.1872031921257
 20
11.91346152
 30
0.0
 11
344.8018997861325
 21
13.52815811400683
 31
0.0
  0
LINE
  5
20B
330
1F
100
AcDbEntity
  8
GR1_01
  6
Continuous
 62
     7
370
    25
100
AcDbLine
 10
343.2579138702444
 20
11.91346151999999
 30
0.0
 11
344.8018997861325
 21
13.45744743588819
 31
0.0
  0
LINE
  5
20C
330
1F
100
AcDbEntity
  8
GR1_01
  6
Continuous
 62
     7
370
    25
100
AcDbLine
 10
343.328624548363
 20
11.91346152
 30
0.0
 11
344.8018997861325
 21
13.38673675776953
 31
0.0
  0
LINE
  5
20D
330
1F
100
AcDbEntity
  8
GR1_01
  6
Continuous
 62
     7
370
    25
100
AcDbLine
 10
343.3993352264816
 20
11.91346152
 30
0.0
 11
344.8018997861325
 21
13.31602607965087
 31
0.0
  0
LINE
  5
20E
330
1F
100
AcDbEntity
  8
GR1_01
  6
Continuous
 62
     7
370
    25
100
AcDbLine
 10
343.4700459046003
 20
11.91346152
 30
0.0
 11
344.8018997861325
 21
13.24531540153223
 31
0.0
  0
LINE
  5
20F
330
1F
100
AcDbEntity
  8
GR1_01
  6
Continuous
 62
     7
370
    25
100
AcDbLine
 10
343.5407565827189
 20
11.91346151999999
 30
0.0
 11
344.8018997861325
 21
13.17460472341358
 31
0.0
  0
LINE
  5
210
330
1F
100
AcDbEntity
  8
GR1_01
  6
Continuous
 62
     7
370
    25
100
AcDbLine
 10
343.6114672608376
 20
11.91346152
 30
0.0
 11
344.8018997861325
 21
13.10389404529493
 31
0.0
  0
LINE
  5
211
330
1F
100
AcDbEntity
  8
GR1_01
  6
Continuous
 62
     7
370
    25
100
AcDbLine
 10
343.6821779389562
 20
11.91346152
 30
0.0
 11
344.8018997861325
 21
13.03318336717627
 31
0.0
  0
LINE
  5
212
330
1F
100
AcDbEntity
  8
GR1_01
  6
Continuous
 62
     7
370
    25
100
AcDbLine
 10
343.7528886170749
 20
11.91346152000002
 30
0.0
 11
344.8018997861325
 21
12.96247268905764
 31
0.0
  0
LINE
  5
213
330
1F
100
AcDbEntity
  8
GR1_01
  6
Continuous
 62
     7
370
    25
100
AcDbLine
 10
343.8235992951935
 20
11.91346151999999
 30
0.0
 11
344.8018997861325
 21
12.89176201093898
 31
0.0
  0
LINE
  5
214
330
1F
100
AcDbEntity
  8
GR1_01
  6
Continuous
 62
     7
370
    25
100
AcDbLine
 10
343.8943099733121
 20
11.91346152
 30
0.0
 11
344.8018997861325
 21
12.82105133282032
 31
0.0
  0
LINE
  5
215
330
1F
100
AcDbEntity
  8
GR1_01
  6
Continuous
 62
     7
370
    25
100
AcDbLine
 10
343.9650206514308
 20
11.91346152
 30
0.0
 11
344.8018997861325
 21
12.75034065470166
 31
0.0
  0
LINE
  5
216
330
1F
100
AcDbEntity
  8
GR1_01
  6
Continuous
 62
     7
370
    25
100
AcDbLine
 10
344.0357313295495
 20
11.91346152000002
 30
0.0
 11
344.8018997861325
 21
12.67962997658303
 31
0.0
  0
LINE
  5
217
330
1F
100
AcDbEntity
  8
GR1_01
  6
Continuous
 62
     7
370
    25
100
AcDbLine
 10
344.1064420076681
 20
11.91346151999999
 30
0.0
 11
344.8018997861325
 21
12.60891929846438
 31
0.0
  0
LINE
  5
218
330
1F
100
AcDbEntity
  8
GR1_01
  6
Continuous
 62
     7
370
    25
100
AcDbLine
 10
344.1771526857868
 20
11.91346152
 30
0.0
 11
344.8018997861325
 21
12.53820862034572
 31
0.0
  0
LINE
  5
219
330
1F
100
AcDbEntity
  8
GR1_01
  6
Continuous
 62
     7
370
    25
100
AcDbLine
 10
344.2478633639054
 20
11.91346152
 30
0.0
 11
344.8018997861325
 21
12.46749794222706
 31
0.0
  0
LINE
  5
21A
330
1F
100
AcDbEntity
  8
GR1_01
  6
Continuous
 62
     7
370
    25
100
AcDbLine
 10
344.3185740420241
 20
11.91346152000002
 30
0.0
 11
344.8018997861325
 21
12.39678726410843
 31
0.0
  0
LINE
  5
21B
330
1F
100
AcDbEntity
  8
GR1_01
  6
Continuous
 62
     7
370
    25
100
AcDbLine
 10
344.3892847201427
 20
11.91346151999999
 30
0.0
 11
344.8018997861325
 21
12.32607658598977
 31
0.0
  0
LINE
  5
21C
330
1F
100
AcDbEntity
  8
GR1_01
  6
Continuous
 62
     7
370
    25
100
AcDbLine
 10
344.4599953982614
 20
11.91346152
 30
0.0
 11
344.8018997861325
 21
12.25536590787111
 31
0.0
  0
LINE
  5
21D
330
1F
100
AcDbEntity
  8
GR1_01
  6
Continuous
 62
     7
370
    25
100
AcDbLine
 10
344.5307060763801
 20
11.91346152
 30
0.0
 11
344.8018997861325
 21
12.18465522975245
 31
0.0
  0
LINE
  5
21E
330
1F
100
AcDbEntity
  8
GR1_01
  6
Continuous
 62
     7
370
    25
100
AcDbLine
 10
344.6014167544987
 20
11.91346152000002
 30
0.0
 11
344.8018997861325
 21
12.11394455163382
 31
0.0
  0
LINE
  5
21F
330
1F
100
AcDbEntity
  8
GR1_01
  6
Continuous
 62
     7
370
    25
100
AcDbLine
 10
344.6721274326173
 20
11.91346151999999
 30
0.0
 11
344.8018997861325
 21
12.04323387351517
 31
0.0
  0
LINE
  5
220
330
1F
100
AcDbEntity
  8
GR1_01
  6
Continuous
 62
     7
370
    25
100
AcDbLine
 10
344.742838110736
 20
11.91346152
 30
0.0
 11
344.8018997861325
 21
11.97252319539651
 31
0.0
  0
LINE
  5
221
330
1F
100
AcDbEntity
  8
GR1_01
  6
Continuous
 62
     3
370
    50
100
AcDbLine
 10
145.664926194661
 20
73.60000000000002
 30
0.0
 11
147.964926194661
 21
73.60000000000002
 31
0.0
  0
LINE
  5
222
330
1F
100
AcDbEntity
  8
GR1_01
  6
Continuous
 62
     3
370
    50
100
AcDbLine
 10
147.964926194661
 20
73.60000000000002
 30
0.0
 11
147.964926194661
 21
125.2133013064193
 31
0.0
  0
ARC
  5
223
330
1F
100
AcDbEntity
  8
GR1_01
  6
Continuous
 62
     3
370
    50
100
AcDbCircle
 10
144.964926194661
 20
125.2133013064193
 30
0.0
 40
3.0
100
AcDbArc
 50
0.0
 51
90.0
  0
LINE
  5
224
330
1F
100
AcDbEntity
  8
GR1_01
  6
Continuous
 62
     3
370
    50
100
AcDbLine
 10
144.964926194661
 20
128.2133013064193
 30
0.0
 11
114.864926194661
 21
128.2133013064193
 31
0.0
  0
ARC
  5
225
330
1F
100
AcDbEntity
  8
GR1_01
  6
Continuous
 62
     3
370
    50
100
AcDbCircle
 10
114.864926194661
 20
125.2133013064193
 30
0.0
 40
3.0
100
AcDbArc
 50
89.99999999999999
 51
180.0
  0
LINE
  5
226
330
1F
100
AcDbEntity
  8
GR1_01
  6
Continuous
 62
     3
370
    50
100
AcDbLine
 10
111.864926194661
 20
125.2133013064193
 30
0.0
 11
111.864926194661
 21
73.60000000000002
 31
0.0
  0
LINE
  5
227
330
1F
100
AcDbEntity
  8
GR1_01
  6
Continuous
 62
     3
370
    50
100
AcDbLine
 10
111.864926194661
 20
73.60000000000002
 30
0.0
 11
114.164926194661
 21
73.60000000000002
 31
0.0
  0
LINE
  5
228
330
1F
100
AcDbEntity
  8
GR1_01
  6
Continuous
 62
     3
370
    50
100
AcDbLine
 10
114.164926194661
 20
73.60000000000002
 30
0.0
 11
114.164926194661
 21
125.4482434744913
 31
0.0
  0
LINE
  5
229
330
1F
100
AcDbEntity
  8
GR1_01
  6
Continuous
 62
     3
370
    50
100
AcDbLine
 10
114.664926194661
 20
125.9482434744913
 30
0.0
 11
145.164926194661
 21
125.9482434744913
 31
0.0
  0
LINE
  5
22A
330
1F
100
AcDbEntity
  8
GR1_01
  6
Continuous
 62
     3
370
    50
100
AcDbLine
 10
145.664926194661
 20
125.4482434744913
 30
0.0
 11
145.664926194661
 21
73.60000000000002
 31
0.0
  0
ARC
  5
22B
330
1F
100
AcDbEntity
  8
GR1_01
  6
Continuous
 62
     3
370
    50
100
AcDbCircle
 10
106.8721191179104
 20
108.1404872845815
 30
0.0
 40
47.92796886983788
100
AcDbArc
 50
335.4430172398204
 51
356.5839057487692
  0
LINE
  5
22C
330
1F
100
AcDbEntity
  8
GR1_01
  6
Continuous
 62
     3
370
    50
100
AcDbLine
 10
154.714926194661
 20
105.2846142123018
 30
0.0
 11
154.714926194661
 21
129.5
 31
0.0
  0
ARC
  5
22D
330
1F
100
AcDbEntity
  8
GR1_01
  6
Continuous
 62
     3
370
    50
100
AcDbCircle
 10
150.714926194661
 20
129.5
 30
0.0
 40
4.0
100
AcDbArc
 50
0.0
 51
90.0
  0
LINE
  5
22E
330
1F
100
AcDbEntity
  8
GR1_01
  6
Continuous
 62
     3
370
    50
100
AcDbLine
 10
150.714926194661
 20
133.5
 30
0.0
 11
109.114926194661
 21
133.5
 31
0.0
  0
ARC
  5
22F
330
1F
100
AcDbEntity
  8
GR1_01
  6
Continuous
 62
     3
370
    50
100
AcDbCircle
 10
109.114926194661
 20
129.5
 30
0.0
 40
4.0
100
AcDbArc
 50
90.0
 51
180.0
  0
LINE
  5
230
330
1F
100
AcDbEntity
  8
GR1_01
  6
Continuous
 62
     3
370
    50
100
AcDbLine
 10
105.114926194661
 20
129.5
 30
0.0
 11
105.114926194661
 21
105.2846142123018
 31
0.0
  0
ARC
  5
231
330
1F
100
AcDbEntity
  8
GR1_01
  6
Continuous
 62
     3
370
    50
100
AcDbCircle
 10
152.9577332714116
 20
108.1404872845815
 30
0.0
 40
47.92796886983788
100
AcDbArc
 50
183.4160942512308
 51
198.9502858511704
  0
ARC
  5
232
330
1F
100
AcDbEntity
  8
GR1_01
  6
Continuous
 62
     3
370
    50
100
AcDbCircle
 10
145.164926194661
 20
125.4482434744913
 30
0.0
 40
0.5
100
AcDbArc
 50
0.0
 51
90.0
  0
LINE
  5
233
330
1F
100
AcDbEntity
  8
GR1_01
  6
Continuous
 62
     3
370
    50
100
AcDbLine
 10
152.464926194661
 20
134.806
 30
0.0
 11
107.364926194661
 21
134.806
 31
0.0
  0
LINE
  5
234
330
1F
100
AcDbEntity
  8
GR1_01
  6
Continuous
 62
     3
370
    50
100
AcDbLine
 10
107.364926194661
 20
134.806
 30
0.0
 11
107.364926194661
 21
138.306
 31
0.0
  0
ARC
  5
235
330
1F
100
AcDbEntity
  8
GR1_01
  6
Continuous
 62
     3
370
    50
100
AcDbCircle
 10
112.263371473489
 20
134.8411430259926
 30
0.0
 40
6.0
100
AcDbArc
 50
96.20431426676518
 51
144.7267755721553
  0
LINE
  5
236
330
1F
100
AcDbEntity
  8
GR1_01
  6
Continuous
 62
     3
370
    50
100
AcDbLine
 10
111.614926194661
 20
140.806
 30
0.0
 11
148.2149261946609
 21
140.806
 31
0.0
  0
ARC
  5
237
330
1F
100
AcDbEntity
  8
GR1_01
  6
Continuous
 62
     3
370
    50
100
AcDbCircle
 10
147.566480915833
 20
134.8411430259926
 30
0.0
 40
6.0
100
AcDbArc
 50
35.27322442784478
 51
83.79568573323478
  0
LINE
  5
238
330
1F
100
AcDbEntity
  8
GR1_01
  6
Continuous
 62
     3
370
    50
100
AcDbLine
 10
152.464926194661
 20
138.306
 30
0.0
 11
152.464926194661
 21
134.806
 31
0.0
  0
LINE
  5
239
330
1F
100
AcDbEntity
  8
GR1_01
  6
Continuous
 62
     3
370
    50
100
AcDbLine
 10
141.414926194661
 20
140.806
 30
0.0
 11
141.414926194661
 21
145.3560000000001
 31
0.0
  0
LINE
  5
23A
330
1F
100
AcDbEntity
  8
GR1_01
  6
Continuous
 62
     3
370
    50
100
AcDbLine
 10
141.414926194661
 20
145.3560000000001
 30
0.0
 11
118.414926194661
 21
145.3560000000001
 31
0.0
  0
LINE
  5
23B
330
1F
100
AcDbEntity
  8
GR1_01
  6
Continuous
 62
     3
370
    50
100
AcDbLine
 10
118.414926194661
 20
145.3560000000001
 30
0.0
 11
118.414926194661
 21
140.806
 31
0.0
  0
LINE
  5
23C
330
1F
100
AcDbEntity
  8
GR1_01
  6
Continuous
 62
     3
370
    50
100
AcDbLine
 10
121.914926194661
 20
145.3560000000001
 30
0.0
 11
121.914926194661
 21
184.3560000000001
 31
0.0
  0
LINE
  5
23D
330
1F
100
AcDbEntity
  8
GR1_01
  6
Continuous
 62
     3
370
    50
100
AcDbLine
 10
121.914926194661
 20
184.3560000000001
 30
0.0
 11
122.914926194661
 21
185.3560000000001
 31
0.0
  0
LINE
  5
23E
330
1F
100
AcDbEntity
  8
GR1_01
  6
Continuous
 62
     3
370
    50
100
AcDbLine
 10
122.914926194661
 20
185.3560000000001
 30
0.0
 11
136.914926194661
 21
185.3560000000001
 31
0.0
  0
LINE
  5
23F
330
1F
100
AcDbEntity
  8
GR1_01
  6
Continuous
 62
     3
370
    50
100
AcDbLine
 10
136.914926194661
 20
185.3560000000001
 30
0.0
 11
137.914926194661
 21
184.3560000000001
 31
0.0
  0
LINE
  5
240
330
1F
100
AcDbEntity
  8
GR1_01
  6
Continuous
 62
     3
370
    50
100
AcDbLine
 10
137.914926194661
 20
184.3560000000001
 30
0.0
 11
137.914926194661
 21
145.3560000000001
 31
0.0
  0
LINE
  5
241
330
1F
100
AcDbEntity
  8
GR1_01
  6
Continuous
 62
     3
370
    50
100
AcDbLine
 10
129.914926194661
 20
145.3560000000001
 30
0.0
 11
129.914926194661
 21
140.806
 31
0.0
  0
ARC
  5
242
330
1F
100
AcDbEntity
  8
GR1_01
  6
Continuous
 62
     3
370
    50
100
AcDbCircle
 10
114.664926194661
 20
125.4482434744913
 30
0.0
 40
0.5
100
AcDbArc
 50
90.0
 51
180.0
  0
LINE
  5
243
330
1F
100
AcDbEntity
  8
GR1_01
  6
Continuous
 62
     3
370
    50
100
AcDbLine
 10
259.6239045228344
 20
133.5
 30
0.0
 11
280.9253333859272
 21
133.5
 31
0.0
  0
LINE
  5
244
330
1F
100
AcDbEntity
  8
GR1_01
  6
Continuous
 62
     3
370
    50
100
AcDbLine
 10
282.1739045228343
 20
134.806
 30
0.0
 11
259.6239045228343
 21
134.806
 31
0.0
  0
LINE
  5
245
330
1F
100
AcDbEntity
  8
GR1_01
  6
Continuous
 62
     3
370
    50
100
AcDbLine
 10
251.6239045228344
 20
145.3560000000001
 30
0.0
 11
251.6239045228344
 21
184.3560000000001
 31
0.0
  0
LINE
  5
246
330
1F
100
AcDbEntity
  8
GR1_01
  6
Continuous
 62
     3
370
    50
100
AcDbLine
 10
251.6239045228344
 20
184.3560000000001
 30
0.0
 11
252.6239045228344
 21
185.3560000000001
 31
0.0
  0
LINE
  5
247
330
1F
100
AcDbEntity
  8
GR1_01
  6
Continuous
 62
     3
370
    50
100
AcDbLine
 10
252.6239045228344
 20
185.3560000000001
 30
0.0
 11
266.6239045228344
 21
185.3560000000001
 31
0.0
  0
LINE
  5
248
330
1F
100
AcDbEntity
  8
GR1_01
  6
Continuous
 62
     3
370
    50
100
AcDbLine
 10
266.6239045228344
 20
185.3560000000001
 30
0.0
 11
267.6239045228344
 21
184.3560000000001
 31
0.0
  0
LINE
  5
249
330
1F
100
AcDbEntity
  8
GR1_01
  6
Continuous
 62
     3
370
    50
100
AcDbLine
 10
267.6239045228344
 20
184.3560000000001
 30
0.0
 11
267.6239045228344
 21
145.3560000000001
 31
0.0
  0
LINE
  5
24A
330
1F
100
AcDbEntity
  8
GR1_01
  6
Continuous
 62
     3
370
    50
100
AcDbLine
 10
266.2634326185151
 20
145.3560000000001
 30
0.0
 11
266.2634326185151
 21
140.806
 31
0.0
  0
LINE
  5
24B
330
1F
100
AcDbEntity
  8
GR1_01
  6
Continuous
 62
     3
370
    50
100
AcDbLine
 10
272.9029607141958
 20
140.806
 30
0.0
 11
272.9029607141958
 21
145.3560000000001
 31
0.0
  0
LINE
  5
24C
330
1F
100
AcDbEntity
  8
GR1_01
  6
Continuous
 62
     3
370
    50
100
AcDbLine
 10
272.9029607141958
 20
145.3560000000001
 30
0.0
 11
259.6239045228344
 21
145.3560000000001
 31
0.0
  0
LINE
  5
24D
330
1F
100
AcDbEntity
  8
GR1_01
  6
Continuous
 62
     3
370
    50
100
AcDbLine
 10
259.6239045228343
 20
140.806
 30
0.0
 11
277.9239045228343
 21
140.806
 31
0.0
  0
ARC
  5
24E
330
1F
100
AcDbEntity
  8
GR1_01
  6
Continuous
 62
     3
370
    50
100
AcDbCircle
 10
277.2754592440064
 20
134.8411430259926
 30
0.0
 40
6.0
100
AcDbArc
 50
35.27322442784478
 51
83.79568573323478
  0
LINE
  5
24F
330
1F
100
AcDbEntity
  8
GR1_01
  6
Continuous
 62
     3
370
    50
100
AcDbLine
 10
282.1739045228344
 20
138.306
 30
0.0
 11
282.1739045228344
 21
134.806
 31
0.0
  0
ARC
  5
250
330
1F
100
AcDbEntity
  8
GR1_01
  6
Continuous
 62
     3
370
    50
100
AcDbCircle
 10
280.9253333859272
 20
130.0
 30
0.0
 40
3.5
100
AcDbArc
 50
1.637245077777197
 51
90.0
  0
LINE
  5
251
330
1F
100
AcDbEntity
  8
GR1_01
  6
Continuous
 62
     3
370
    50
100
AcDbLine
 10
284.4239045228344
 20
130.0999999999982
 30
0.0
 11
284.4239045228344
 21
124.5
 31
0.0
  0
LINE
  5
252
330
1F
100
AcDbEntity
  8
GR1_01
  6
Continuous
 62
     3
370
    50
100
AcDbLine
 10
284.4239045228344
 20
124.5
 30
0.0
 11
282.1239045228344
 21
124.5
 31
0.0
  0
ARC
  5
253
330
1F
100
AcDbEntity
  8
GR1_01
  6
Continuous
 62
     3
370
    50
100
AcDbCircle
 10
285.2829912258515
 20
101.703737495538
 30
0.0
 40
23.01411334311013
100
AcDbArc
 50
97.88975114962714
 51
136.6563303158274
  0
ARC
  5
254
330
1F
100
AcDbEntity
  8
GR1_01
  6
Continuous
 62
     3
370
    50
100
AcDbCircle
 10
648.2164795196472
 20
-171.4195452802037
 30
0.0
 40
477.0423264481964
100
AcDbArc
 50
144.1402602003419
 51
148.123751228382
  0
LINE
  5
255
330
1F
100
AcDbEntity
  8
GR1_01
  6
Continuous
 62
     3
370
    50
100
AcDbLine
 10
243.1165857540195
 20
80.5
 30
0.0
 11
241.8013556408284
 21
78.58632831052512
 31
0.0
  0
LINE
  5
256
330
1F
100
AcDbEntity
  8
GR1_01
  6
Continuous
 62
     3
370
    50
100
AcDbLine
 10
220.9222889323193
 20
86.6010511690227
 30
0.0
 11
226.4817099217024
 21
128.8290460135
 31
0.0
  0
ARC
  5
257
330
1F
100
AcDbEntity
  8
GR1_01
  6
Continuous
 62
     3
370
    50
100
AcDbCircle
 10
20.74749069442921
 20
292.1398940342862
 30
0.0
 40
303.1553801208015
100
AcDbArc
 50
322.6053881037939
 51
324.8251290664933
  0
ARC
  5
258
330
1F
100
AcDbEntity
  8
GR1_01
  6
Continuous
 62
     3
370
    50
100
AcDbCircle
 10
232.3239045228344
 20
85.10000000000002
 30
0.0
 40
11.5
100
AcDbArc
 50
172.5000000000001
 51
325.5000000000001
  0
LINE
  5
259
330
1F
100
AcDbEntity
  8
GR1_01
  6
Continuous
 62
     3
370
    50
100
AcDbLine
 10
220.8239045228344
 20
261.9493808049536
 30
0.0
 11
239.6930866770961
 21
261.9493808049536
 31
0.0
  0
ARC
  5
25A
330
1F
100
AcDbEntity
  8
GR1_01
  6
Continuous
 62
     3
370
    50
100
AcDbCircle
 10
239.6930866770961
 20
269.9493808049534
 30
0.0
 40
8.0
100
AcDbArc
 50
270.0
 51
307.4195512612285
  0
ARC
  5
25B
330
1F
100
AcDbEntity
  8
GR1_01
  6
Continuous
 62
     6
370
    25
100
AcDbCircle
 10
259.6239045228344
 20
243.8993808049536
 30
0.0
 40
24.80000000000004
100
AcDbArc
 50
140.5740339755768
 51
219.4259660244233
  0
LINE
  5
25C
330
1F
100
AcDbEntity
  8
GR1_01
  6
Continuous
 62
     3
370
    50
100
AcDbLine
 10
239.6930866770961
 20
225.8493808049535
 30
0.0
 11
220.8239045228344
 21
225.8493808049535
 31
0.0
  0
LINE
  5
25D
330
1F
100
AcDbEntity
  8
GR1_01
  6
Continuous
 62
     3
370
    50
100
AcDbLine
 10
220.8239045228344
 20
225.8493808049535
 30
0.0
 11
220.8239045228344
 21
228.1493808049535
 31
0.0
  0
LINE
  5
25E
330
1F
100
AcDbEntity
  8
GR1_01
  6
Continuous
 62
     3
370
    50
100
AcDbLine
 10
220.8239045228344
 20
228.1493808049535
 30
0.0
 11
227.8090102121503
 21
228.1493808049536
 31
0.0
  0
ARC
  5
25F
330
1F
100
AcDbEntity
  8
GR1_01
  6
Continuous
 62
     3
370
    50
100
AcDbCircle
 10
239.6930866770961
 20
217.8493808049535
 30
0.0
 40
8.0
100
AcDbArc
 50
52.58044873877162
 51
90.0
  0
ARC
  5
260
330
1F
100
AcDbEntity
  8
GR1_01
  6
Continuous
 62
     3
370
    50
100
AcDbCircle
 10
259.6239045228344
 20
243.8993808049535
 30
0.0
 40
24.80000000000004
100
AcDbArc
 50
232.5804487387717
 51
127.4195512612283
  0
LINE
  5
261
330
1F
100
AcDbEntity
  8
GR1_01
  6
Continuous
 62
     3
370
    50
100
AcDbLine
 10
252.9843764271537
 20
255.3993808049535
 30
0.0
 11
246.344848331473
 21
243.8993808049535
 31
0.0
  0
LINE
  5
262
330
1F
100
AcDbEntity
  8
GR1_01
  6
Continuous
 62
     3
370
    50
100
AcDbLine
 10
246.344848331473
 20
243.8993808049535
 30
0.0
 11
252.9843764271537
 21
232.3993808049535
 31
0.0
  0
LINE
  5
263
330
1F
100
AcDbEntity
  8
GR1_01
  6
Continuous
 62
     3
370
    50
100
AcDbLine
 10
252.9843764271537
 20
232.3993808049535
 30
0.0
 11
266.2634326185151
 21
232.3993808049535
 31
0.0
  0
LINE
  5
264
330
1F
100
AcDbEntity
  8
GR1_01
  6
Continuous
 62
     3
370
    50
100
AcDbLine
 10
266.2634326185151
 20
232.3993808049535
 30
0.0
 11
272.9029607141958
 21
243.8993808049535
 31
0.0
  0
LINE
  5
265
330
1F
100
AcDbEntity
  8
GR1_01
  6
Continuous
 62
     3
370
    50
100
AcDbLine
 10
272.9029607141958
 20
243.8993808049535
 30
0.0
 11
266.2634326185151
 21
255.3993808049535
 31
0.0
  0
LINE
  5
266
330
1F
100
AcDbEntity
  8
GR1_01
  6
Continuous
 62
     3
370
    50
100
AcDbLine
 10
266.2634326185151
 20
255.3993808049535
 30
0.0
 11
252.9843764271537
 21
255.3993808049535
 31
0.0
  0
CIRCLE
  5
267
330
1F
100
AcDbEntity
  8
GR1_01
  6
Continuous
 62
     3
370
    50
100
AcDbCircle
 10
259.6239045228344
 20
243.8993808049535
 30
0.0
 40
8.0
  0
CIRCLE
  5
268
330
1F
100
AcDbEntity
  8
GR1_01
  6
Continuous
 62
     3
370
    50
100
AcDbCircle
 10
259.6239045228344
 20
243.8993808049535
 30
0.0
 40
22.5
  0
ARC
  5
269
330
1F
100
AcDbEntity
  8
GR1_01
  6
Continuous
 62
     3
370
    50
100
AcDbCircle
 10
259.6239045228344
 20
243.8993808049536
 30
0.0
 40
35.50000000000003
100
AcDbArc
 50
149.4393130733142
 51
210.5606869266858
  0
LINE
  5
26A
330
1F
100
AcDbEntity
  8
GR1_01
  6
Continuous
 62
     3
370
    50
100
AcDbLine
 10
227.8090102121503
 20
259.6493808049536
 30
0.0
 11
220.8239045228344
 21
259.6493808049536
 31
0.0
  0
LINE
  5
26B
330
1F
100
AcDbEntity
  8
GR1_01
  6
Continuous
 62
     3
370
    50
100
AcDbLine
 10
220.8239045228344
 20
259.6493808049536
 30
0.0
 11
220.8239045228344
 21
261.9493808049536
 31
0.0
  0
LINE
  5
26C
330
1F
100
AcDbEntity
  8
GR1_01
  6
DASHDOT
 62
     6
370
    25
100
AcDbLine
 10
100.8775125925337
 20
85.85600000000005
 30
0.0
 11
154.2456705210044
 21
85.85600000000005
 31
0.0
  0
LINE
  5
26D
330
1F
100
AcDbEntity
  8
GR1_01
  6
DASHDOT
 62
     6
370
    25
100
AcDbLine
 10
129.914926194661
 20
44.86412926343013
 30
0.0
 11
129.914926194661
 21
189.0639307957866
 31
0.0
  0
LINE
  5
26E
330
1F
100
AcDbEntity
  8
GR1_01
  6
Continuous
 62
     6
370
    25
100
AcDbLine
 10
122.997426194661
 20
185.3560000000001
 30
0.0
 11
122.997426194661
 21
145.3560000000001
 31
0.0
  0
LINE
  5
26F
330
1F
100
AcDbEntity
  8
GR1_01
  6
Continuous
 62
     6
370
    25
100
AcDbLine
 10
136.832426194661
 20
145.3560000000001
 30
0.0
 11
136.832426194661
 21
185.3560000000001
 31
0.0
  0
LINE
  5
270
330
1F
100
AcDbEntity
  8
GR1_01
  6
Continuous
 62
     6
370
    25
100
AcDbLine
 10
152.464926194661
 20
138.3059999999999
 30
0.0
 11
107.364926194661
 21
138.3059999999999
 31
0.0
  0
ARC
  5
271
330
1F
100
AcDbEntity
  8
GR1_01
  6
Continuous
 62
     6
370
    25
100
AcDbCircle
 10
129.914926194661
 20
288.2312500000001
 30
0.0
 40
158.0312500000001
100
AcDbArc
 50
263.5509547869602
 51
276.4490452130398
  0
LINE
  5
272
330
1F
100
AcDbEntity
  8
GR1_01
  6
DASHDOT
 62
     6
370
    25
100
AcDbLine
 10
190.7899829753372
 20
85.85600000000005
 30
0.0
 11
270.8850850821318
 21
85.85600000000005
 31
0.0
  0
LINE
  5
273
330
1F
100
AcDbEntity
  8
GR1_01
  6
Continuous
 62
     6
370
    25
100
AcDbLine
 10
252.7064045228344
 20
145.3560000000001
 30
0.0
 11
252.7064045228344
 21
185.3560000000001
 31
0.0
  0
LINE
  5
274
330
1F
100
AcDbEntity
  8
GR1_01
  6
DASHDOT
 62
     6
370
    25
100
AcDbLine
 10
259.6239045228344
 20
188.5473524614439
 30
0.0
 11
259.6239045228344
 21
96.71981424148606
 31
0.0
  0
LINE
  5
275
330
1F
100
AcDbEntity
  8
GR1_01
  6
DASHDOT
 62
     6
370
    25
100
AcDbLine
 10
231.6239045228344
 20
97.84078479443934
 30
0.0
 11
231.6239045228344
 21
46.03101594913517
 31
0.0
  0
LINE
  5
276
330
1F
100
AcDbEntity
  8
GR1_01
  6
Continuous
 62
     6
370
    25
100
AcDbLine
 10
259.6239045228343
 20
138.3059999999999
 30
0.0
 11
282.1739045228344
 21
138.3059999999999
 31
0.0
  0
LINE
  5
277
330
1F
100
AcDbEntity
  8
GR1_01
  6
Continuous
 62
     6
370
    25
100
AcDbLine
 10
266.5414045228344
 20
145.3560000000001
 30
0.0
 11
266.5414045228344
 21
185.3560000000001
 31
0.0
  0
LINE
  5
278
330
1F
100
AcDbEntity
  8
GR1_01
  6
DASHDOT
 62
     6
370
    25
100
AcDbLine
 10
259.6239045228344
 20
215.3378015700332
 30
0.0
 11
259.6239045228344
 21
272.9904580701435
 31
0.0
  0
ARC
  5
279
330
1F
100
AcDbEntity
  8
GR1_01
  6
Continuous
 62
     6
370
    25
100
AcDbCircle
 10
259.6239045228344
 20
243.8993808049535
 30
0.0
 40
12.5
100
AcDbArc
 50
66.92608193436867
 51
113.0739180656314
  0
ARC
  5
27A
330
1F
100
AcDbEntity
  8
GR1_01
  6
Continuous
 62
     6
370
    25
100
AcDbCircle
 10
259.6239045228344
 20
243.8993808049535
 30
0.0
 40
12.5
100
AcDbArc
 50
126.9260819343689
 51
173.0739180656311
  0
ARC
  5
27B
330
1F
100
AcDbEntity
  8
GR1_01
  6
Continuous
 62
     6
370
    25
100
AcDbCircle
 10
259.6239045228344
 20
243.8993808049535
 30
0.0
 40
12.5
100
AcDbArc
 50
186.9260819343693
 51
233.0739180656307
  0
ARC
  5
27C
330
1F
100
AcDbEntity
  8
GR1_01
  6
Continuous
 62
     6
370
    25
100
AcDbCircle
 10
259.6239045228344
 20
243.8993808049535
 30
0.0
 40
12.5
100
AcDbArc
 50
246.9260819343694
 51
293.0739180656306
  0
ARC
  5
27D
330
1F
100
AcDbEntity
  8
GR1_01
  6
Continuous
 62
     6
370
    25
100
AcDbCircle
 10
259.6239045228344
 20
243.8993808049535
 30
0.0
 40
12.5
100
AcDbArc
 50
306.9260819343692
 51
353.0739180656307
  0
ARC
  5
27E
330
1F
100
AcDbEntity
  8
GR1_01
  6
Continuous
 62
     6
370
    25
100
AcDbCircle
 10
259.6239045228344
 20
243.8993808049535
 30
0.0
 40
12.5
100
AcDbArc
 50
6.926081934369004
 51
53.07391806563109
  0
CIRCLE
  5
27F
330
1F
100
AcDbEntity
  8
GR1_01
  6
Continuous
 62
     6
370
    25
100
AcDbCircle
 10
259.6239045228344
 20
243.8993808049535
 30
0.0
 40
6.917500000000018
  0
CIRCLE
  5
280
330
1F
100
AcDbEntity
  8
GR1_01
  6
Continuous
 62
     6
370
    25
100
AcDbCircle
 10
259.6239045228344
 20
243.8993808049535
 30
0.0
 40
17.25
  0
CIRCLE
  5
281
330
1F
100
AcDbEntity
  8
GR1_01
  6
Continuous
 62
     6
370
    25
100
AcDbCircle
 10
259.6239045228344
 20
243.8993808049535
 30
0.0
 40
18.25
  0
LINE
  5
282
330
1F
100
AcDbEntity
  8
GR1_01
  6
DASHDOT
 62
     6
370
    25
100
AcDbLine
 10
287.5578053810315
 20
243.8993808049536
 30
0.0
 11
191.5964449797103
 21
243.8993808049536
 31
0.0
  0
LINE
  5
284
330
1F
100
AcDbEntity
  8
基準ﾚｲﾔｸﾞﾙｰﾌﾟ_01
  6
Continuous
 62
     6
370
    25
100
AcDbLine
 10
251.6239045228344
 20
184.3560000000001
 30
0.0
 11
267.6239045228344
 21
184.3560000000001
 31
0.0
  0
LINE
  5
285
330
1F
100
AcDbEntity
  8
基準ﾚｲﾔｸﾞﾙｰﾌﾟ_01
  6
Continuous
 62
     6
370
    25
100
AcDbLine
 10
121.914926194661
 20
184.3560000000001
 30
0.0
 11
137.914926194661
 21
184.3560000000001
 31
0.0
  0
LINE
  5
286
330
1F
100
AcDbEntity
  8
GR1_01
  6
Continuous
 62
     3
370
    50
100
AcDbLine
 10
148.5284345215573
 20
91.85600000000005
 30
0.0
 11
147.964926194661
 21
91.85600000000005
 31
0.0
  0
LINE
  5
287
330
1F
100
AcDbEntity
  8
GR1_01
  6
Continuous
 62
     3
370
    50
100
AcDbLine
 10
148.5284345215573
 20
79.85600000000005
 30
0.0
 11
147.964926194661
 21
79.85600000000005
 31
0.0
  0
ARC
  5
288
330
1F
100
AcDbEntity
  8
GR1_01
  6
Continuous
 62
     3
370
    50
100
AcDbCircle
 10
148.5284345215573
 20
89.85600000000005
 30
0.0
 40
2.0
100
AcDbArc
 50
14.47751218592986
 51
90.0
  0
LINE
  5
289
330
1F
100
AcDbEntity
  8
GR1_01
  6
Continuous
 62
     3
370
    50
100
AcDbLine
 10
150.464926194661
 20
90.356
 30
0.0
 11
150.464926194661
 21
81.35600000000011
 31
0.0
  0
ARC
  5
28A
330
1F
100
AcDbEntity
  8
GR1_01
  6
Continuous
 62
     3
370
    50
100
AcDbCircle
 10
148.5284345215573
 20
81.85600000000005
 30
0.0
 40
2.0
100
AcDbArc
 50
270.0
 51
345.5224878140701
  0
LINE
  5
28B
330
1F
100
AcDbEntity
  8
GR1_01
  6
Continuous
 62
     3
370
    50
100
AcDbLine
 10
110.864926194661
 20
89.32010161513779
 30
0.0
 11
107.8649261946611
 21
89.32010161513779
 31
0.0
  0
ARC
  5
28C
330
1F
100
AcDbEntity
  8
GR1_01
  6
Continuous
 62
     3
370
    50
100
AcDbCircle
 10
113.3649261946609
 20
85.85600000000011
 30
0.0
 40
6.499999999999918
100
AcDbArc
 50
147.7957724960277
 51
212.2042275039726
  0
ARC
  5
28D
330
1F
100
AcDbEntity
  8
GR1_01
  6
Continuous
 62
     3
370
    50
100
AcDbCircle
 10
108.8649261946606
 20
80.65984757729353
 30
0.0
 40
1.999999999999807
100
AcDbArc
 50
119.9999999999914
 51
240.0000000000102
  0
LINE
  5
28E
330
1F
100
AcDbEntity
  8
GR1_01
  6
Continuous
 62
     3
370
    50
100
AcDbLine
 10
107.8649261946612
 20
78.92779676972452
 30
0.0
 11
110.8649261946609
 21
78.92779676972452
 31
0.0
  0
ARC
  5
28F
330
1F
100
AcDbEntity
  8
GR1_01
  6
Continuous
 62
     3
370
    50
100
AcDbCircle
 10
109.8649261946614
 20
80.65984757729348
 30
0.0
 40
1.999999999999807
100
AcDbArc
 50
299.9999999999903
 51
60.00000000000904
  0
LINE
  5
290
330
1F
100
AcDbEntity
  8
GR1_01
  6
Continuous
 62
     3
370
    50
100
AcDbLine
 10
110.864926194661
 20
82.39189838486232
 30
0.0
 11
107.8649261946611
 21
82.39189838486232
 31
0.0
  0
LINE
  5
291
330
1F
100
AcDbEntity
  8
GR1_01
  6
Continuous
 62
     3
370
    50
100
AcDbLine
 10
105.364926194661
 20
81.85600000000005
 30
0.0
 11
104.464926194661
 21
81.85600000000005
 31
0.0
  0
LINE
  5
292
330
1F
100
AcDbEntity
  8
GR1_01
  6
Continuous
 62
     3
370
    50
100
AcDbLine
 10
104.464926194661
 20
81.85600000000005
 30
0.0
 11
103.964926194661
 21
82.35600000000005
 31
0.0
  0
LINE
  5
293
330
1F
100
AcDbEntity
  8
GR1_01
  6
Continuous
 62
     3
370
    50
100
AcDbLine
 10
103.964926194661
 20
82.35600000000005
 30
0.0
 11
103.964926194661
 21
89.35600000000005
 31
0.0
  0
LINE
  5
294
330
1F
100
AcDbEntity
  8
GR1_01
  6
Continuous
 62
     3
370
    50
100
AcDbLine
 10
103.964926194661
 20
89.35600000000005
 30
0.0
 11
104.464926194661
 21
89.85600000000005
 31
0.0
  0
LINE
  5
295
330
1F
100
AcDbEntity
  8
GR1_01
  6
Continuous
 62
     3
370
    50
100
AcDbLine
 10
104.464926194661
 20
89.85600000000005
 30
0.0
 11
105.364926194661
 21
89.85600000000005
 31
0.0
  0
LINE
  5
296
330
1F
100
AcDbEntity
  8
GR1_01
  6
Continuous
 62
     3
370
    50
100
AcDbLine
 10
105.364926194661
 20
90.606
 30
0.0
 11
107.5319985875895
 21
92.54322720094785
 31
0.0
  0
LINE
  5
297
330
1F
100
AcDbEntity
  8
GR1_01
  6
Continuous
 62
     3
370
    50
100
AcDbLine
 10
107.864926194661
 20
92.78420323027558
 30
0.0
 11
110.864926194661
 21
92.78420323027558
 31
0.0
  0
ARC
  5
298
330
1F
100
AcDbEntity
  8
GR1_01
  6
Continuous
 62
     3
370
    50
100
AcDbCircle
 10
108.8649261946606
 20
91.05215242270674
 30
0.0
 40
1.999999999999807
100
AcDbArc
 50
119.9999999999903
 51
240.000000000009
  0
LINE
  5
299
330
1F
100
AcDbEntity
  8
GR1_01
  6
Continuous
 62
     3
370
    50
100
AcDbLine
 10
105.364926194661
 20
90.60600000000005
 30
0.0
 11
105.364926194661
 21
81.10600000000011
 31
0.0
  0
LINE
  5
29A
330
1F
100
AcDbEntity
  8
GR1_01
  6
Continuous
 62
     3
370
    50
100
AcDbLine
 10
105.364926194661
 20
81.10600000000011
 30
0.0
 11
107.5319985875895
 21
79.16877279905225
 31
0.0
  0
ARC
  5
29B
330
1F
100
AcDbEntity
  8
GR1_01
  6
Continuous
 62
     3
370
    50
100
AcDbCircle
 10
105.3649261946611
 20
85.85600000000011
 30
0.0
 40
6.499999999999918
100
AcDbArc
 50
327.7957724960274
 51
32.20422750397225
  0
ARC
  5
29C
330
1F
100
AcDbEntity
  8
GR1_01
  6
Continuous
 62
     3
370
    50
100
AcDbCircle
 10
109.8649261946614
 20
91.05215242270668
 30
0.0
 40
1.999999999999807
100
AcDbArc
 50
299.999999999991
 51
60.0000000000097
  0
LINE
  5
29D
330
1F
100
AcDbEntity
  8
GR1_01
  6
Continuous
 62
     6
370
    25
100
AcDbLine
 10
103.964926194661
 20
82.53250000000003
 30
0.0
 11
105.364926194661
 21
82.53250000000003
 31
0.0
  0
LINE
  5
29E
330
1F
100
AcDbEntity
  8
GR1_01
  6
Continuous
 62
     6
370
    25
100
AcDbLine
 10
105.364926194661
 20
83.85600000000011
 30
0.0
 11
106.9083404095885
 21
85.10600000000011
 31
0.0
  0
LINE
  5
29F
330
1F
100
AcDbEntity
  8
GR1_01
  6
Continuous
 62
     6
370
    25
100
AcDbLine
 10
106.9083404095885
 20
85.10600000000011
 30
0.0
 11
106.864926194661
 21
85.85600000000011
 31
0.0
  0
LINE
  5
2A0
330
1F
100
AcDbEntity
  8
GR1_01
  6
Continuous
 62
     6
370
    25
100
AcDbLine
 10
106.864926194661
 20
85.85600000000011
 30
0.0
 11
106.9083404095885
 21
86.60600000000011
 31
0.0
  0
LINE
  5
2A1
330
1F
100
AcDbEntity
  8
GR1_01
  6
Continuous
 62
     6
370
    25
100
AcDbLine
 10
106.9083404095885
 20
86.60600000000011
 30
0.0
 11
105.364926194661
 21
87.856
 31
0.0
  0
LINE
  5
2A2
330
1F
100
AcDbEntity
  8
GR1_01
  6
Continuous
 62
     6
370
    25
100
AcDbLine
 10
105.364926194661
 20
89.17950000000008
 30
0.0
 11
103.964926194661
 21
89.17950000000008
 31
0.0
  0
CIRCLE
  5
2A3
330
1F
100
AcDbEntity
  8
GR1_01
  6
Continuous
 62
     3
370
    50
100
AcDbCircle
 10
231.6239045228344
 20
85.85600000000011
 30
0.0
 40
6.0
  0
CIRCLE
  5
2A4
330
1F
100
AcDbEntity
  8
GR1_01
  6
Continuous
 62
     3
370
    50
100
AcDbCircle
 10
231.6239045228344
 20
85.85600000000011
 30
0.0
 40
1.5
  0
CIRCLE
  5
2A5
330
1F
100
AcDbEntity
  8
GR1_01
  6
Continuous
 62
     6
370
    25
100
AcDbCircle
 10
231.6239045228344
 20
85.85600000000011
 30
0.0
 40
4.5
  0
CIRCLE
  5
2A6
330
1F
100
AcDbEntity
  8
GR1_01
  6
Continuous
 62
     6
370
    25
100
AcDbCircle
 10
231.6239045228343
 20
85.85600000000011
 30
0.0
 40
2.5
  0
CIRCLE
  5
2A7
330
1F
100
AcDbEntity
  8
GR1_01
  6
Continuous
 62
     6
370
    25
100
AcDbCircle
 10
231.6239045228344
 20
85.85600000000011
 30
0.0
 40
2.0
  0
TEXT
  5
2A8
330
1F
100
AcDbEntity
  8
基準ﾚｲﾔｸﾞﾙｰﾌﾟ_01
  6
Continuous
 62
     7
370
    25
100
AcDbText
 10
303.4238891601562
 20
93.85601806640625
 30
0.0
 40
4.0
  1
９７
 50
90.0
 41
0.9545454545454547
  7
FX_VECTOR
 72
     5
 11
303.4238891601562
 21
99.85601806640625
 31
0.0
100
AcDbText
  0
LINE
  5
2A9
330
1F
100
AcDbEntity
  8
基準ﾚｲﾔｸﾞﾙｰﾌﾟ_01
  6
Continuous
 62
     7
370
    25
100
AcDbLine
 10
304.4239045228344
 20
48.35600000000011
 30
0.0
 11
304.4239045228344
 21
145.356
 31
0.0
  0
INSERT
  5
2AA
330
1F
100
AcDbEntity
  8
基準ﾚｲﾔｸﾞﾙｰﾌﾟ_01
  6
Continuous
 62
     7
370
    25
100
AcDbBlockReference
  2
FXTIP_ARROW_S
 10
304.4239045228344
 20
48.35600000000011
 30
0.0
 41
4.0
 42
4.0
 50
270.0
  0
INSERT
  5
2AB
330
1F
100
AcDbEntity
  8
基準ﾚｲﾔｸﾞﾙｰﾌﾟ_01
  6
Continuous
 62
     7
370
    25
100
AcDbBlockReference
  2
FXTIP_ARROW_E
 10
304.4239045228344
 20
145.356
 30
0.0
 41
4.0
 42
4.0
 50
90.0
  0
LINE
  5
2AC
330
1F
100
AcDbEntity
  8
基準ﾚｲﾔｸﾞﾙｰﾌﾟ_01
  6
Continuous
 62
     7
370
    25
100
AcDbLine
 10
232.6239045228346
 20
48.35600000000011
 30
0.0
 11
305.4239045228344
 21
48.35600000000011
 31
0.0
  0
LINE
  5
2AD
330
1F
100
AcDbEntity
  8
基準ﾚｲﾔｸﾞﾙｰﾌﾟ_01
  6
Continuous
 62
     7
370
    25
100
AcDbLine
 10
273.9029607141958
 20
145.356
 30
0.0
 11
305.4239045228344
 21
145.356
 31
0.0
  0
TEXT
  5
2AE
330
1F
100
AcDbEntity
  8
基準ﾚｲﾔｸﾞﾙｰﾌﾟ_01
  6
Continuous
 62
     7
370
    25
100
AcDbText
 10
293.4238891601562
 20
109.6060180664062
 30
0.0
 40
4.0
  1
５９．５
 50
90.0
 41
0.9130434782608696
  7
FX_VECTOR
 72
     5
 11
293.4238891601562
 21
121.6060180664062
 31
0.0
100
AcDbText
  0
LINE
  5
2AF
330
1F
100
AcDbEntity
  8
基準ﾚｲﾔｸﾞﾙｰﾌﾟ_01
  6
Continuous
 62
     7
370
    25
100
AcDbLine
 10
294.4239045228344
 20
85.85600000000005
 30
0.0
 11
294.4239045228344
 21
145.356
 31
0.0
  0
INSERT
  5
2B0
330
1F
100
AcDbEntity
  8
基準ﾚｲﾔｸﾞﾙｰﾌﾟ_01
  6
Continuous
 62
     7
370
    25
100
AcDbBlockReference
  2
FXTIP_ARROW_S
 10
294.4239045228344
 20
85.85600000000005
 30
0.0
 41
4.0
 42
4.0
 50
270.0
  0
INSERT
  5
2B1
330
1F
100
AcDbEntity
  8
基準ﾚｲﾔｸﾞﾙｰﾌﾟ_01
  6
Continuous
 62
     7
370
    25
100
AcDbBlockReference
  2
FXTIP_ARROW_E
 10
294.4239045228344
 20
145.356
 30
0.0
 41
4.0
 42
4.0
 50
90.0
  0
LINE
  5
2B2
330
1F
100
AcDbEntity
  8
基準ﾚｲﾔｸﾞﾙｰﾌﾟ_01
  6
Continuous
 62
     7
370
    25
100
AcDbLine
 10
271.8850850821318
 20
85.85600000000005
 30
0.0
 11
295.4239045228344
 21
85.85600000000005
 31
0.0
  0
TEXT
  5
2B3
330
1F
100
AcDbEntity
  8
基準ﾚｲﾔｸﾞﾙｰﾌﾟ_01
  6
Continuous
 62
     7
370
    25
100
AcDbText
 10
293.4238891601562
 20
162.3560028076172
 30
0.0
 40
4.0
  1
４０
 50
90.0
 41
0.9545454545454547
  7
FX_VECTOR
 72
     5
 11
293.4238891601562
 21
168.3560028076172
 31
0.0
100
AcDbText
  0
LINE
  5
2B4
330
1F
100
AcDbEntity
  8
基準ﾚｲﾔｸﾞﾙｰﾌﾟ_01
  6
Continuous
 62
     7
370
    25
100
AcDbLine
 10
294.4239045228344
 20
145.356
 30
0.0
 11
294.4239045228344
 21
185.3560000000001
 31
0.0
  0
INSERT
  5
2B5
330
1F
100
AcDbEntity
  8
基準ﾚｲﾔｸﾞﾙｰﾌﾟ_01
  6
Continuous
 62
     7
370
    25
100
AcDbBlockReference
  2
FXTIP_ARROW_S
 10
294.4239045228344
 20
145.356
 30
0.0
 41
4.0
 42
4.0
 50
270.0
  0
INSERT
  5
2B6
330
1F
100
AcDbEntity
  8
基準ﾚｲﾔｸﾞﾙｰﾌﾟ_01
  6
Continuous
 62
     7
370
    25
100
AcDbBlockReference
  2
FXTIP_ARROW_E
 10
294.4239045228344
 20
185.3560000000001
 30
0.0
 41
4.0
 42
4.0
 50
90.0
  0
LINE
  5
2B7
330
1F
100
AcDbEntity
  8
基準ﾚｲﾔｸﾞﾙｰﾌﾟ_01
  6
Continuous
 62
     7
370
    25
100
AcDbLine
 10
267.5414045228344
 20
185.3560000000001
 30
0.0
 11
295.4239045228344
 21
185.3560000000001
 31
0.0
  0
LINE
  5
2B8
330
1F
100
AcDbEntity
  8
基準ﾚｲﾔｸﾞﾙｰﾌﾟ_01
  6
Continuous
 62
     6
370
    25
100
AcDbLine
 10
104.464926194661
 20
89.85600000000005
 30
0.0
 11
104.464926194661
 21
81.85600000000005
 31
0.0
  0
LINE
  5
2B9
330
1F
100
AcDbEntity
  8
GR1_01
  6
Continuous
 62
     3
370
    50
100
AcDbLine
 10
237.6239045228343
 20
265.9493808049536
 30
0.0
 11
237.6239045228342
 21
262.9493808049536
 31
0.0
  0
LINE
  5
2BA
330
1F
100
AcDbEntity
  8
GR1_01
  6
Continuous
 62
     3
370
    50
100
AcDbLine
 10
225.6239045228343
 20
265.9493808049534
 30
0.0
 11
225.6239045228343
 21
262.9493808049538
 31
0.0
  0
ARC
  5
2BB
330
1F
100
AcDbEntity
  8
GR1_01
  6
Continuous
 62
     3
370
    50
100
AcDbCircle
 10
227.3559553304032
 20
263.9493808049533
 30
0.0
 40
1.999999999999807
100
AcDbArc
 50
209.9999999999903
 51
270.0
  0
LINE
  5
2BC
330
1F
100
AcDbEntity
  8
GR1_01
  6
Continuous
 62
     3
370
    50
100
AcDbLine
 10
226.8739045228343
 20
268.4493808049536
 30
0.0
 11
236.3739045228344
 21
268.4493808049536
 31
0.0
  0
LINE
  5
2BD
330
1F
100
AcDbEntity
  8
GR1_01
  6
Continuous
 62
     3
370
    50
100
AcDbLine
 10
237.6239045228343
 20
225.2858724780573
 30
0.0
 11
237.6239045228343
 21
225.8493808049535
 31
0.0
  0
ARC
  5
2BE
330
1F
100
AcDbEntity
  8
GR1_01
  6
Continuous
 62
     3
370
    50
100
AcDbCircle
 10
235.6239045228343
 20
225.2858724780572
 30
0.0
 40
2.0
100
AcDbArc
 50
284.4775121859299
 51
0.0
  0
LINE
  5
2BF
330
1F
100
AcDbEntity
  8
GR1_01
  6
Continuous
 62
     3
370
    50
100
AcDbLine
 10
236.1239045228343
 20
223.3493808049535
 30
0.0
 11
227.1239045228343
 21
223.3493808049536
 31
0.0
  0
LINE
  5
2C0
330
1F
100
AcDbEntity
  8
GR1_01
  6
Continuous
 62
     3
370
    50
100
AcDbLine
 10
225.6239045228343
 20
225.2858724780572
 30
0.0
 11
225.6239045228343
 21
225.8493808049535
 31
0.0
  0
ARC
  5
2C1
330
1F
100
AcDbEntity
  8
GR1_01
  6
Continuous
 62
     3
370
    50
100
AcDbCircle
 10
227.6239045228343
 20
225.2858724780572
 30
0.0
 40
2.0
100
AcDbArc
 50
180.0
 51
255.5224878140701
  0
ARC
  5
2C2
330
1F
100
AcDbEntity
  8
基準ﾚｲﾔｸﾞﾙｰﾌﾟ_01
  6
Continuous
 62
     6
370
    25
100
AcDbCircle
 10
228.6239045228343
 20
261.9493808049539
 30
0.0
 40
4.999999999999773
100
AcDbArc
 50
53.13010235415403
 51
126.869897645846
  0
ARC
  5
2C3
330
1F
100
AcDbEntity
  8
基準ﾚｲﾔｸﾞﾙｰﾌﾟ_01
  6
Continuous
 62
     6
370
    25
100
AcDbCircle
 10
234.6239045228344
 20
261.9493808049539
 30
0.0
 40
4.999999999999773
100
AcDbArc
 50
53.13010235415403
 51
126.869897645846
  0
ARC
  5
2C4
330
1F
100
AcDbEntity
  8
GR1_01
  6
Continuous
 62
     3
370
    50
100
AcDbCircle
 10
229.8918537152654
 20
263.9493808049533
 30
0.0
 40
1.999999999999807
100
AcDbArc
 50
270.0
 51
330.0000000000097
  0
ARC
  5
2C5
330
1F
100
AcDbEntity
  8
GR1_01
  6
Continuous
 62
     3
370
    50
100
AcDbCircle
 10
235.8918537152654
 20
263.9493808049533
 30
0.0
 40
1.999999999999807
100
AcDbArc
 50
270.0
 51
330.0000000000097
  0
ARC
  5
2C6
330
1F
100
AcDbEntity
  8
GR1_01
  6
Continuous
 62
     3
370
    50
100
AcDbCircle
 10
233.3559553304032
 20
263.9493808049533
 30
0.0
 40
1.999999999999807
100
AcDbArc
 50
209.9999999999903
 51
270.0
  0
LINE
  5
2C7
330
1F
100
AcDbEntity
  8
基準ﾚｲﾔｸﾞﾙｰﾌﾟ_01
  6
Continuous
 62
     3
370
    50
100
AcDbLine
 10
231.6239045228344
 20
265.9493808049535
 30
0.0
 11
231.6239045228344
 21
262.9493808049539
 31
0.0
  0
LINE
  5
2C8
330
1F
100
AcDbEntity
  8
GR1_01
  6
Continuous
 62
     3
370
    50
100
AcDbLine
 10
227.6239045228343
 20
268.4493808049536
 30
0.0
 11
227.6239045228343
 21
269.3493808049536
 31
0.0
  0
LINE
  5
2C9
330
1F
100
AcDbEntity
  8
GR1_01
  6
Continuous
 62
     3
370
    50
100
AcDbLine
 10
227.6239045228343
 20
269.3493808049536
 30
0.0
 11
228.1239045228343
 21
269.8493808049536
 31
0.0
  0
LINE
  5
2CA
330
1F
100
AcDbEntity
  8
GR1_01
  6
Continuous
 62
     3
370
    50
100
AcDbLine
 10
228.1239045228343
 20
269.8493808049536
 30
0.0
 11
235.1239045228343
 21
269.8493808049536
 31
0.0
  0
LINE
  5
2CB
330
1F
100
AcDbEntity
  8
GR1_01
  6
Continuous
 62
     3
370
    50
100
AcDbLine
 10
235.1239045228343
 20
269.8493808049536
 30
0.0
 11
235.6239045228343
 21
269.3493808049536
 31
0.0
  0
LINE
  5
2CC
330
1F
100
AcDbEntity
  8
GR1_01
  6
Continuous
 62
     3
370
    50
100
AcDbLine
 10
235.6239045228343
 20
269.3493808049536
 30
0.0
 11
235.6239045228343
 21
268.4493808049536
 31
0.0
  0
LINE
  5
2CD
330
1F
100
AcDbEntity
  8
GR1_01
  6
Continuous
 62
     6
370
    25
100
AcDbLine
 10
228.3004045228343
 20
269.8493808049536
 30
0.0
 11
228.3004045228343
 21
268.4493808049536
 31
0.0
  0
LINE
  5
2CE
330
1F
100
AcDbEntity
  8
GR1_01
  6
Continuous
 62
     6
370
    25
100
AcDbLine
 10
234.9474045228343
 20
268.4493808049536
 30
0.0
 11
234.9474045228343
 21
269.8493808049536
 31
0.0
  0
LINE
  5
2CF
330
1F
100
AcDbEntity
  8
基準ﾚｲﾔｸﾞﾙｰﾌﾟ_01
  6
Continuous
 62
     6
370
    25
100
AcDbLine
 10
235.6239045228343
 20
269.3493808049536
 30
0.0
 11
227.6239045228343
 21
269.3493808049536
 31
0.0
  0
LINE
  5
2D0
330
1F
100
AcDbEntity
  8
基準ﾚｲﾔｸﾞﾙｰﾌﾟ_01
  6
Continuous
 62
     3
370
    50
100
AcDbLine
 10
226.8739045228343
 20
268.4493808049537
 30
0.0
 11
225.6239045228343
 21
265.9493808049536
 31
0.0
  0
LINE
  5
2D1
330
1F
100
AcDbEntity
  8
基準ﾚｲﾔｸﾞﾙｰﾌﾟ_01
  6
Continuous
 62
     3
370
    50
100
AcDbLine
 10
236.3739045228344
 20
268.4493808049537
 30
0.0
 11
237.6239045228344
 21
265.9493808049536
 31
0.0
  0
ARC
  5
2D2
330
1F
100
AcDbEntity
  8
GR1_01
  6
Continuous
 62
     3
370
    50
100
AcDbCircle
 10
259.6239045228345
 20
135.078
 30
0.0
 40
2.778
100
AcDbArc
 50
325.3867171375784
 51
354.3810435975624
  0
ARC
  5
2D3
330
1F
100
AcDbEntity
  8
GR1_01
  6
Continuous
 62
     3
370
    50
100
AcDbCircle
 10
265.1110472626116
 20
135.0779999999993
 30
0.0
 40
2.778
100
AcDbArc
 50
325.3867171375962
 51
354.381043597577
  0
ARC
  5
2D4
330
1F
100
AcDbEntity
  8
GR1_01
  6
Continuous
 62
     3
370
    50
100
AcDbCircle
 10
270.0575300531866
 20
135.0779999999994
 30
0.0
 40
2.778
100
AcDbArc
 50
207.0895747336902
 51
214.6132828624051
  0
ARC
  5
2D5
330
1F
100
AcDbEntity
  8
GR1_01
  6
Continuous
 62
     3
370
    50
100
AcDbCircle
 10
265.1110472626116
 20
135.0779999999993
 30
0.0
 40
2.778
100
AcDbArc
 50
189.0298582445553
 51
214.6132828624038
  0
ARC
  5
2D6
330
1F
100
AcDbEntity
  8
GR1_01
  6
Continuous
 62
     3
370
    50
100
AcDbCircle
 10
270.0575300531866
 20
135.0779999999994
 30
0.0
 40
2.778
100
AcDbArc
 50
325.3867171375948
 51
354.3810435975759
  0
ARC
  5
2D7
330
1F
100
AcDbEntity
  8
GR1_01
  6
Continuous
 62
     3
370
    50
100
AcDbCircle
 10
273.9759653303726
 20
135.0779999999992
 30
0.0
 40
2.778
100
AcDbArc
 50
325.3867171375997
 51
354.38104359758
  0
ARC
  5
2D8
330
1F
100
AcDbEntity
  8
GR1_01
  6
Continuous
 62
     3
370
    50
100
AcDbCircle
 10
276.4802612576012
 20
135.0779999999995
 30
0.0
 40
2.778
100
AcDbArc
 50
325.3867171375905
 51
354.3810435975723
  0
ARC
  5
2D9
330
1F
100
AcDbEntity
  8
GR1_01
  6
Continuous
 62
     3
370
    50
100
AcDbCircle
 10
277.323664183106
 20
135.0779999999991
 30
0.0
 40
2.778
100
AcDbArc
 50
325.3867171376013
 51
354.3810435975812
  0
ARC
  5
2DA
330
1F
100
AcDbEntity
  8
GR1_01
  6
Continuous
 62
     3
370
    50
100
AcDbCircle
 10
129.9149261946611
 20
135.078
 30
0.0
 40
2.778
100
AcDbArc
 50
325.3867171375784
 51
354.3810435975624
  0
ARC
  5
2DB
330
1F
100
AcDbEntity
  8
GR1_01
  6
Continuous
 62
     3
370
    50
100
AcDbCircle
 10
135.4020689344383
 20
135.0779999999993
 30
0.0
 40
2.778
100
AcDbArc
 50
325.3867171375962
 51
354.381043597577
  0
ARC
  5
2DC
330
1F
100
AcDbEntity
  8
GR1_01
  6
Continuous
 62
     3
370
    50
100
AcDbCircle
 10
140.3485517250131
 20
135.0779999999994
 30
0.0
 40
2.778
100
AcDbArc
 50
207.0895747336902
 51
214.6132828624051
  0
ARC
  5
2DD
330
1F
100
AcDbEntity
  8
GR1_01
  6
Continuous
 62
     3
370
    50
100
AcDbCircle
 10
135.4020689344383
 20
135.0779999999993
 30
0.0
 40
2.778
100
AcDbArc
 50
189.0298582445553
 51
214.6132828624038
  0
ARC
  5
2DE
330
1F
100
AcDbEntity
  8
GR1_01
  6
Continuous
 62
     3
370
    50
100
AcDbCircle
 10
140.3485517250131
 20
135.0779999999994
 30
0.0
 40
2.778
100
AcDbArc
 50
325.3867171375948
 51
354.3810435975759
  0
ARC
  5
2DF
330
1F
100
AcDbEntity
  8
GR1_01
  6
Continuous
 62
     3
370
    50
100
AcDbCircle
 10
144.2669870021992
 20
135.0779999999992
 30
0.0
 40
2.778
100
AcDbArc
 50
325.3867171375997
 51
354.38104359758
  0
ARC
  5
2E0
330
1F
100
AcDbEntity
  8
GR1_01
  6
Continuous
 62
     3
370
    50
100
AcDbCircle
 10
146.7712829294277
 20
135.0779999999995
 30
0.0
 40
2.778
100
AcDbArc
 50
325.3867171375905
 51
354.3810435975723
  0
ARC
  5
2E1
330
1F
100
AcDbEntity
  8
GR1_01
  6
Continuous
 62
     3
370
    50
100
AcDbCircle
 10
147.6146858549326
 20
135.0779999999991
 30
0.0
 40
2.778
100
AcDbArc
 50
325.3867171376013
 51
354.3810435975812
  0
ARC
  5
2E2
330
1F
100
AcDbEntity
  8
GR1_01
  6
Continuous
 62
     3
370
    50
100
AcDbCircle
 10
129.9149261946612
 20
135.078
 30
0.0
 40
2.778
100
AcDbArc
 50
185.6189564024376
 51
214.6132828624216
  0
ARC
  5
2E3
330
1F
100
AcDbEntity
  8
GR1_01
  6
Continuous
 62
     3
370
    50
100
AcDbCircle
 10
124.427783454884
 20
135.0779999999993
 30
0.0
 40
2.778
100
AcDbArc
 50
185.6189564024229
 51
214.6132828624038
  0
ARC
  5
2E4
330
1F
100
AcDbEntity
  8
GR1_01
  6
Continuous
 62
     3
370
    50
100
AcDbCircle
 10
119.4813006643092
 20
135.0779999999994
 30
0.0
 40
2.778
100
AcDbArc
 50
325.3867171375948
 51
332.9104252663099
  0
ARC
  5
2E5
330
1F
100
AcDbEntity
  8
GR1_01
  6
Continuous
 62
     3
370
    50
100
AcDbCircle
 10
124.427783454884
 20
135.0779999999993
 30
0.0
 40
2.778
100
AcDbArc
 50
325.3867171375962
 51
350.9701417554412
  0
ARC
  5
2E6
330
1F
100
AcDbEntity
  8
GR1_01
  6
Continuous
 62
     3
370
    50
100
AcDbCircle
 10
119.4813006643092
 20
135.0779999999994
 30
0.0
 40
2.778
100
AcDbArc
 50
185.6189564024241
 51
214.6132828624051
  0
ARC
  5
2E7
330
1F
100
AcDbEntity
  8
GR1_01
  6
Continuous
 62
     3
370
    50
100
AcDbCircle
 10
115.5628653871231
 20
135.0779999999992
 30
0.0
 40
2.778
100
AcDbArc
 50
185.6189564024199
 51
214.6132828624003
  0
ARC
  5
2E8
330
1F
100
AcDbEntity
  8
GR1_01
  6
Continuous
 62
     3
370
    50
100
AcDbCircle
 10
113.0585694598945
 20
135.0779999999995
 30
0.0
 40
2.778
100
AcDbArc
 50
185.6189564024276
 51
214.6132828624095
  0
ARC
  5
2E9
330
1F
100
AcDbEntity
  8
GR1_01
  6
Continuous
 62
     3
370
    50
100
AcDbCircle
 10
112.2151665343897
 20
135.0779999999991
 30
0.0
 40
2.778
100
AcDbArc
 50
185.6189564024188
 51
214.6132828623988
  0
LINE
  5
2EA
330
1F
100
AcDbEntity
  8
GR1_01
  6
Continuous
 62
     3
370
    50
100
AcDbLine
 10
145.664926194661
 20
89.856
 30
0.0
 11
144.9149261946609
 21
89.856
 31
0.0
  0
LINE
  5
2EB
330
1F
100
AcDbEntity
  8
GR1_01
  6
Continuous
 62
     3
370
    50
100
AcDbLine
 10
114.164926194661
 20
89.856
 30
0.0
 11
114.914926194661
 21
89.856
 31
0.0
  0
LINE
  5
2EC
330
1F
100
AcDbEntity
  8
GR1_01
  6
Continuous
 62
     3
370
    50
100
AcDbLine
 10
114.914926194661
 20
81.856
 30
0.0
 11
114.164926194661
 21
81.856
 31
0.0
  0
LINE
  5
2ED
330
1F
100
AcDbEntity
  8
GR1_01
  6
Continuous
 62
     3
370
    50
100
AcDbLine
 10
144.9149261946609
 20
81.856
 30
0.0
 11
145.664926194661
 21
81.856
 31
0.0
  0
TEXT
  5
2EE
330
1F
100
AcDbEntity
  8
基準ﾚｲﾔｸﾞﾙｰﾌﾟ_01
  6
Continuous
 62
     7
370
    25
100
AcDbText
 10
126.9149322509766
 20
29.35598754830453
 30
0.0
 40
4.0
  1
３０
 41
0.9545454545454547
  7
FX_VECTOR
 72
     5
 11
132.9149322509766
 21
29.35598754935172
 31
0.0
100
AcDbText
  0
LINE
  5
2EF
330
1F
100
AcDbEntity
  8
基準ﾚｲﾔｸﾞﾙｰﾌﾟ_01
  6
Continuous
 62
     7
370
    25
100
AcDbLine
 10
114.914926194661
 20
28.35599999999994
 30
0.0
 11
144.914926194661
 21
28.35599999999994
 31
0.0
  0
INSERT
  5
2F0
330
1F
100
AcDbEntity
  8
基準ﾚｲﾔｸﾞﾙｰﾌﾟ_01
  6
Continuous
 62
     7
370
    25
100
AcDbBlockReference
  2
FXTIP_ARROW_S
 10
114.914926194661
 20
28.35599999999994
 30
0.0
 41
4.0
 42
4.0
 50
180.0
  0
INSERT
  5
2F1
330
1F
100
AcDbEntity
  8
基準ﾚｲﾔｸﾞﾙｰﾌﾟ_01
  6
Continuous
 62
     7
370
    25
100
AcDbBlockReference
  2
FXTIP_ARROW_E
 10
144.914926194661
 20
28.35599999999994
 30
0.0
 41
4.0
 42
4.0
 50
360.0
  0
LINE
  5
2F2
330
1F
100
AcDbEntity
  8
基準ﾚｲﾔｸﾞﾙｰﾌﾟ_01
  6
Continuous
 62
     7
370
    25
100
AcDbLine
 10
114.914926194661
 20
70.35600000000005
 30
0.0
 11
114.914926194661
 21
27.35599999999994
 31
0.0
  0
LINE
  5
2F3
330
1F
100
AcDbEntity
  8
基準ﾚｲﾔｸﾞﾙｰﾌﾟ_01
  6
Continuous
 62
     7
370
    25
100
AcDbLine
 10
144.914926194661
 20
70.35600000000005
 30
0.0
 11
144.914926194661
 21
27.35599999999994
 31
0.0
  0
TEXT
  5
2F4
330
1F
100
AcDbEntity
  8
基準ﾚｲﾔｸﾞﾙｰﾌﾟ_01
  6
Continuous
 62
     7
370
    25
100
AcDbText
 10
126.9149322509766
 20
39.35598754830453
 30
0.0
 40
4.0
  1
２５
 41
0.9545454545454547
  7
FX_VECTOR
 72
     5
 11
132.9149322509766
 21
39.35598754935172
 31
0.0
100
AcDbText
  0
LINE
  5
2F5
330
1F
100
AcDbEntity
  8
基準ﾚｲﾔｸﾞﾙｰﾌﾟ_01
  6
Continuous
 62
     7
370
    25
100
AcDbLine
 10
117.414926194661
 20
38.35599999999994
 30
0.0
 11
142.414926194661
 21
38.35599999999994
 31
0.0
  0
INSERT
  5
2F6
330
1F
100
AcDbEntity
  8
基準ﾚｲﾔｸﾞﾙｰﾌﾟ_01
  6
Continuous
 62
     7
370
    25
100
AcDbBlockReference
  2
FXTIP_ARROW_S
 10
117.414926194661
 20
38.35599999999994
 30
0.0
 41
4.0
 42
4.0
 50
180.0
  0
INSERT
  5
2F7
330
1F
100
AcDbEntity
  8
基準ﾚｲﾔｸﾞﾙｰﾌﾟ_01
  6
Continuous
 62
     7
370
    25
100
AcDbBlockReference
  2
FXTIP_ARROW_E
 10
142.414926194661
 20
38.35599999999994
 30
0.0
 41
4.0
 42
4.0
 50
360.0
  0
LINE
  5
2F8
330
1F
100
AcDbEntity
  8
基準ﾚｲﾔｸﾞﾙｰﾌﾟ_01
  6
Continuous
 62
     7
370
    25
100
AcDbLine
 10
117.414926194661
 20
50.51851501201207
 30
0.0
 11
117.414926194661
 21
37.35599999999994
 31
0.0
  0
LINE
  5
2F9
330
1F
100
AcDbEntity
  8
基準ﾚｲﾔｸﾞﾙｰﾌﾟ_01
  6
Continuous
 62
     7
370
    25
100
AcDbLine
 10
142.414926194661
 20
50.51851501201207
 30
0.0
 11
142.414926194661
 21
37.35599999999994
 31
0.0
  0
LINE
  5
2FA
330
1F
100
AcDbEntity
  8
GR1_01
  6
Continuous
 62
     3
370
    50
100
AcDbLine
 10
259.6239045228344
 20
133.5
 30
0.0
 11
238.3224756597416
 21
133.5
 31
0.0
  0
LINE
  5
2FB
330
1F
100
AcDbEntity
  8
GR1_01
  6
Continuous
 62
     3
370
    50
100
AcDbLine
 10
237.0739045228344
 20
134.806
 30
0.0
 11
259.6239045228344
 21
134.806
 31
0.0
  0
LINE
  5
2FC
330
1F
100
AcDbEntity
  8
GR1_01
  6
Continuous
 62
     3
370
    50
100
AcDbLine
 10
252.9843764271537
 20
145.3560000000001
 30
0.0
 11
252.9843764271537
 21
140.806
 31
0.0
  0
LINE
  5
2FD
330
1F
100
AcDbEntity
  8
GR1_01
  6
Continuous
 62
     3
370
    50
100
AcDbLine
 10
246.344848331473
 20
140.806
 30
0.0
 11
246.344848331473
 21
145.3560000000001
 31
0.0
  0
LINE
  5
2FE
330
1F
100
AcDbEntity
  8
GR1_01
  6
Continuous
 62
     3
370
    50
100
AcDbLine
 10
246.344848331473
 20
145.3560000000001
 30
0.0
 11
259.6239045228344
 21
145.3560000000001
 31
0.0
  0
LINE
  5
2FF
330
1F
100
AcDbEntity
  8
GR1_01
  6
Continuous
 62
     3
370
    50
100
AcDbLine
 10
259.6239045228344
 20
140.806
 30
0.0
 11
241.3239045228344
 21
140.806
 31
0.0
  0
ARC
  5
300
330
1F
100
AcDbEntity
  8
GR1_01
  6
Continuous
 62
     3
370
    50
100
AcDbCircle
 10
241.9723498016623
 20
134.8411430259926
 30
0.0
 40
6.0
100
AcDbArc
 50
96.20431426676518
 51
144.7267755721551
  0
LINE
  5
301
330
1F
100
AcDbEntity
  8
GR1_01
  6
Continuous
 62
     3
370
    50
100
AcDbLine
 10
237.0739045228344
 20
138.306
 30
0.0
 11
237.0739045228344
 21
134.806
 31
0.0
  0
LINE
  5
302
330
1F
100
AcDbEntity
  8
GR1_01
  6
Continuous
 62
     6
370
    25
100
AcDbLine
 10
259.6239045228344
 20
138.3059999999999
 30
0.0
 11
237.0739045228344
 21
138.3059999999999
 31
0.0
  0
ARC
  5
303
330
1F
100
AcDbEntity
  8
GR1_01
  6
Continuous
 62
     3
370
    50
100
AcDbCircle
 10
259.6239045228343
 20
135.078
 30
0.0
 40
2.778
100
AcDbArc
 50
185.6189564024377
 51
214.6132828624219
  0
ARC
  5
304
330
1F
100
AcDbEntity
  8
GR1_01
  6
Continuous
 62
     3
370
    50
100
AcDbCircle
 10
254.1367617830571
 20
135.0779999999993
 30
0.0
 40
2.778
100
AcDbArc
 50
185.6189564024228
 51
214.6132828624038
  0
ARC
  5
305
330
1F
100
AcDbEntity
  8
GR1_01
  6
Continuous
 62
     3
370
    50
100
AcDbCircle
 10
249.1902789924822
 20
135.0779999999994
 30
0.0
 40
2.778
100
AcDbArc
 50
325.3867171375946
 51
332.9104252663099
  0
ARC
  5
306
330
1F
100
AcDbEntity
  8
GR1_01
  6
Continuous
 62
     3
370
    50
100
AcDbCircle
 10
254.1367617830571
 20
135.0779999999993
 30
0.0
 40
2.778
100
AcDbArc
 50
325.3867171375962
 51
350.9701417554446
  0
ARC
  5
307
330
1F
100
AcDbEntity
  8
GR1_01
  6
Continuous
 62
     3
370
    50
100
AcDbCircle
 10
249.1902789924822
 20
135.0779999999994
 30
0.0
 40
2.778
100
AcDbArc
 50
185.6189564024241
 51
214.6132828624054
  0
ARC
  5
308
330
1F
100
AcDbEntity
  8
GR1_01
  6
Continuous
 62
     3
370
    50
100
AcDbCircle
 10
245.2718437152961
 20
135.0779999999992
 30
0.0
 40
2.778
100
AcDbArc
 50
185.6189564024199
 51
214.6132828624
  0
ARC
  5
309
330
1F
100
AcDbEntity
  8
GR1_01
  6
Continuous
 62
     3
370
    50
100
AcDbCircle
 10
242.7675477880676
 20
135.0779999999995
 30
0.0
 40
2.778
100
AcDbArc
 50
185.6189564024276
 51
214.6132828624096
  0
ARC
  5
30A
330
1F
100
AcDbEntity
  8
GR1_01
  6
Continuous
 62
     3
370
    50
100
AcDbCircle
 10
241.9241448625627
 20
135.0779999999991
 30
0.0
 40
2.778
100
AcDbArc
 50
185.6189564024188
 51
214.6132828623984
  0
LINE
  5
30B
330
1F
100
AcDbEntity
  8
GR1_01
  6
Continuous
 62
     3
370
    50
100
AcDbLine
 10
224.5232953314683
 20
126.1482434744914
 30
0.0
 11
224.1239045228344
 21
128.4133013064194
 31
0.0
  0
LINE
  5
30C
330
1F
100
AcDbEntity
  8
GR1_01
  6
Continuous
 62
     3
370
    50
100
AcDbLine
 10
224.1239045228344
 20
128.4133013064194
 30
0.0
 11
240.3581233851245
 21
131.2758321025675
 31
0.0
  0
LINE
  5
30D
330
1F
100
AcDbEntity
  8
GR1_01
  6
Continuous
 62
     3
370
    50
100
AcDbLine
 10
226.139974480108
 20
126.4333076275453
 30
0.0
 11
224.5232953314683
 21
126.1482434744914
 31
0.0
  0
LINE
  5
30E
330
1F
100
AcDbEntity
  8
GR1_01
  6
Continuous
 62
     6
370
    25
100
AcDbLine
 10
245.0281003312181
 20
87.57606645095314
 30
0.0
 11
245.0281003312181
 21
131.071119597906
 31
0.0
  0
ARC
  5
30F
330
1F
100
AcDbEntity
  8
GR1_01
  6
Continuous
 62
     3
370
    50
100
AcDbCircle
 10
238.3224756597415
 20
130.0
 30
0.0
 40
3.5
100
AcDbArc
 50
90.0
 51
175.0492075817078
  0
TEXT
  5
310
330
1F
100
AcDbEntity
  8
基準ﾚｲﾔｸﾞﾙｰﾌﾟ_01
  6
Continuous
 62
     7
370
    25
100
AcDbText
 10
242.6239013671875
 20
29.35598754830453
 30
0.0
 40
4.0
  1
２８
 41
0.9545454545454547
  7
FX_VECTOR
 72
     5
 11
248.6239013671875
 21
29.35598754935172
 31
0.0
100
AcDbText
  0
LINE
  5
311
330
1F
100
AcDbEntity
  8
基準ﾚｲﾔｸﾞﾙｰﾌﾟ_01
  6
Continuous
 62
     7
370
    25
100
AcDbLine
 10
231.6239045228344
 20
28.35599999999988
 30
0.0
 11
259.6239045228344
 21
28.35599999999988
 31
0.0
  0
INSERT
  5
312
330
1F
100
AcDbEntity
  8
基準ﾚｲﾔｸﾞﾙｰﾌﾟ_01
  6
Continuous
 62
     7
370
    25
100
AcDbBlockReference
  2
FXTIP_ARROW_S
 10
231.6239045228344
 20
28.35599999999988
 30
0.0
 41
4.0
 42
4.0
 50
180.0
  0
INSERT
  5
313
330
1F
100
AcDbEntity
  8
基準ﾚｲﾔｸﾞﾙｰﾌﾟ_01
  6
Continuous
 62
     7
370
    25
100
AcDbBlockReference
  2
FXTIP_ARROW_E
 10
259.6239045228344
 20
28.35599999999988
 30
0.0
 41
4.0
 42
4.0
 50
360.0
  0
LINE
  5
314
330
1F
100
AcDbEntity
  8
基準ﾚｲﾔｸﾞﾙｰﾌﾟ_01
  6
Continuous
 62
     7
370
    25
100
AcDbLine
 10
231.6239045228344
 20
45.03101594913517
 30
0.0
 11
231.6239045228344
 21
27.35599999999994
 31
0.0
  0
LINE
  5
315
330
1F
100
AcDbEntity
  8
基準ﾚｲﾔｸﾞﾙｰﾌﾟ_01
  6
Continuous
 62
     7
370
    25
100
AcDbLine
 10
259.6239045228344
 20
95.71981424148606
 30
0.0
 11
259.6239045228343
 21
27.35599999999988
 31
0.0
  0
TEXT
  5
316
330
1F
100
AcDbEntity
  8
基準ﾚｲﾔｸﾞﾙｰﾌﾟ_01
  6
Continuous
 62
     7
370
    25
100
AcDbText
 10
167.2549438476562
 20
84.35601806640625
 30
0.0
 40
4.0
  1
７５
 50
90.0
 41
0.9545454545454547
  7
FX_VECTOR
 72
     5
 11
167.2549438476562
 21
90.35601806640625
 31
0.0
100
AcDbText
  0
LINE
  5
317
330
1F
100
AcDbEntity
  8
基準ﾚｲﾔｸﾞﾙｰﾌﾟ_01
  6
Continuous
 62
     7
370
    25
100
AcDbLine
 10
168.2549434095212
 20
48.35600000000005
 30
0.0
 11
168.2549434095212
 21
123.3560000000001
 31
0.0
  0
INSERT
  5
318
330
1F
100
AcDbEntity
  8
基準ﾚｲﾔｸﾞﾙｰﾌﾟ_01
  6
Continuous
 62
     7
370
    25
100
AcDbBlockReference
  2
FXTIP_ARROW_S
 10
168.2549434095212
 20
48.35600000000005
 30
0.0
 41
4.0
 42
4.0
 50
270.0
  0
INSERT
  5
319
330
1F
100
AcDbEntity
  8
基準ﾚｲﾔｸﾞﾙｰﾌﾟ_01
  6
Continuous
 62
     7
370
    25
100
AcDbBlockReference
  2
FXTIP_ARROW_E
 10
168.2549434095212
 20
123.3560000000001
 30
0.0
 41
4.0
 42
4.0
 50
90.0
  0
LINE
  5
31A
330
1F
100
AcDbEntity
  8
基準ﾚｲﾔｸﾞﾙｰﾌﾟ_01
  6
Continuous
 62
     7
370
    25
100
AcDbLine
 10
130.914926194661
 20
48.35600000000005
 30
0.0
 11
169.2549434095212
 21
48.35600000000005
 31
0.0
  0
LINE
  5
31B
330
1F
100
AcDbEntity
  8
基準ﾚｲﾔｸﾞﾙｰﾌﾟ_01
  6
Continuous
 62
     7
370
    25
100
AcDbLine
 10
130.914926194661
 20
123.3560000000001
 30
0.0
 11
169.2549434095212
 21
123.3560000000001
 31
0.0
  0
TEXT
  5
31C
330
1F
100
AcDbEntity
  8
基準ﾚｲﾔｸﾞﾙｰﾌﾟ_01
  6
Continuous
 62
     7
370
    25
100
AcDbText
 10
167.2549438476562
 20
81.35601806640625
 30
0.0
 40
4.0
  1
φ
 50
90.0
 41
1.05
  7
FX_VECTOR
 72
     5
 11
167.2549438476562
 21
84.35601806640625
 31
0.0
100
AcDbText
  0
TEXT
  5
31D
330
1F
100
AcDbEntity
  8
基準ﾚｲﾔｸﾞﾙｰﾌﾟ_01
  6
Continuous
 62
     7
370
    25
100
AcDbText
 10
293.4238891601562
 20
240.8993835449219
 30
0.0
 40
4.0
  1
２３
 50
90.0
 41
0.9545454545454547
  7
FX_VECTOR
 72
     5
 11
293.4238891601562
 21
246.8993835449219
 31
0.0
100
AcDbText
  0
LINE
  5
31E
330
1F
100
AcDbEntity
  8
基準ﾚｲﾔｸﾞﾙｰﾌﾟ_01
  6
Continuous
 62
     7
370
    25
100
AcDbLine
 10
294.4239045228345
 20
232.3993808049535
 30
0.0
 11
294.4239045228345
 21
255.3993808049535
 31
0.0
  0
INSERT
  5
31F
330
1F
100
AcDbEntity
  8
基準ﾚｲﾔｸﾞﾙｰﾌﾟ_01
  6
Continuous
 62
     7
370
    25
100
AcDbBlockReference
  2
FXTIP_ARROW_S
 10
294.4239045228345
 20
232.3993808049535
 30
0.0
 41
4.0
 42
4.0
 50
270.0
  0
INSERT
  5
320
330
1F
100
AcDbEntity
  8
基準ﾚｲﾔｸﾞﾙｰﾌﾟ_01
  6
Continuous
 62
     7
370
    25
100
AcDbBlockReference
  2
FXTIP_ARROW_E
 10
294.4239045228345
 20
255.3993808049535
 30
0.0
 41
4.0
 42
4.0
 50
90.0
  0
LINE
  5
321
330
1F
100
AcDbEntity
  8
基準ﾚｲﾔｸﾞﾙｰﾌﾟ_01
  6
Continuous
 62
     7
370
    25
100
AcDbLine
 10
267.2634326185151
 20
232.3993808049535
 30
0.0
 11
295.4239045228345
 21
232.3993808049535
 31
0.0
  0
LINE
  5
322
330
1F
100
AcDbEntity
  8
基準ﾚｲﾔｸﾞﾙｰﾌﾟ_01
  6
Continuous
 62
     7
370
    25
100
AcDbLine
 10
267.263432618515
 20
255.3993808049535
 30
0.0
 11
295.4239045228345
 21
255.3993808049534
 31
0.0
  0
LINE
  5
323
330
1F
100
AcDbEntity
  8
基準ﾚｲﾔｸﾞﾙｰﾌﾟ_01
  6
DASHDOT
 62
     6
370
    25
100
AcDbLine
 10
231.6239045228344
 20
271.4085440764887
 30
0.0
 11
231.6239045228344
 21
265.9493808049535
 31
0.0
  0
LINE
  5
324
330
1F
100
AcDbEntity
  8
基準ﾚｲﾔｸﾞﾙｰﾌﾟ_01
  6
DASHDOT
 62
     6
370
    25
100
AcDbLine
 10
231.6239045228344
 20
262.9493808049539
 30
0.0
 11
231.6239045228344
 21
221.3145505791166
 31
0.0
  0
TEXT
  5
325
330
1F
100
AcDbEntity
  8
基準ﾚｲﾔｸﾞﾙｰﾌﾟ_01
  6
Continuous
 62
     7
370
    25
100
AcDbText
 10
252.1239013671875
 20
195.8429718012342
 30
0.0
 40
4.0
  1
１６
 41
0.9545454545454547
  7
FX_VECTOR
 72
     5
 11
258.1239013671875
 21
195.8429718022814
 31
0.0
100
AcDbText
  0
LINE
  5
326
330
1F
100
AcDbEntity
  8
基準ﾚｲﾔｸﾞﾙｰﾌﾟ_01
  6
Continuous
 62
     7
370
    25
100
AcDbLine
 10
251.6239045228344
 20
194.8429779363192
 30
0.0
 11
267.6239045228344
 21
194.8429779363192
 31
0.0
  0
INSERT
  5
327
330
1F
100
AcDbEntity
  8
基準ﾚｲﾔｸﾞﾙｰﾌﾟ_01
  6
Continuous
 62
     7
370
    25
100
AcDbBlockReference
  2
FXTIP_ARROW_S
 10
251.6239045228344
 20
194.8429779363192
 30
0.0
 41
4.0
 42
4.0
 50
180.0
  0
INSERT
  5
328
330
1F
100
AcDbEntity
  8
基準ﾚｲﾔｸﾞﾙｰﾌﾟ_01
  6
Continuous
 62
     7
370
    25
100
AcDbBlockReference
  2
FXTIP_ARROW_E
 10
267.6239045228344
 20
194.8429779363192
 30
0.0
 41
4.0
 42
4.0
 50
360.0
  0
LINE
  5
329
330
1F
100
AcDbEntity
  8
基準ﾚｲﾔｸﾞﾙｰﾌﾟ_01
  6
Continuous
 62
     7
370
    25
100
AcDbLine
 10
251.6239045228344
 20
185.3560000000001
 30
0.0
 11
251.6239045228344
 21
195.8429779363192
 31
0.0
  0
LINE
  5
32A
330
1F
100
AcDbEntity
  8
基準ﾚｲﾔｸﾞﾙｰﾌﾟ_01
  6
Continuous
 62
     7
370
    25
100
AcDbLine
 10
267.6239045228344
 20
185.356
 30
0.0
 11
267.6239045228344
 21
195.8429779363192
 31
0.0
  0
TEXT
  5
32B
330
1F
100
AcDbEntity
  8
基準ﾚｲﾔｸﾞﾙｰﾌﾟ_01
  6
Continuous
 62
     7
370
    25
100
AcDbText
 10
249.1239013671875
 20
195.842971801496
 30
0.0
 40
4.0
  1
Ｍ
 41
1.05
  7
FX_VECTOR
 72
     5
 11
252.1239013671875
 21
195.8429718020196
 31
0.0
100
AcDbText
  0
TEXT
  5
32C
330
1F
100
AcDbEntity
  8
基準ﾚｲﾔｸﾞﾙｰﾌﾟ_01
  6
Continuous
 62
     7
370
    25
100
AcDbText
 10
258.1239013671875
 20
195.8429718007106
 30
0.0
 40
4.0
  1
×２．０
 41
0.9130434782608696
  7
FX_VECTOR
 72
     5
 11
270.1239013671875
 21
195.842971802805
 31
0.0
100
AcDbText
  0
INSERT
  5
330
330
1F
100
AcDbEntity
  8
GR1_01
  6
Continuous
 62
     3
370
    50
100
AcDbBlockReference
  2
BLKF022
 10
0.0
 20
0.0
 30
0.0
  0
INSERT
  5
3B6
330
1F
100
AcDbEntity
  8
GR1_01
  6
Continuous
 62
     3
370
    50
100
AcDbBlockReference
  2
BLKF024
 10
0.0
 20
0.0
 30
0.0
  0
TEXT
  5
3C9
330
1F
100
AcDbEntity
  8
図面枠ﾚｲﾔ_01
  6
Continuous
 62
     7
370
    25
100
AcDbText
 10
155.0
 20
12.0
 30
0.0
 40
6.0
  1
ＳＡ－　７５　１６×４０　Ｕ
 41
0.7871485943775103
  7
FX_VECTOR
 72
     5
 11
211.0
 21
12.0
 31
0.0
100
AcDbText
  0
TEXT
  5
3CA
330
1F
100
AcDbEntity
  8
図面枠ﾚｲﾔ_01
  6
Continuous
 62
     7
370
    25
100
AcDbText
 10
255.0
 20
12.0
 30
0.0
 40
6.0
  1
Ｓ２５ＤＡ０ＬＡＡ－Ｃ０２
 41
0.7878787878787881
  7
FX_VECTOR
 72
     5
 11
307.0
 21
12.0
 31
0.0
100
AcDbText
  0
INSERT
  5
3CE
330
1F
100
AcDbEntity
  8
GR1_01
  6
Continuous
 62
     3
370
    50
100
AcDbBlockReference
  2
BLKF025
 10
0.0
 20
0.0
 30
0.0
  0
ENDSEC
  0
SECTION
  2
OBJECTS
  0
DICTIONARY
  5
C
330
0
100
AcDbDictionary
281
     1
  3
ACAD_GROUP
350
D
  3
ACAD_LAYOUT
350
1A
  3
ACAD_MATERIAL
350
3B
  3
ACAD_MLEADERSTYLE
350
3DE
  3
ACAD_MLINESTYLE
350
17
  3
ACAD_PLOTSETTINGS
350
19
  3
ACAD_PLOTSTYLENAME
350
E
  3
ACAD_VISUALSTYLE
350
2A
  3
AcDbVariableDictionary
350
3DC
  0
DICTIONARY
  5
D
102
{ACAD_REACTORS
330
C
102
}
330
C
100
AcDbDictionary
281
     1
  0
DICTIONARY
  5
1A
102
{ACAD_REACTORS
330
C
102
}
330
C
100
AcDbDictionary
281
     1
  3
Layout1
350
1E
  3
Layout2
350
26
  3
Model
350
22
  0
DICTIONARY
  5
3B
102
{ACAD_REACTORS
330
C
102
}
330
C
100
AcDbDictionary
281
     1
  3
ByBlock
350
3D
  3
ByLayer
350
3C
  3
Global
350
3E
  0
DICTIONARY
  5
3DE
102
{ACAD_REACTORS
330
C
102
}
330
C
100
AcDbDictionary
281
     1
  0
DICTIONARY
  5
17
102
{ACAD_REACTORS
330
C
102
}
330
C
100
AcDbDictionary
281
     1
  3
Standard
350
18
  0
DICTIONARY
  5
19
102
{ACAD_REACTORS
330
C
102
}
330
C
100
AcDbDictionary
281
     1
  0
ACDBDICTIONARYWDFLT
  5
E
102
{ACAD_REACTORS
330
C
102
}
330
C
100
AcDbDictionary
281
     1
  3
Normal
350
F
100
AcDbDictionaryWithDefault
340
F
  0
DICTIONARY
  5
2A
102
{ACAD_REACTORS
330
C
102
}
330
C
100
AcDbDictionary
281
     1
  3
2dWireframe
350
2F
  3
3D Hidden
350
31
  3
3dWireframe
350
30
  3
Basic
350
32
  3
Brighten
350
36
  3
ColorChange
350
3A
  3
Conceptual
350
34
  3
Dim
350
35
  3
Facepattern
350
39
  3
Flat
350
2B
  3
FlatWithEdges
350
2C
  3
Gouraud
350
2D
  3
GouraudWithEdges
350
2E
  3
Linepattern
350
38
  3
Realistic
350
33
  3
Thicken
350
37
  0
DICTIONARY
  5
3DC
102
{ACAD_REACTORS
330
C
102
}
330
C
100
AcDbDictionary
281
     1
  3
DIMASSOC
350
3E1
  3
HIDETEXT
350
3E2
  3
PSOLHEIGHT
350
3E0
  3
PSOLWIDTH
350
3DF
  0
LAYOUT
  5
1E
102
{ACAD_REACTORS
330
1A
102
}
330
1A
100
AcDbPlotSettings
  1

  2
none_device
  4

  6

 40
0.0
 41
0.0
 42
0.0
 43
0.0
 44
0.0
 45
0.0
 46
0.0
 47
0.0
 48
0.0
 49
0.0
140
0.0
141
0.0
142
1.0
143
1.0
 70
   688
 72
     0
 73
     0
 74
     5
  7

 75
    16
147
1.0
148
0.0
149
0.0
100
AcDbLayout
  1
Layout1
 70
     1
 71
     1
 10
0.0
 20
0.0
 11
420.0
 21
297.0
 12
0.0
 22
0.0
 32
0.0
 14
1.000000000000000E+20
 24
1.000000000000000E+20
 34
1.000000000000000E+20
 15
-1.000000000000000E+20
 25
-1.000000000000000E+20
 35
-1.000000000000000E+20
146
0.0
 13
0.0
 23
0.0
 33
0.0
 16
1.0
 26
0.0
 36
0.0
 17
0.0
 27
1.0
 37
0.0
 76
     0
330
1B
  0
LAYOUT
  5
26
102
{ACAD_REACTORS
330
1A
102
}
330
1A
100
AcDbPlotSettings
  1

  2
none_device
  4

  6

 40
0.0
 41
0.0
 42
0.0
 43
0.0
 44
0.0
 45
0.0
 46
0.0
 47
0.0
 48
0.0
 49
0.0
140
0.0
141
0.0
142
1.0
143
1.0
 70
   688
 72
     0
 73
     0
 74
     5
  7

 75
    16
147
1.0
148
0.0
149
0.0
100
AcDbLayout
  1
Layout2
 70
     1
 71
     2
 10
0.0
 20
0.0
 11
0.0
 21
0.0
 12
0.0
 22
0.0
 32
0.0
 14
0.0
 24
0.0
 34
0.0
 15
0.0
 25
0.0
 35
0.0
146
0.0
 13
0.0
 23
0.0
 33
0.0
 16
1.0
 26
0.0
 36
0.0
 17
0.0
 27
1.0
 37
0.0
 76
     0
330
23
  0
LAYOUT
  5
22
102
{ACAD_REACTORS
330
1A
102
}
330
1A
100
AcDbPlotSettings
  1

  2
none_device
  4

  6

 40
0.0
 41
0.0
 42
0.0
 43
0.0
 44
0.0
 45
0.0
 46
0.0
 47
0.0
 48
0.0
 49
0.0
140
0.0
141
0.0
142
1.0
143
1.0
 70
  1712
 72
     0
 73
     0
 74
     0
  7

 75
     0
147
1.0
148
0.0
149
0.0
100
AcDbLayout
  1
Model
 70
     1
 71
     0
 10
0.0
 20
0.0
 11
420.0
 21
297.0
 12
0.0
 22
0.0
 32
0.0
 14
0.0
 24
0.0
 34
0.0
 15
420.0
 25
297.0
 35
0.0
146
0.0
 13
0.0
 23
0.0
 33
0.0
 16
1.0
 26
0.0
 36
0.0
 17
0.0
 27
1.0
 37
0.0
 76
     0
330
1F
331
29
  0
MATERIAL
  5
3D
102
{ACAD_REACTORS
330
3B
102
}
102
{ACAD_XDICTIONARY
360
405
102
}
330
3B
100
AcDbMaterial
  1
ByBlock
  0
MATERIAL
  5
3C
102
{ACAD_REACTORS
330
3B
102
}
102
{ACAD_XDICTIONARY
360
403
102
}
330
3B
100
AcDbMaterial
  1
ByLayer
  0
MATERIAL
  5
3E
102
{ACAD_REACTORS
330
3B
102
}
102
{ACAD_XDICTIONARY
360
407
102
}
330
3B
100
AcDbMaterial
  1
Global
  0
MLINESTYLE
  5
18
102
{ACAD_REACTORS
330
17
102
}
330
17
100
AcDbMlineStyle
  2
Standard
 70
     0
  3

 62
   256
 51
90.0
 52
90.0
 71
     2
 49
0.5
 62
   256
  6
BYLAYER
 49
-0.5
 62
   256
  6
BYLAYER
  0
ACDBPLACEHOLDER
  5
F
102
{ACAD_REACTORS
330
E
102
}
330
E
  0
VISUALSTYLE
  5
2F
102
{ACAD_REACTORS
330
2A
102
}
102
{ACAD_XDICTIONARY
360
3EB
102
}
330
2A
100
AcDbVisualStyle
  2
2dWireframe
 70
     4
 71
     0
 72
     2
 73
     0
 90
        0
 40
-0.6
 41
-30.0
 62
     5
 63
     7
 74
     1
 91
        4
 64
     7
 65
   257
 75
     1
175
     1
 42
1.0
 92
        0
 66
   257
 43
1.0
 76
     1
 77
     6
 78
     2
 67
     7
 79
     5
170
     0
171
     0
290
     0
174
     0
 93
        1
 44
0.0
173
     0
291
     0
 45
0.0
1001
ACAD
1000
AcDbSavedByObjectVersion
1070
     0
  0
VISUALSTYLE
  5
31
102
{ACAD_REACTORS
330
2A
102
}
102
{ACAD_XDICTIONARY
360
3EF
102
}
330
2A
100
AcDbVisualStyle
  2
3D Hidden
 70
     6
 71
     1
 72
     2
 73
     2
 90
        0
 40
-0.6
 41
-30.0
 62
     5
 63
     7
 74
     2
 91
        2
 64
     7
 65
   257
 75
     2
175
     1
 42
40.0
 92
        0
 66
   257
 43
1.0
 76
     1
 77
     6
 78
     2
 67
     7
 79
     3
170
     0
171
     0
290
     0
174
     0
 93
        1
 44
0.0
173
     0
291
     0
 45
0.0
1001
ACAD
1000
AcDbSavedByObjectVersion
1070
     0
  0
VISUALSTYLE
  5
30
102
{ACAD_REACTORS
330
2A
102
}
102
{ACAD_XDICTIONARY
360
3ED
102
}
330
2A
100
AcDbVisualStyle
  2
3dWireframe
 70
     5
 71
     0
 72
     2
 73
     0
 90
        0
 40
-0.6
 41
-30.0
 62
     5
 63
     7
 74
     1
 91
        4
 64
     7
 65
   257
 75
     1
175
     1
 42
1.0
 92
        0
 66
   257
 43
1.0
 76
     1
 77
     6
 78
     2
 67
     7
 79
     5
170
     0
171
     0
290
     0
174
     0
 93
        1
 44
0.0
173
     0
291
     0
 45
0.0
1001
ACAD
1000
AcDbSavedByObjectVersion
1070
     0
  0
VISUALSTYLE
  5
32
102
{ACAD_REACTORS
330
2A
102
}
102
{ACAD_XDICTIONARY
360
3F1
102
}
330
2A
100
AcDbVisualStyle
  2
Basic
 70
     7
 71
     1
 72
     0
 73
     1
 90
        0
 40
-0.6
 41
-30.0
 62
     5
 63
     7
 74
     0
 91
        4
 64
     7
 65
   257
 75
     1
175
     1
 42
1.0
 92
        8
 66
     7
 43
1.0
 76
     1
 77
     6
 78
     2
 67
     7
 79
     5
170
     0
171
     0
290
     0
174
     0
 93
        1
 44
0.0
173
     0
291
     1
 45
0.0
1001
ACAD
1000
AcDbSavedByObjectVersion
1070
     0
  0
VISUALSTYLE
  5
36
102
{ACAD_REACTORS
330
2A
102
}
102
{ACAD_XDICTIONARY
360
3F9
102
}
330
2A
100
AcDbVisualStyle
  2
Brighten
 70
    12
 71
     2
 72
     2
 73
     0
 90
        0
 40
-0.6
 41
-30.0
 62
     5
 63
     7
 74
     1
 91
        4
 64
     7
 65
   257
 75
     1
175
     1
 42
1.0
 92
        8
 66
     7
 43
1.0
 76
     1
 77
     6
 78
     2
 67
     7
 79
     5
170
     0
171
     0
290
     0
174
     0
 93
        1
 44
50.0
173
     0
291
     1
 45
0.0
1001
ACAD
1000
AcDbSavedByObjectVersion
1070
     0
  0
VISUALSTYLE
  5
3A
102
{ACAD_REACTORS
330
2A
102
}
102
{ACAD_XDICTIONARY
360
401
102
}
330
2A
100
AcDbVisualStyle
  2
ColorChange
 70
    16
 71
     2
 72
     2
 73
     3
 90
        0
 40
-0.6
 41
-30.0
 62
     5
 63
     8
 74
     1
 91
        4
 64
     7
 65
   257
 75
     1
175
     1
 42
1.0
 92
        8
 66
     8
 43
1.0
 76
     1
 77
     6
 78
     2
 67
     7
 79
     5
170
     0
171
     0
290
     0
174
     0
 93
        1
 44
0.0
173
     0
291
     1
 45
0.0
1001
ACAD
1000
AcDbSavedByObjectVersion
1070
     0
  0
VISUALSTYLE
  5
34
102
{ACAD_REACTORS
330
2A
102
}
102
{ACAD_XDICTIONARY
360
3F5
102
}
330
2A
100
AcDbVisualStyle
  2
Conceptual
 70
     9
 71
     3
 72
     2
 73
     0
 90
        0
 40
-0.6
 41
-30.0
 62
     5
 63
     7
 74
     2
 91
        2
 64
     7
 65
   257
 75
     1
175
     1
 42
40.0
 92
        8
 66
     7
 43
1.0
 76
     1
 77
     6
 78
     2
 67
     7
 79
     3
170
     0
171
     0
290
     0
174
     0
 93
        1
 44
0.0
173
     0
291
     0
 45
0.0
1001
ACAD
1000
AcDbSavedByObjectVersion
1070
     0
  0
VISUALSTYLE
  5
35
102
{ACAD_REACTORS
330
2A
102
}
102
{ACAD_XDICTIONARY
360
3F7
102
}
330
2A
100
AcDbVisualStyle
  2
Dim
 70
    11
 71
     2
 72
     2
 73
     0
 90
        0
 40
-0.6
 41
-30.0
 62
     5
 63
     7
 74
     1
 91
        4
 64
     7
 65
   257
 75
     1
175
     1
 42
1.0
 92
        8
 66
     7
 43
1.0
 76
     1
 77
     6
 78
     2
 67
     7
 79
     5
170
     0
171
     0
290
     0
174
     0
 93
        1
 44
-50.0
173
     0
291
     1
 45
0.0
1001
ACAD
1000
AcDbSavedByObjectVersion
1070
     0
  0
VISUALSTYLE
  5
39
102
{ACAD_REACTORS
330
2A
102
}
102
{ACAD_XDICTIONARY
360
3FF
102
}
330
2A
100
AcDbVisualStyle
  2
Facepattern
 70
    15
 71
     2
 72
     2
 73
     0
 90
        0
 40
-0.6
 41
-30.0
 62
     5
 63
     7
 74
     1
 91
        4
 64
     7
 65
   257
 75
     1
175
     1
 42
1.0
 92
        8
 66
     7
 43
1.0
 76
     1
 77
     6
 78
     2
 67
     7
 79
     5
170
     0
171
     0
290
     0
174
     0
 93
        1
 44
0.0
173
     0
291
     1
 45
0.0
1001
ACAD
1000
AcDbSavedByObjectVersion
1070
     0
  0
VISUALSTYLE
  5
2B
102
{ACAD_REACTORS
330
2A
102
}
102
{ACAD_XDICTIONARY
360
3E3
102
}
330
2A
100
AcDbVisualStyle
  2
Flat
 70
     0
 71
     2
 72
     1
 73
     1
 90
        2
 40
-0.6
 41
30.0
 62
     5
 63
     7
 74
     0
 91
        4
 64
     7
 65
   257
 75
     1
175
     1
 42
1.0
 92
        8
 66
     7
 43
1.0
 76
     1
 77
     6
 78
     2
 67
     7
 79
     5
170
     0
171
     0
290
     0
174
     0
 93
       13
 44
0.0
173
     0
291
     1
 45
0.0
1001
ACAD
1000
AcDbSavedByObjectVersion
1070
     0
  0
VISUALSTYLE
  5
2C
102
{ACAD_REACTORS
330
2A
102
}
102
{ACAD_XDICTIONARY
360
3E5
102
}
330
2A
100
AcDbVisualStyle
  2
FlatWithEdges
 70
     1
 71
     2
 72
     1
 73
     1
 90
        2
 40
-0.6
 41
30.0
 62
     5
 63
     7
 74
     1
 91
        4
 64
     7
 65
   257
 75
     1
175
     1
 42
1.0
 92
        0
 66
   257
 43
1.0
 76
     1
 77
     6
 78
     2
 67
     7
 79
     5
170
     0
171
     0
290
     0
174
     0
 93
       13
 44
0.0
173
     0
291
     1
 45
0.0
1001
ACAD
1000
AcDbSavedByObjectVersion
1070
     0
  0
VISUALSTYLE
  5
2D
102
{ACAD_REACTORS
330
2A
102
}
102
{ACAD_XDICTIONARY
360
3E7
102
}
330
2A
100
AcDbVisualStyle
  2
Gouraud
 70
     2
 71
     2
 72
     2
 73
     1
 90
        2
 40
-0.6
 41
30.0
 62
     5
 63
     7
 74
     0
 91
        4
 64
     7
 65
   257
 75
     1
175
     1
 42
1.0
 92
        0
 66
     7
 43
1.0
 76
     1
 77
     6
 78
     2
 67
     7
 79
     5
170
     0
171
     0
290
     0
174
     0
 93
       13
 44
0.0
173
     0
291
     1
 45
0.0
1001
ACAD
1000
AcDbSavedByObjectVersion
1070
     0
  0
VISUALSTYLE
  5
2E
102
{ACAD_REACTORS
330
2A
102
}
102
{ACAD_XDICTIONARY
360
3E9
102
}
330
2A
100
AcDbVisualStyle
  2
GouraudWithEdges
 70
     3
 71
     2
 72
     2
 73
     1
 90
        2
 40
-0.6
 41
30.0
 62
     5
 63
     7
 74
     1
 91
        4
 64
     7
 65
   257
 75
     1
175
     1
 42
1.0
 92
        0
 66
   257
 43
1.0
 76
     1
 77
     6
 78
     2
 67
     7
 79
     5
170
     0
171
     0
290
     0
174
     0
 93
       13
 44
0.0
173
     0
291
     1
 45
0.0
1001
ACAD
1000
AcDbSavedByObjectVersion
1070
     0
  0
VISUALSTYLE
  5
38
102
{ACAD_REACTORS
330
2A
102
}
102
{ACAD_XDICTIONARY
360
3FD
102
}
330
2A
100
AcDbVisualStyle
  2
Linepattern
 70
    14
 71
     2
 72
     2
 73
     0
 90
        0
 40
-0.6
 41
-30.0
 62
     5
 63
     7
 74
     1
 91
        4
 64
     7
 65
   257
 75
     7
175
     7
 42
1.0
 92
        8
 66
     7
 43
1.0
 76
     1
 77
     6
 78
     2
 67
     7
 79
     5
170
     0
171
     0
290
     0
174
     0
 93
        1
 44
0.0
173
     0
291
     1
 45
0.0
1001
ACAD
1000
AcDbSavedByObjectVersion
1070
     0
  0
VISUALSTYLE
  5
33
102
{ACAD_REACTORS
330
2A
102
}
102
{ACAD_XDICTIONARY
360
3F3
102
}
330
2A
100
AcDbVisualStyle
  2
Realistic
 70
     8
 71
     2
 72
     2
 73
     0
 90
        0
 40
-0.6
 41
-30.0
 62
     5
 63
     7
 74
     1
 91
        0
 64
     7
 65
   257
 75
     1
175
     1
 42
1.0
 92
        8
 66
     8
 43
1.0
 76
     1
 77
     6
 78
     2
 67
     7
 79
     5
170
     0
171
     0
290
     0
174
     0
 93
       13
 44
0.0
173
     0
291
     0
 45
0.0
1001
ACAD
1000
AcDbSavedByObjectVersion
1070
     0
  0
VISUALSTYLE
  5
37
102
{ACAD_REACTORS
330
2A
102
}
102
{ACAD_XDICTIONARY
360
3FB
102
}
330
2A
100
AcDbVisualStyle
  2
Thicken
 70
    13
 71
     2
 72
     2
 73
     0
 90
        0
 40
-0.6
 41
-30.0
 62
     5
 63
     7
 74
     1
 91
        4
 64
     7
 65
   257
 75
     1
175
     1
 42
1.0
 92
       12
 66
     7
 43
1.0
 76
     1
 77
     6
 78
     2
 67
     7
 79
     5
170
     0
171
     0
290
     0
174
     0
 93
        1
 44
0.0
173
     0
291
     1
 45
0.0
1001
ACAD
1000
AcDbSavedByObjectVersion
1070
     0
  0
DICTIONARYVAR
  5
3E1
102
{ACAD_REACTORS
330
3DC
102
}
330
3DC
100
DictionaryVariables
280
     0
  1
2
  0
DICTIONARYVAR
  5
3E2
102
{ACAD_REACTORS
330
3DC
102
}
330
3DC
100
DictionaryVariables
280
     0
  1
1
  0
DICTIONARYVAR
  5
3E0
102
{ACAD_REACTORS
330
3DC
102
}
330
3DC
100
DictionaryVariables
280
     0
  1
80.000000
  0
DICTIONARYVAR
  5
3DF
102
{ACAD_REACTORS
330
3DC
102
}
330
3DC
100
DictionaryVariables
280
     0
  1
5.000000
  0
DICTIONARY
  5
405
330
3D
100
AcDbDictionary
280
     1
281
     1
  3
ACAD_XREC_ROUNDTRIP
360
406
  0
DICTIONARY
  5
403
330
3C
100
AcDbDictionary
280
     1
281
     1
  3
ACAD_XREC_ROUNDTRIP
360
404
  0
DICTIONARY
  5
407
330
3E
100
AcDbDictionary
280
     1
281
     1
  3
ACAD_XREC_ROUNDTRIP
360
408
  0
DICTIONARY
  5
3EB
330
2F
100
AcDbDictionary
280
     1
281
     1
  3
ACAD_XREC_ROUNDTRIP
360
3EC
  0
DICTIONARY
  5
3EF
330
31
100
AcDbDictionary
280
     1
281
     1
  3
ACAD_XREC_ROUNDTRIP
360
3F0
  0
DICTIONARY
  5
3ED
330
30
100
AcDbDictionary
280
     1
281
     1
  3
ACAD_XREC_ROUNDTRIP
360
3EE
  0
DICTIONARY
  5
3F1
330
32
100
AcDbDictionary
280
     1
281
     1
  3
ACAD_XREC_ROUNDTRIP
360
3F2
  0
DICTIONARY
  5
3F9
330
36
100
AcDbDictionary
280
     1
281
     1
  3
ACAD_XREC_ROUNDTRIP
360
3FA
  0
DICTIONARY
  5
401
330
3A
100
AcDbDictionary
280
     1
281
     1
  3
ACAD_XREC_ROUNDTRIP
360
402
  0
DICTIONARY
  5
3F5
330
34
100
AcDbDictionary
280
     1
281
     1
  3
ACAD_XREC_ROUNDTRIP
360
3F6
  0
DICTIONARY
  5
3F7
330
35
100
AcDbDictionary
280
     1
281
     1
  3
ACAD_XREC_ROUNDTRIP
360
3F8
  0
DICTIONARY
  5
3FF
330
39
100
AcDbDictionary
280
     1
281
     1
  3
ACAD_XREC_ROUNDTRIP
360
400
  0
DICTIONARY
  5
3E3
330
2B
100
AcDbDictionary
280
     1
281
     1
  3
ACAD_XREC_ROUNDTRIP
360
3E4
  0
DICTIONARY
  5
3E5
330
2C
100
AcDbDictionary
280
     1
281
     1
  3
ACAD_XREC_ROUNDTRIP
360
3E6
  0
DICTIONARY
  5
3E7
330
2D
100
AcDbDictionary
280
     1
281
     1
  3
ACAD_XREC_ROUNDTRIP
360
3E8
  0
DICTIONARY
  5
3E9
330
2E
100
AcDbDictionary
280
     1
281
     1
  3
ACAD_XREC_ROUNDTRIP
360
3EA
  0
DICTIONARY
  5
3FD
330
38
100
AcDbDictionary
280
     1
281
     1
  3
ACAD_XREC_ROUNDTRIP
360
3FE
  0
DICTIONARY
  5
3F3
330
33
100
AcDbDictionary
280
     1
281
     1
  3
ACAD_XREC_ROUNDTRIP
360
3F4
  0
DICTIONARY
  5
3FB
330
37
100
AcDbDictionary
280
     1
281
     1
  3
ACAD_XREC_ROUNDTRIP
360
3FC
  0
XRECORD
  5
406
102
{ACAD_REACTORS
330
405
102
}
330
405
100
AcDbXrecord
280
     1
102
MATERIAL
148
0.0
149
0.0
149
0.0
 93
        0
 94
      127
282
     0
 72
     1
 77
     1
171
     1
175
     1
179
     1
273
     0
  0
XRECORD
  5
404
102
{ACAD_REACTORS
330
403
102
}
330
403
100
AcDbXrecord
280
     1
102
MATERIAL
148
0.0
149
0.0
149
0.0
 93
        0
 94
      127
282
     0
 72
     1
 77
     1
171
     1
175
     1
179
     1
273
     0
  0
XRECORD
  5
408
102
{ACAD_REACTORS
330
407
102
}
330
407
100
AcDbXrecord
280
     1
102
MATERIAL
148
0.0
149
0.0
149
0.0
 93
        0
 94
      127
282
     0
 72
     1
 77
     1
171
     1
175
     1
179
     1
273
     0
  0
XRECORD
  5
3EC
102
{ACAD_REACTORS
330
3EB
102
}
330
3EB
100
AcDbXrecord
280
     1
102
RTVSPropertyOp0
 70
     1
102
RTVSPropertyOp1
 70
     1
102
RTVSPropertyOp2
 70
     1
102
RTVSPropertyOp3
 70
     1
102
RTVSPropertyOp4
 70
     1
102
RTVSPropertyOp5
 70
     1
102
RTVSPropertyOp6
 70
     1
102
RTVSPropertyOp7
 70
     1
102
RTVSPropertyOp8
 70
     1
102
RTVSPropertyOp9
 70
     1
102
RTVSPropertyOp10
 70
     1
102
RTVSPropertyOp11
 70
     1
102
RTVSPropertyOp12
 70
     1
102
RTVSPropertyOp13
 70
     1
102
RTVSPropertyOp14
 70
     1
102
RTVSPropertyOp15
 70
     1
102
RTVSPropertyOp16
 70
     1
102
RTVSPropertyOp17
 70
     1
102
RTVSPropertyOp18
 70
     1
102
RTVSPropertyOp19
 70
     1
102
RTVSPropertyOp20
 70
     1
102
RTVSPropertyOp21
 70
     1
102
RTVSPropertyOp22
 70
     1
102
RTVSPropertyOp23
 70
     1
102
RTVSPropertyOp24
 70
     1
102
RTVSPropertyOp25
 70
     1
102
RTVSPropertyOp26
 70
     1
102
RTVSPropertyOp27
 70
     1
  0
XRECORD
  5
3F0
102
{ACAD_REACTORS
330
3EF
102
}
330
3EF
100
AcDbXrecord
280
     1
102
RTVSPropertyOp0
 70
     1
102
RTVSPropertyOp1
 70
     1
102
RTVSPropertyOp2
 70
     1
102
RTVSPropertyOp3
 70
     1
102
RTVSPropertyOp4
 70
     1
102
RTVSPropertyOp5
 70
     1
102
RTVSPropertyOp6
 70
     1
102
RTVSPropertyOp7
 70
     1
102
RTVSPropertyOp8
 70
     1
102
RTVSPropertyOp9
 70
     1
102
RTVSPropertyOp10
 70
     1
102
RTVSPropertyOp11
 70
     1
102
RTVSPropertyOp12
 70
     1
102
RTVSPropertyOp13
 70
     1
102
RTVSPropertyOp14
 70
     1
102
RTVSPropertyOp15
 70
     1
102
RTVSPropertyOp16
 70
     1
102
RTVSPropertyOp17
 70
     1
102
RTVSPropertyOp18
 70
     1
102
RTVSPropertyOp19
 70
     1
102
RTVSPropertyOp20
 70
     1
102
RTVSPropertyOp21
 70
     1
102
RTVSPropertyOp22
 70
     1
102
RTVSPropertyOp23
 70
     1
102
RTVSPropertyOp24
 70
     1
102
RTVSPropertyOp25
 70
     1
102
RTVSPropertyOp26
 70
     1
102
RTVSPropertyOp27
 70
     1
  0
XRECORD
  5
3EE
102
{ACAD_REACTORS
330
3ED
102
}
330
3ED
100
AcDbXrecord
280
     1
102
RTVSPropertyOp0
 70
     1
102
RTVSPropertyOp1
 70
     1
102
RTVSPropertyOp2
 70
     1
102
RTVSPropertyOp3
 70
     1
102
RTVSPropertyOp4
 70
     1
102
RTVSPropertyOp5
 70
     1
102
RTVSPropertyOp6
 70
     1
102
RTVSPropertyOp7
 70
     1
102
RTVSPropertyOp8
 70
     1
102
RTVSPropertyOp9
 70
     1
102
RTVSPropertyOp10
 70
     1
102
RTVSPropertyOp11
 70
     1
102
RTVSPropertyOp12
 70
     1
102
RTVSPropertyOp13
 70
     1
102
RTVSPropertyOp14
 70
     1
102
RTVSPropertyOp15
 70
     1
102
RTVSPropertyOp16
 70
     1
102
RTVSPropertyOp17
 70
     1
102
RTVSPropertyOp18
 70
     1
102
RTVSPropertyOp19
 70
     1
102
RTVSPropertyOp20
 70
     1
102
RTVSPropertyOp21
 70
     1
102
RTVSPropertyOp22
 70
     1
102
RTVSPropertyOp23
 70
     1
102
RTVSPropertyOp24
 70
     1
102
RTVSPropertyOp25
 70
     1
102
RTVSPropertyOp26
 70
     1
102
RTVSPropertyOp27
 70
     1
  0
XRECORD
  5
3F2
102
{ACAD_REACTORS
330
3F1
102
}
330
3F1
100
AcDbXrecord
280
     1
102
RTVSPropertyOp0
 70
     1
102
RTVSPropertyOp1
 70
     1
102
RTVSPropertyOp2
 70
     1
102
RTVSPropertyOp3
 70
     1
102
RTVSPropertyOp4
 70
     1
102
RTVSPropertyOp5
 70
     1
102
RTVSPropertyOp6
 70
     1
102
RTVSPropertyOp7
 70
     1
102
RTVSPropertyOp8
 70
     1
102
RTVSPropertyOp9
 70
     1
102
RTVSPropertyOp10
 70
     1
102
RTVSPropertyOp11
 70
     1
102
RTVSPropertyOp12
 70
     1
102
RTVSPropertyOp13
 70
     1
102
RTVSPropertyOp14
 70
     1
102
RTVSPropertyOp15
 70
     1
102
RTVSPropertyOp16
 70
     1
102
RTVSPropertyOp17
 70
     1
102
RTVSPropertyOp18
 70
     1
102
RTVSPropertyOp19
 70
     1
102
RTVSPropertyOp20
 70
     1
102
RTVSPropertyOp21
 70
     1
102
RTVSPropertyOp22
 70
     1
102
RTVSPropertyOp23
 70
     1
102
RTVSPropertyOp24
 70
     1
102
RTVSPropertyOp25
 70
     1
102
RTVSPropertyOp26
 70
     1
102
RTVSPropertyOp27
 70
     1
  0
XRECORD
  5
3FA
102
{ACAD_REACTORS
330
3F9
102
}
330
3F9
100
AcDbXrecord
280
     1
102
RTVSPropertyOp0
 70
     1
102
RTVSPropertyOp1
 70
     1
102
RTVSPropertyOp2
 70
     1
102
RTVSPropertyOp3
 70
     1
102
RTVSPropertyOp4
 70
     1
102
RTVSPropertyOp5
 70
     1
102
RTVSPropertyOp6
 70
     1
102
RTVSPropertyOp7
 70
     1
102
RTVSPropertyOp8
 70
     1
102
RTVSPropertyOp9
 70
     1
102
RTVSPropertyOp10
 70
     1
102
RTVSPropertyOp11
 70
     1
102
RTVSPropertyOp12
 70
     1
102
RTVSPropertyOp13
 70
     1
102
RTVSPropertyOp14
 70
     1
102
RTVSPropertyOp15
 70
     1
102
RTVSPropertyOp16
 70
     1
102
RTVSPropertyOp17
 70
     1
102
RTVSPropertyOp18
 70
     1
102
RTVSPropertyOp19
 70
     1
102
RTVSPropertyOp20
 70
     1
102
RTVSPropertyOp21
 70
     1
102
RTVSPropertyOp22
 70
     1
102
RTVSPropertyOp23
 70
     1
102
RTVSPropertyOp24
 70
     1
102
RTVSPropertyOp25
 70
     1
102
RTVSPropertyOp26
 70
     1
102
RTVSPropertyOp27
 70
     1
  0
XRECORD
  5
402
102
{ACAD_REACTORS
330
401
102
}
330
401
100
AcDbXrecord
280
     1
102
RTVSPropertyOp0
 70
     1
102
RTVSPropertyOp1
 70
     1
102
RTVSPropertyOp2
 70
     1
102
RTVSPropertyOp3
 70
     1
102
RTVSPropertyOp4
 70
     1
102
RTVSPropertyOp5
 70
     1
102
RTVSPropertyOp6
 70
     1
102
RTVSPropertyOp7
 70
     1
102
RTVSPropertyOp8
 70
     1
102
RTVSPropertyOp9
 70
     1
102
RTVSPropertyOp10
 70
     1
102
RTVSPropertyOp11
 70
     1
102
RTVSPropertyOp12
 70
     1
102
RTVSPropertyOp13
 70
     1
102
RTVSPropertyOp14
 70
     1
102
RTVSPropertyOp15
 70
     1
102
RTVSPropertyOp16
 70
     1
102
RTVSPropertyOp17
 70
     1
102
RTVSPropertyOp18
 70
     1
102
RTVSPropertyOp19
 70
     1
102
RTVSPropertyOp20
 70
     1
102
RTVSPropertyOp21
 70
     1
102
RTVSPropertyOp22
 70
     1
102
RTVSPropertyOp23
 70
     1
102
RTVSPropertyOp24
 70
     1
102
RTVSPropertyOp25
 70
     1
102
RTVSPropertyOp26
 70
     1
102
RTVSPropertyOp27
 70
     1
  0
XRECORD
  5
3F6
102
{ACAD_REACTORS
330
3F5
102
}
330
3F5
100
AcDbXrecord
280
     1
102
RTVSPropertyOp0
 70
     1
102
RTVSPropertyOp1
 70
     1
102
RTVSPropertyOp2
 70
     1
102
RTVSPropertyOp3
 70
     1
102
RTVSPropertyOp4
 70
     1
102
RTVSPropertyOp5
 70
     1
102
RTVSPropertyOp6
 70
     1
102
RTVSPropertyOp7
 70
     1
102
RTVSPropertyOp8
 70
     1
102
RTVSPropertyOp9
 70
     1
102
RTVSPropertyOp10
 70
     1
102
RTVSPropertyOp11
 70
     1
102
RTVSPropertyOp12
 70
     1
102
RTVSPropertyOp13
 70
     1
102
RTVSPropertyOp14
 70
     1
102
RTVSPropertyOp15
 70
     1
102
RTVSPropertyOp16
 70
     1
102
RTVSPropertyOp17
 70
     1
102
RTVSPropertyOp18
 70
     1
102
RTVSPropertyOp19
 70
     1
102
RTVSPropertyOp20
 70
     1
102
RTVSPropertyOp21
 70
     1
102
RTVSPropertyOp22
 70
     1
102
RTVSPropertyOp23
 70
     1
102
RTVSPropertyOp24
 70
     1
102
RTVSPropertyOp25
 70
     1
102
RTVSPropertyOp26
 70
     1
102
RTVSPropertyOp27
 70
     1
  0
XRECORD
  5
3F8
102
{ACAD_REACTORS
330
3F7
102
}
330
3F7
100
AcDbXrecord
280
     1
102
RTVSPropertyOp0
 70
     1
102
RTVSPropertyOp1
 70
     1
102
RTVSPropertyOp2
 70
     1
102
RTVSPropertyOp3
 70
     1
102
RTVSPropertyOp4
 70
     1
102
RTVSPropertyOp5
 70
     1
102
RTVSPropertyOp6
 70
     1
102
RTVSPropertyOp7
 70
     1
102
RTVSPropertyOp8
 70
     1
102
RTVSPropertyOp9
 70
     1
102
RTVSPropertyOp10
 70
     1
102
RTVSPropertyOp11
 70
     1
102
RTVSPropertyOp12
 70
     1
102
RTVSPropertyOp13
 70
     1
102
RTVSPropertyOp14
 70
     1
102
RTVSPropertyOp15
 70
     1
102
RTVSPropertyOp16
 70
     1
102
RTVSPropertyOp17
 70
     1
102
RTVSPropertyOp18
 70
     1
102
RTVSPropertyOp19
 70
     1
102
RTVSPropertyOp20
 70
     1
102
RTVSPropertyOp21
 70
     1
102
RTVSPropertyOp22
 70
     1
102
RTVSPropertyOp23
 70
     1
102
RTVSPropertyOp24
 70
     1
102
RTVSPropertyOp25
 70
     1
102
RTVSPropertyOp26
 70
     1
102
RTVSPropertyOp27
 70
     1
  0
XRECORD
  5
400
102
{ACAD_REACTORS
330
3FF
102
}
330
3FF
100
AcDbXrecord
280
     1
102
RTVSPropertyOp0
 70
     1
102
RTVSPropertyOp1
 70
     1
102
RTVSPropertyOp2
 70
     1
102
RTVSPropertyOp3
 70
     1
102
RTVSPropertyOp4
 70
     1
102
RTVSPropertyOp5
 70
     1
102
RTVSPropertyOp6
 70
     1
102
RTVSPropertyOp7
 70
     1
102
RTVSPropertyOp8
 70
     1
102
RTVSPropertyOp9
 70
     1
102
RTVSPropertyOp10
 70
     1
102
RTVSPropertyOp11
 70
     1
102
RTVSPropertyOp12
 70
     1
102
RTVSPropertyOp13
 70
     1
102
RTVSPropertyOp14
 70
     1
102
RTVSPropertyOp15
 70
     1
102
RTVSPropertyOp16
 70
     1
102
RTVSPropertyOp17
 70
     1
102
RTVSPropertyOp18
 70
     1
102
RTVSPropertyOp19
 70
     1
102
RTVSPropertyOp20
 70
     1
102
RTVSPropertyOp21
 70
     1
102
RTVSPropertyOp22
 70
     1
102
RTVSPropertyOp23
 70
     1
102
RTVSPropertyOp24
 70
     1
102
RTVSPropertyOp25
 70
     1
102
RTVSPropertyOp26
 70
     1
102
RTVSPropertyOp27
 70
     1
  0
XRECORD
  5
3E4
102
{ACAD_REACTORS
330
3E3
102
}
330
3E3
100
AcDbXrecord
280
     1
102
RTVSPropertyOp0
 70
     1
102
RTVSPropertyOp1
 70
     1
102
RTVSPropertyOp2
 70
     1
102
RTVSPropertyOp3
 70
     1
102
RTVSPropertyOp4
 70
     1
102
RTVSPropertyOp5
 70
     1
102
RTVSPropertyOp6
 70
     1
102
RTVSPropertyOp7
 70
     1
102
RTVSPropertyOp8
 70
     1
102
RTVSPropertyOp9
 70
     1
102
RTVSPropertyOp10
 70
     1
102
RTVSPropertyOp11
 70
     1
102
RTVSPropertyOp12
 70
     1
102
RTVSPropertyOp13
 70
     1
102
RTVSPropertyOp14
 70
     1
102
RTVSPropertyOp15
 70
     1
102
RTVSPropertyOp16
 70
     1
102
RTVSPropertyOp17
 70
     1
102
RTVSPropertyOp18
 70
     1
102
RTVSPropertyOp19
 70
     1
102
RTVSPropertyOp20
 70
     1
102
RTVSPropertyOp21
 70
     1
102
RTVSPropertyOp22
 70
     1
102
RTVSPropertyOp23
 70
     1
102
RTVSPropertyOp24
 70
     1
102
RTVSPropertyOp25
 70
     1
102
RTVSPropertyOp26
 70
     1
102
RTVSPropertyOp27
 70
     1
  0
XRECORD
  5
3E6
102
{ACAD_REACTORS
330
3E5
102
}
330
3E5
100
AcDbXrecord
280
     1
102
RTVSPropertyOp0
 70
     1
102
RTVSPropertyOp1
 70
     1
102
RTVSPropertyOp2
 70
     1
102
RTVSPropertyOp3
 70
     1
102
RTVSPropertyOp4
 70
     1
102
RTVSPropertyOp5
 70
     1
102
RTVSPropertyOp6
 70
     1
102
RTVSPropertyOp7
 70
     1
102
RTVSPropertyOp8
 70
     1
102
RTVSPropertyOp9
 70
     1
102
RTVSPropertyOp10
 70
     1
102
RTVSPropertyOp11
 70
     1
102
RTVSPropertyOp12
 70
     1
102
RTVSPropertyOp13
 70
     1
102
RTVSPropertyOp14
 70
     1
102
RTVSPropertyOp15
 70
     1
102
RTVSPropertyOp16
 70
     1
102
RTVSPropertyOp17
 70
     1
102
RTVSPropertyOp18
 70
     1
102
RTVSPropertyOp19
 70
     1
102
RTVSPropertyOp20
 70
     1
102
RTVSPropertyOp21
 70
     1
102
RTVSPropertyOp22
 70
     1
102
RTVSPropertyOp23
 70
     1
102
RTVSPropertyOp24
 70
     1
102
RTVSPropertyOp25
 70
     1
102
RTVSPropertyOp26
 70
     1
102
RTVSPropertyOp27
 70
     1
  0
XRECORD
  5
3E8
102
{ACAD_REACTORS
330
3E7
102
}
330
3E7
100
AcDbXrecord
280
     1
102
RTVSPropertyOp0
 70
     1
102
RTVSPropertyOp1
 70
     1
102
RTVSPropertyOp2
 70
     1
102
RTVSPropertyOp3
 70
     1
102
RTVSPropertyOp4
 70
     1
102
RTVSPropertyOp5
 70
     1
102
RTVSPropertyOp6
 70
     1
102
RTVSPropertyOp7
 70
     1
102
RTVSPropertyOp8
 70
     1
102
RTVSPropertyOp9
 70
     1
102
RTVSPropertyOp10
 70
     1
102
RTVSPropertyOp11
 70
     1
102
RTVSPropertyOp12
 70
     1
102
RTVSPropertyOp13
 70
     1
102
RTVSPropertyOp14
 70
     1
102
RTVSPropertyOp15
 70
     1
102
RTVSPropertyOp16
 70
     1
102
RTVSPropertyOp17
 70
     1
102
RTVSPropertyOp18
 70
     1
102
RTVSPropertyOp19
 70
     1
102
RTVSPropertyOp20
 70
     1
102
RTVSPropertyOp21
 70
     1
102
RTVSPropertyOp22
 70
     1
102
RTVSPropertyOp23
 70
     1
102
RTVSPropertyOp24
 70
     1
102
RTVSPropertyOp25
 70
     1
102
RTVSPropertyOp26
 70
     1
102
RTVSPropertyOp27
 70
     1
  0
XRECORD
  5
3EA
102
{ACAD_REACTORS
330
3E9
102
}
330
3E9
100
AcDbXrecord
280
     1
102
RTVSPropertyOp0
 70
     1
102
RTVSPropertyOp1
 70
     1
102
RTVSPropertyOp2
 70
     1
102
RTVSPropertyOp3
 70
     1
102
RTVSPropertyOp4
 70
     1
102
RTVSPropertyOp5
 70
     1
102
RTVSPropertyOp6
 70
     1
102
RTVSPropertyOp7
 70
     1
102
RTVSPropertyOp8
 70
     1
102
RTVSPropertyOp9
 70
     1
102
RTVSPropertyOp10
 70
     1
102
RTVSPropertyOp11
 70
     1
102
RTVSPropertyOp12
 70
     1
102
RTVSPropertyOp13
 70
     1
102
RTVSPropertyOp14
 70
     1
102
RTVSPropertyOp15
 70
     1
102
RTVSPropertyOp16
 70
     1
102
RTVSPropertyOp17
 70
     1
102
RTVSPropertyOp18
 70
     1
102
RTVSPropertyOp19
 70
     1
102
RTVSPropertyOp20
 70
     1
102
RTVSPropertyOp21
 70
     1
102
RTVSPropertyOp22
 70
     1
102
RTVSPropertyOp23
 70
     1
102
RTVSPropertyOp24
 70
     1
102
RTVSPropertyOp25
 70
     1
102
RTVSPropertyOp26
 70
     1
102
RTVSPropertyOp27
 70
     1
  0
XRECORD
  5
3FE
102
{ACAD_REACTORS
330
3FD
102
}
330
3FD
100
AcDbXrecord
280
     1
102
RTVSPropertyOp0
 70
     1
102
RTVSPropertyOp1
 70
     1
102
RTVSPropertyOp2
 70
     1
102
RTVSPropertyOp3
 70
     1
102
RTVSPropertyOp4
 70
     1
102
RTVSPropertyOp5
 70
     1
102
RTVSPropertyOp6
 70
     1
102
RTVSPropertyOp7
 70
     1
102
RTVSPropertyOp8
 70
     1
102
RTVSPropertyOp9
 70
     1
102
RTVSPropertyOp10
 70
     1
102
RTVSPropertyOp11
 70
     1
102
RTVSPropertyOp12
 70
     1
102
RTVSPropertyOp13
 70
     1
102
RTVSPropertyOp14
 70
     1
102
RTVSPropertyOp15
 70
     1
102
RTVSPropertyOp16
 70
     1
102
RTVSPropertyOp17
 70
     1
102
RTVSPropertyOp18
 70
     1
102
RTVSPropertyOp19
 70
     1
102
RTVSPropertyOp20
 70
     1
102
RTVSPropertyOp21
 70
     1
102
RTVSPropertyOp22
 70
     1
102
RTVSPropertyOp23
 70
     1
102
RTVSPropertyOp24
 70
     1
102
RTVSPropertyOp25
 70
     1
102
RTVSPropertyOp26
 70
     1
102
RTVSPropertyOp27
 70
     1
  0
XRECORD
  5
3F4
102
{ACAD_REACTORS
330
3F3
102
}
330
3F3
100
AcDbXrecord
280
     1
102
RTVSPropertyOp0
 70
     1
102
RTVSPropertyOp1
 70
     1
102
RTVSPropertyOp2
 70
     1
102
RTVSPropertyOp3
 70
     1
102
RTVSPropertyOp4
 70
     1
102
RTVSPropertyOp5
 70
     1
102
RTVSPropertyOp6
 70
     1
102
RTVSPropertyOp7
 70
     1
102
RTVSPropertyOp8
 70
     1
102
RTVSPropertyOp9
 70
     1
102
RTVSPropertyOp10
 70
     1
102
RTVSPropertyOp11
 70
     1
102
RTVSPropertyOp12
 70
     1
102
RTVSPropertyOp13
 70
     1
102
RTVSPropertyOp14
 70
     1
102
RTVSPropertyOp15
 70
     1
102
RTVSPropertyOp16
 70
     1
102
RTVSPropertyOp17
 70
     1
102
RTVSPropertyOp18
 70
     1
102
RTVSPropertyOp19
 70
     1
102
RTVSPropertyOp20
 70
     1
102
RTVSPropertyOp21
 70
     1
102
RTVSPropertyOp22
 70
     1
102
RTVSPropertyOp23
 70
     1
102
RTVSPropertyOp24
 70
     1
102
RTVSPropertyOp25
 70
     1
102
RTVSPropertyOp26
 70
     1
102
RTVSPropertyOp27
 70
     1
  0
XRECORD
  5
3FC
102
{ACAD_REACTORS
330
3FB
102
}
330
3FB
100
AcDbXrecord
280
     1
102
RTVSPropertyOp0
 70
     1
102
RTVSPropertyOp1
 70
     1
102
RTVSPropertyOp2
 70
     1
102
RTVSPropertyOp3
 70
     1
102
RTVSPropertyOp4
 70
     1
102
RTVSPropertyOp5
 70
     1
102
RTVSPropertyOp6
 70
     1
102
RTVSPropertyOp7
 70
     1
102
RTVSPropertyOp8
 70
     1
102
RTVSPropertyOp9
 70
     1
102
RTVSPropertyOp10
 70
     1
102
RTVSPropertyOp11
 70
     1
102
RTVSPropertyOp12
 70
     1
102
RTVSPropertyOp13
 70
     1
102
RTVSPropertyOp14
 70
     1
102
RTVSPropertyOp15
 70
     1
102
RTVSPropertyOp16
 70
     1
102
RTVSPropertyOp17
 70
     1
102
RTVSPropertyOp18
 70
     1
102
RTVSPropertyOp19
 70
     1
102
RTVSPropertyOp20
 70
     1
102
RTVSPropertyOp21
 70
     1
102
RTVSPropertyOp22
 70
     1
102
RTVSPropertyOp23
 70
     1
102
RTVSPropertyOp24
 70
     1
102
RTVSPropertyOp25
 70
     1
102
RTVSPropertyOp26
 70
     1
102
RTVSPropertyOp27
 70
     1
  0
ENDSEC
  0
EOF
