  0
SECTION
  2
HEADER
  9
$ACADVER
  1
AC1014
  9
$ACADMAINTVER
 70
     9
  9
$DWGCODEPAGE
  3
ANSI_932
  9
$INSBASE
 10
0.0
 20
0.0
 30
0.0
  9
$EXTMIN
 10
0.0
 20
0.0
 30
0.0
  9
$EXTMAX
 10
594.0
 20
420.0
 30
0.0
  9
$LIMMIN
 10
0.0
 20
0.0
  9
$LIMMAX
 10
594.0
 20
420.0
  9
$ORTHOMODE
 70
     0
  9
$REGENMODE
 70
     1
  9
$FILLMODE
 70
     1
  9
$QTEXTMODE
 70
     0
  9
$MIRRTEXT
 70
     1
  9
$DRAGMODE
 70
     2
  9
$LTSCALE
 40
1.0
  9
$OSMODE
 70
    37
  9
$ATTMODE
 70
     1
  9
$TEXTSIZE
 40
0.2
  9
$TRACEWID
 40
0.05
  9
$TEXTSTYLE
  7
STYLE1
  9
$CLAYER
  8
0
  9
$CELTYPE
  6
BYLAYER
  9
$CECOLOR
 62
   256
  9
$CELTSCALE
 40
1.0
  9
$DELOBJ
 70
     1
  9
$DISPSILH
 70
     0
  9
$DIMSCALE
 40
1.0
  9
$DIMASZ
 40
4.0
  9
$DIMEXO
 40
1.0
  9
$DIMDLI
 40
10.0
  9
$DIMRND
 40
0.0
  9
$DIMDLE
 40
6.0
  9
$DIMEXE
 40
1.0
  9
$DIMTP
 40
0.0
  9
$DIMTM
 40
0.0
  9
$DIMTXT
 40
4.0
  9
$DIMCEN
 40
2.5
  9
$DIMTSZ
 40
0.0
  9
$DIMTOL
 70
     0
  9
$DIMLIM
 70
     0
  9
$DIMTIH
 70
     0
  9
$DIMTOH
 70
     0
  9
$DIMSE1
 70
     0
  9
$DIMSE2
 70
     0
  9
$DIMTAD
 70
     1
  9
$DIMZIN
 70
     8
  9
$DIMBLK
  1

  9
$DIMASO
 70
     1
  9
$DIMSHO
 70
     1
  9
$DIMPOST
  1

  9
$DIMAPOST
  1

  9
$DIMALT
 70
     0
  9
$DIMALTD
 70
     3
  9
$DIMALTF
 40
0.03937
  9
$DIMLFAC
 40
1.0
  9
$DIMTOFL
 70
     1
  9
$DIMTVP
 40
0.0
  9
$DIMTIX
 70
     0
  9
$DIMSOXD
 70
     0
  9
$DIMSAH
 70
     1
  9
$DIMBLK1
  1
FXTIP_ARROW_S
  9
$DIMBLK2
  1
FXTIP_ARROW_E
  9
$DIMSTYLE
  2
FXDIMINFO
  9
$DIMCLRD
 70
     7
  9
$DIMCLRE
 70
     7
  9
$DIMCLRT
 70
     7
  9
$DIMTFAC
 40
1.0
  9
$DIMGAP
 40
1.0
  9
$DIMJUST
 70
     0
  9
$DIMSD1
 70
     0
  9
$DIMSD2
 70
     0
  9
$DIMTOLJ
 70
     0
  9
$DIMTZIN
 70
     8
  9
$DIMALTZ
 70
     0
  9
$DIMALTTZ
 70
     0
  9
$DIMFIT
 70
     3
  9
$DIMUPT
 70
     0
  9
$DIMUNIT
 70
     2
  9
$DIMDEC
 70
     2
  9
$DIMTDEC
 70
     2
  9
$DIMALTU
 70
     2
  9
$DIMALTTD
 70
     3
  9
$DIMTXSTY
  7
STYLE1
  9
$DIMAUNIT
 70
     0
  9
$LUNITS
 70
     2
  9
$LUPREC
 70
     4
  9
$SKETCHINC
 40
0.1
  9
$FILLETRAD
 40
0.5
  9
$AUNITS
 70
     0
  9
$AUPREC
 70
     0
  9
$MENU
  1
.
  9
$ELEVATION
 40
0.0
  9
$PELEVATION
 40
0.0
  9
$THICKNESS
 40
0.0
  9
$LIMCHECK
 70
     0
  9
$CHAMFERA
 40
0.5
  9
$CHAMFERB
 40
0.5
  9
$CHAMFERC
 40
1.0
  9
$CHAMFERD
 40
0.0
  9
$SKPOLY
 70
     0
  9
$TDCREATE
 40
2455307.682175903
  9
$TDUPDATE
 40
2455307.682175914
  9
$TDINDWG
 40
0.0000000116
  9
$TDUSRTIMER
 40
0.0000000116
  9
$USRTIMER
 70
     1
  9
$ANGBASE
 50
0.0
  9
$ANGDIR
 70
     0
  9
$PDMODE
 70
     0
  9
$PDSIZE
 40
0.0
  9
$PLINEWID
 40
0.0
  9
$COORDS
 70
     1
  9
$SPLFRAME
 70
     0
  9
$SPLINETYPE
 70
     6
  9
$SPLINESEGS
 70
     8
  9
$ATTDIA
 70
     0
  9
$ATTREQ
 70
     1
  9
$HANDLING
 70
     1
  9
$HANDSEED
  5
2E3
  9
$SURFTAB1
 70
     6
  9
$SURFTAB2
 70
     6
  9
$SURFTYPE
 70
     6
  9
$SURFU
 70
     6
  9
$SURFV
 70
     6
  9
$UCSNAME
  2

  9
$UCSORG
 10
0.0
 20
0.0
 30
0.0
  9
$UCSXDIR
 10
1.0
 20
0.0
 30
0.0
  9
$UCSYDIR
 10
0.0
 20
1.0
 30
0.0
  9
$PUCSNAME
  2

  9
$PUCSORG
 10
0.0
 20
0.0
 30
0.0
  9
$PUCSXDIR
 10
1.0
 20
0.0
 30
0.0
  9
$PUCSYDIR
 10
0.0
 20
1.0
 30
0.0
  9
$USERI1
 70
     0
  9
$USERI2
 70
     0
  9
$USERI3
 70
     0
  9
$USERI4
 70
     0
  9
$USERI5
 70
     0
  9
$USERR1
 40
0.0
  9
$USERR2
 40
0.0
  9
$USERR3
 40
0.0
  9
$USERR4
 40
0.0
  9
$USERR5
 40
0.0
  9
$WORLDVIEW
 70
     1
  9
$SHADEDGE
 70
     3
  9
$SHADEDIF
 70
    70
  9
$TILEMODE
 70
     1
  9
$MAXACTVP
 70
    64
  9
$PINSBASE
 10
0.0
 20
0.0
 30
0.0
  9
$PLIMCHECK
 70
     0
  9
$PEXTMIN
 10
1.000000E+20
 20
1.000000E+20
 30
1.000000E+20
  9
$PEXTMAX
 10
-1.000000E+20
 20
-1.000000E+20
 30
-1.000000E+20
  9
$PLIMMIN
 10
0.0
 20
0.0
  9
$PLIMMAX
 10
12.0
 20
9.0
  9
$UNITMODE
 70
     0
  9
$VISRETAIN
 70
     1
  9
$PLINEGEN
 70
     0
  9
$PSLTSCALE
 70
     1
  9
$TREEDEPTH
 70
  3020
  9
$PICKSTYLE
 70
     1
  9
$CMLSTYLE
  2
STANDARD
  9
$CMLJUST
 70
     0
  9
$CMLSCALE
 40
1.0
  9
$PROXYGRAPHICS
 70
     1
  9
$MEASUREMENT
 70
     0
  0
ENDSEC
  0
SECTION
  2
CLASSES
  0
CLASS
  1
ACDBDICTIONARYWDFLT
  2
AcDbDictionaryWithDefault
  3
ObjectDBX Classes
 90
        0
280
     0
281
     0
  0
CLASS
  1
XRECORD
  2
AcDbXrecord
  3
AutoCAD 2000
 90
        0
280
     0
281
     0
  0
CLASS
  1
LWPOLYLINE
  2
AcDbPolyline
  3
AutoCAD 2000
 90
        0
280
     0
281
     1
  0
CLASS
  1
HATCH
  2
AcDbHatch
  3
AutoCAD 2000
 90
        0
280
     0
281
     1
  0
CLASS
  1
ACDBPLACEHOLDER
  2
AcDbPlaceHolder
  3
ObjectDBX Classes
 90
        0
280
     0
281
     0
  0
CLASS
  1
LAYOUT
  2
AcDbLayout
  3
ObjectDBX Classes
 90
        0
280
     0
281
     0
  0
ENDSEC
  0
SECTION
  2
TABLES
  0
TABLE
  2
VPORT
  5
8
330
0
100
AcDbSymbolTable
 70
     1
  0
VPORT
  5
29
330
8
100
AcDbSymbolTableRecord
100
AcDbViewportTableRecord
  2
*ACTIVE
 70
     0
 10
0.0
 20
0.0
 11
1.0
 21
1.0
 12
297.0
 22
210.0
 13
0.0
 23
0.0
 14
0.5
 24
0.5
 15
0.5
 25
0.5
 16
0.0
 26
0.0
 36
1.0
 17
0.0
 27
0.0
 37
0.0
 40
420.0
 41
1.414286
 42
50.0
 43
0.0
 44
0.0
 50
0.0
 51
0.0
 71
     0
 72
   100
 73
     1
 74
     3
 75
     0
 76
     0
 77
     0
 78
     0
  0
ENDTAB
  0
TABLE
  2
LTYPE
  5
5
330
0
100
AcDbSymbolTable
 70
     4
  0
LTYPE
  5
14
330
5
100
AcDbSymbolTableRecord
100
AcDbLinetypeTableRecord
  2
BYBLOCK
 70
     0
  3

 72
    65
 73
     0
 40
0.0
  0
LTYPE
  5
15
330
5
100
AcDbSymbolTableRecord
100
AcDbLinetypeTableRecord
  2
BYLAYER
 70
     0
  3

 72
    65
 73
     0
 40
0.0
  0
LTYPE
  5
16
330
5
100
AcDbSymbolTableRecord
100
AcDbLinetypeTableRecord
  2
CONTINUOUS
 70
     0
  3
--------------------
 72
    65
 73
     0
 40
0.0
  0
LTYPE
  5
2A
330
5
100
AcDbSymbolTableRecord
100
AcDbLinetypeTableRecord
  2
CENTER
 70
     0
  3
Center ____ _ ____ _ ____ _ ____ _ ____ _ ____
 72
    65
 73
     4
 40
13.0
 49
10.0
 74
     0
 49
-1.0
 74
     0
 49
1.0
 74
     0
 49
-1.0
 74
     0
  0
ENDTAB
  0
TABLE
  2
LAYER
  5
2
330
0
100
AcDbSymbolTable
 70
    21
  0
LAYER
  5
10
330
2
100
AcDbSymbolTableRecord
100
AcDbLayerTableRecord
  2
0
 70
     0
 62
     7
  6
CONTINUOUS
  0
LAYER
  5
2D
330
2
100
AcDbSymbolTableRecord
100
AcDbLayerTableRecord
  2
LAYERGROUP-1
 70
     0
 62
     3
  6
CONTINUOUS
  0
LAYER
  5
3D
330
2
100
AcDbSymbolTableRecord
100
AcDbLayerTableRecord
  2
}}ﾊﾊGG血CCТ
 70
     0
 62
     3
  6
CONTINUOUS
  0
LAYER
  5
A8
330
2
100
AcDbSymbolTableRecord
100
AcDbLayerTableRecord
  2
GR1-1
 70
     0
 62
     7
  6
CONTINUOUS
  0
LAYER
  5
270
330
2
100
AcDbSymbolTableRecord
100
AcDbLayerTableRecord
  2
0-1
 70
     0
 62
     7
  6
CONTINUOUS
  0
LAYER
  5
293
330
2
100
AcDbSymbolTableRecord
100
AcDbLayerTableRecord
  2
001-1
 70
     0
 62
     7
  6
CONTINUOUS
  0
ENDTAB
  0
TABLE
  2
STYLE
  5
3
330
0
100
AcDbSymbolTable
 70
     4
  0
STYLE
  5
11
330
3
100
AcDbSymbolTableRecord
100
AcDbTextStyleTableRecord
  2
STANDARD
 70
     0
 40
0.0
 41
1.0
 50
0.0
 71
     0
 42
0.2
  3
txt
  4

  0
STYLE
  5
3F
330
3
100
AcDbSymbolTableRecord
100
AcDbTextStyleTableRecord
  2
STYLE1
 70
     0
 40
0.0
 41
1.0
 50
0.0
 71
     0
 42
0.2
  3
MONOTXT.SHX
  4
extfont.shx
  0
STYLE
  5
40
330
3
100
AcDbSymbolTableRecord
100
AcDbTextStyleTableRecord
  2
FX_VECTOR
 70
     0
 40
0.0
 41
1.0
 50
0.0
 71
     0
 42
0.2
  3
MONOTXT.SHX
  4
BIGFONT.SHX
  0
ENDTAB
  0
TABLE
  2
VIEW
  5
6
330
0
100
AcDbSymbolTable
 70
     0
  0
ENDTAB
  0
TABLE
  2
UCS
  5
7
330
0
100
AcDbSymbolTable
 70
     0
  0
ENDTAB
  0
TABLE
  2
APPID
  5
9
330
0
100
AcDbSymbolTable
 70
     1
  0
APPID
  5
12
330
9
100
AcDbSymbolTableRecord
100
AcDbRegAppTableRecord
  2
ACAD
 70
     0
  0
ENDTAB
  0
TABLE
  2
DIMSTYLE
  5
A
330
0
100
AcDbSymbolTable
 70
     2
  0
DIMSTYLE
105
27
330
A
100
AcDbSymbolTableRecord
100
AcDbDimStyleTableRecord
  2
STANDARD
 70
     0
  3

  4

  5

  6

  7

 40
1.0
 41
0.18
 42
0.0625
 43
0.38
 44
0.18
 45
0.0
 46
0.0
 47
0.0
 48
0.0
140
0.18
141
0.09
142
0.0
143
25.4
144
1.0
145
0.0
146
1.0
147
0.09
 71
     0
 72
     0
 73
     1
 74
     1
 75
     0
 76
     0
 77
     0
 78
     0
170
     0
171
     2
172
     0
173
     0
174
     0
175
     0
176
     0
177
     0
178
     0
270
     2
271
     4
272
     4
273
     2
274
     2
340
11
275
     0
280
     0
281
     0
282
     0
283
     1
284
     0
285
     0
286
     0
287
     3
288
     0
  0
DIMSTYLE
105
A7
330
A
100
AcDbSymbolTableRecord
100
AcDbDimStyleTableRecord
  2
FXDIMINFO
 70
     0
  3

  4

  5

  6
FXTIP_ARROW_S
  7
FXTIP_ARROW_E
 40
1.0
 41
4.0
 42
1.0
 43
10.0
 44
1.0
 45
0.0
 46
6.0
 47
0.0
 48
0.0
140
4.0
141
2.5
142
0.0
143
0.03937
144
1.0
145
0.0
146
1.0
147
1.0
 71
     0
 72
     0
 73
     0
 74
     0
 75
     0
 76
     0
 77
     1
 78
     8
170
     0
171
     3
172
     1
173
     1
174
     0
175
     0
176
     7
177
     7
178
     7
179
     2
270
     2
271
     2
272
     2
273
     2
274
     3
340
3F
275
     0
280
     0
281
     0
282
     0
283
     0
284
     8
285
     0
286
     0
287
     3
288
     0
  0
ENDTAB
  0
TABLE
  2
BLOCK_RECORD
  5
1
330
0
100
AcDbSymbolTable
 70
    22
  0
BLOCK_RECORD
  5
1F
330
1
100
AcDbSymbolTableRecord
100
AcDbBlockTableRecord
  2
*MODEL_SPACE
  0
BLOCK_RECORD
  5
1B
330
1
100
AcDbSymbolTableRecord
100
AcDbBlockTableRecord
  2
*PAPER_SPACE
  0
BLOCK_RECORD
  5
41
330
1
100
AcDbSymbolTableRecord
100
AcDbBlockTableRecord
  2
FXTIP_ARROW_S
  0
BLOCK_RECORD
  5
47
330
1
100
AcDbSymbolTableRecord
100
AcDbBlockTableRecord
  2
FXTIP_ARROW_E
  0
BLOCK_RECORD
  5
4D
330
1
100
AcDbSymbolTableRecord
100
AcDbBlockTableRecord
  2
FXTIP_BLACKDOT_S
  0
BLOCK_RECORD
  5
53
330
1
100
AcDbSymbolTableRecord
100
AcDbBlockTableRecord
  2
FXTIP_BLACKDOT_E
  0
BLOCK_RECORD
  5
59
330
1
100
AcDbSymbolTableRecord
100
AcDbBlockTableRecord
  2
FXTIP_TRIANGLE_S
  0
BLOCK_RECORD
  5
60
330
1
100
AcDbSymbolTableRecord
100
AcDbBlockTableRecord
  2
FXTIP_TRIANGLE_E
  0
BLOCK_RECORD
  5
67
330
1
100
AcDbSymbolTableRecord
100
AcDbBlockTableRecord
  2
FXTIP_ARCHITECT_S
  0
BLOCK_RECORD
  5
6D
330
1
100
AcDbSymbolTableRecord
100
AcDbBlockTableRecord
  2
FXTIP_ARCHITECT_E
  0
BLOCK_RECORD
  5
73
330
1
100
AcDbSymbolTableRecord
100
AcDbBlockTableRecord
  2
FXTIP_CIVIL_S
  0
BLOCK_RECORD
  5
79
330
1
100
AcDbSymbolTableRecord
100
AcDbBlockTableRecord
  2
FXTIP_CIVIL_E
  0
BLOCK_RECORD
  5
7F
330
1
100
AcDbSymbolTableRecord
100
AcDbBlockTableRecord
  2
FXTIP_WHITEDOT_S
  0
BLOCK_RECORD
  5
84
330
1
100
AcDbSymbolTableRecord
100
AcDbBlockTableRecord
  2
FXTIP_WHITEDOT_E
  0
BLOCK_RECORD
  5
89
330
1
100
AcDbSymbolTableRecord
100
AcDbBlockTableRecord
  2
FXTIP_UPARROW_S
  0
BLOCK_RECORD
  5
8E
330
1
100
AcDbSymbolTableRecord
100
AcDbBlockTableRecord
  2
FXTIP_UPARROW_E
  0
BLOCK_RECORD
  5
93
330
1
100
AcDbSymbolTableRecord
100
AcDbBlockTableRecord
  2
FXTIP_DOWNARROW_S
  0
BLOCK_RECORD
  5
98
330
1
100
AcDbSymbolTableRecord
100
AcDbBlockTableRecord
  2
FXTIP_DOWNARROW_E
  0
BLOCK_RECORD
  5
9D
330
1
100
AcDbSymbolTableRecord
100
AcDbBlockTableRecord
  2
FXTIP_BLACKTRIANGLE_S
  0
BLOCK_RECORD
  5
A2
330
1
100
AcDbSymbolTableRecord
100
AcDbBlockTableRecord
  2
FXTIP_BLACKTRIANGLE_E
  0
BLOCK_RECORD
  5
260
330
1
100
AcDbSymbolTableRecord
100
AcDbBlockTableRecord
  2
BLKF021
  0
BLOCK_RECORD
  5
26C
330
1
100
AcDbSymbolTableRecord
100
AcDbBlockTableRecord
  2
BLKF022
  0
BLOCK_RECORD
  5
275
330
1
100
AcDbSymbolTableRecord
100
AcDbBlockTableRecord
  2
BLKF023
  0
ENDTAB
  0
ENDSEC
  0
SECTION
  2
BLOCKS
  0
BLOCK
  5
20
330
1F
100
AcDbEntity
  8
0
100
AcDbBlockBegin
  2
*MODEL_SPACE
 70
     0
 71
     0
 10
0.0
 20
0.0
 30
0.0
  3
*MODEL_SPACE
  1

  0
ENDBLK
  5
21
330
1F
100
AcDbEntity
  8
0
100
AcDbBlockEnd
  0
BLOCK
  5
1C
330
1B
100
AcDbEntity
 67
     1
  8
0
100
AcDbBlockBegin
  2
*PAPER_SPACE
 70
     0
 71
     0
 10
0.0
 20
0.0
 30
0.0
  3
*PAPER_SPACE
  1

  0
ENDBLK
  5
1D
330
1B
100
AcDbEntity
 67
     1
  8
0
100
AcDbBlockEnd
  0
BLOCK
  5
42
330
41
100
AcDbEntity
  8
0
100
AcDbBlockBegin
  2
FXTIP_ARROW_S
 70
     0
 71
     0
 10
0.0
 20
0.0
 30
0.0
  3
FXTIP_ARROW_S
  1

  0
LINE
  5
44
330
41
100
AcDbEntity
  8
0
  6
CONTINUOUS
 62
     0
100
AcDbLine
 10
0.0
 20
0.0
 30
0.0
 11
-1.0
 21
0.0
 31
0.0
  0
LINE
  5
45
330
41
100
AcDbEntity
  8
0
  6
CONTINUOUS
 62
     0
100
AcDbLine
 10
0.0
 20
0.0
 30
0.0
 11
-0.965926
 21
-0.258819
 31
0.0
  0
LINE
  5
46
330
41
100
AcDbEntity
  8
0
  6
CONTINUOUS
 62
     0
100
AcDbLine
 10
0.0
 20
0.0
 30
0.0
 11
-0.965926
 21
0.258819
 31
0.0
  0
ENDBLK
  5
43
330
41
100
AcDbEntity
  8
0
100
AcDbBlockEnd
  0
BLOCK
  5
48
330
47
100
AcDbEntity
  8
0
100
AcDbBlockBegin
  2
FXTIP_ARROW_E
 70
     0
 71
     0
 10
0.0
 20
0.0
 30
0.0
  3
FXTIP_ARROW_E
  1

  0
LINE
  5
4A
330
47
100
AcDbEntity
  8
0
  6
CONTINUOUS
 62
     0
100
AcDbLine
 10
0.0
 20
0.0
 30
0.0
 11
-1.0
 21
0.0
 31
0.0
  0
LINE
  5
4B
330
47
100
AcDbEntity
  8
0
  6
CONTINUOUS
 62
     0
100
AcDbLine
 10
0.0
 20
0.0
 30
0.0
 11
-0.965926
 21
0.258819
 31
0.0
  0
LINE
  5
4C
330
47
100
AcDbEntity
  8
0
  6
CONTINUOUS
 62
     0
100
AcDbLine
 10
0.0
 20
0.0
 30
0.0
 11
-0.965926
 21
-0.258819
 31
0.0
  0
ENDBLK
  5
49
330
47
100
AcDbEntity
  8
0
100
AcDbBlockEnd
  0
BLOCK
  5
4E
330
4D
100
AcDbEntity
  8
0
100
AcDbBlockBegin
  2
FXTIP_BLACKDOT_S
 70
     0
 71
     0
 10
0.0
 20
0.0
 30
0.0
  3
FXTIP_BLACKDOT_S
  1

  0
LINE
  5
50
330
4D
100
AcDbEntity
  8
0
  6
CONTINUOUS
 62
     0
100
AcDbLine
 10
0.0
 20
0.0
 30
0.0
 11
-1.0
 21
0.0
 31
0.0
  0
LWPOLYLINE
  5
51
330
4D
100
AcDbEntity
  8
0
  6
CONTINUOUS
 62
     0
100
AcDbPolyline
 90
        2
 70
     1
 10
-0.25
 20
0.0
 40
0.5
 41
0.5
 42
1.0
 10
0.25
 20
0.0
 40
0.5
 41
0.5
 42
1.0
  0
CIRCLE
  5
52
330
4D
100
AcDbEntity
  8
0
  6
CONTINUOUS
 62
     0
100
AcDbCircle
 10
0.0
 20
0.0
 30
0.0
 40
0.5
  0
ENDBLK
  5
4F
330
4D
100
AcDbEntity
  8
0
100
AcDbBlockEnd
  0
BLOCK
  5
54
330
53
100
AcDbEntity
  8
0
100
AcDbBlockBegin
  2
FXTIP_BLACKDOT_E
 70
     0
 71
     0
 10
0.0
 20
0.0
 30
0.0
  3
FXTIP_BLACKDOT_E
  1

  0
LINE
  5
56
330
53
100
AcDbEntity
  8
0
  6
CONTINUOUS
 62
     0
100
AcDbLine
 10
0.0
 20
0.0
 30
0.0
 11
-1.0
 21
0.0
 31
0.0
  0
LWPOLYLINE
  5
57
330
53
100
AcDbEntity
  8
0
  6
CONTINUOUS
 62
     0
100
AcDbPolyline
 90
        2
 70
     1
 10
-0.25
 20
0.0
 40
0.5
 41
0.5
 42
1.0
 10
0.25
 20
0.0
 40
0.5
 41
0.5
 42
1.0
  0
CIRCLE
  5
58
330
53
100
AcDbEntity
  8
0
  6
CONTINUOUS
 62
     0
100
AcDbCircle
 10
0.0
 20
0.0
 30
0.0
 40
0.5
  0
ENDBLK
  5
55
330
53
100
AcDbEntity
  8
0
100
AcDbBlockEnd
  0
BLOCK
  5
5A
330
59
100
AcDbEntity
  8
0
100
AcDbBlockBegin
  2
FXTIP_TRIANGLE_S
 70
     0
 71
     0
 10
0.0
 20
0.0
 30
0.0
  3
FXTIP_TRIANGLE_S
  1

  0
LINE
  5
5C
330
59
100
AcDbEntity
  8
0
  6
CONTINUOUS
 62
     0
100
AcDbLine
 10
0.0
 20
0.0
 30
0.0
 11
-1.0
 21
0.0
 31
0.0
  0
LINE
  5
5D
330
59
100
AcDbEntity
  8
0
  6
CONTINUOUS
 62
     0
100
AcDbLine
 10
0.0
 20
0.0
 30
0.0
 11
-0.965926
 21
-0.258819
 31
0.0
  0
LINE
  5
5E
330
59
100
AcDbEntity
  8
0
  6
CONTINUOUS
 62
     0
100
AcDbLine
 10
0.0
 20
0.0
 30
0.0
 11
-0.965926
 21
0.258819
 31
0.0
  0
LINE
  5
5F
330
59
100
AcDbEntity
  8
0
  6
CONTINUOUS
 62
     0
100
AcDbLine
 10
-0.965926
 20
-0.258819
 30
0.0
 11
-0.965926
 21
0.258819
 31
0.0
  0
ENDBLK
  5
5B
330
59
100
AcDbEntity
  8
0
100
AcDbBlockEnd
  0
BLOCK
  5
61
330
60
100
AcDbEntity
  8
0
100
AcDbBlockBegin
  2
FXTIP_TRIANGLE_E
 70
     0
 71
     0
 10
0.0
 20
0.0
 30
0.0
  3
FXTIP_TRIANGLE_E
  1

  0
LINE
  5
63
330
60
100
AcDbEntity
  8
0
  6
CONTINUOUS
 62
     0
100
AcDbLine
 10
0.0
 20
0.0
 30
0.0
 11
-1.0
 21
0.0
 31
0.0
  0
LINE
  5
64
330
60
100
AcDbEntity
  8
0
  6
CONTINUOUS
 62
     0
100
AcDbLine
 10
0.0
 20
0.0
 30
0.0
 11
-0.965926
 21
0.258819
 31
0.0
  0
LINE
  5
65
330
60
100
AcDbEntity
  8
0
  6
CONTINUOUS
 62
     0
100
AcDbLine
 10
0.0
 20
0.0
 30
0.0
 11
-0.965926
 21
-0.258819
 31
0.0
  0
LINE
  5
66
330
60
100
AcDbEntity
  8
0
  6
CONTINUOUS
 62
     0
100
AcDbLine
 10
-0.965926
 20
0.258819
 30
0.0
 11
-0.965926
 21
-0.258819
 31
0.0
  0
ENDBLK
  5
62
330
60
100
AcDbEntity
  8
0
100
AcDbBlockEnd
  0
BLOCK
  5
68
330
67
100
AcDbEntity
  8
0
100
AcDbBlockBegin
  2
FXTIP_ARCHITECT_S
 70
     0
 71
     0
 10
0.0
 20
0.0
 30
0.0
  3
FXTIP_ARCHITECT_S
  1

  0
LINE
  5
6A
330
67
100
AcDbEntity
  8
0
  6
CONTINUOUS
 62
     0
100
AcDbLine
 10
0.0
 20
0.0
 30
0.0
 11
-1.0
 21
0.0
 31
0.0
  0
LINE
  5
6B
330
67
100
AcDbEntity
  8
0
  6
CONTINUOUS
 62
     0
100
AcDbLine
 10
0.0
 20
0.0
 30
0.0
 11
-0.707107
 21
-0.707107
 31
0.0
  0
LINE
  5
6C
330
67
100
AcDbEntity
  8
0
  6
CONTINUOUS
 62
     0
100
AcDbLine
 10
0.0
 20
0.0
 30
0.0
 11
0.707107
 21
0.707107
 31
0.0
  0
ENDBLK
  5
69
330
67
100
AcDbEntity
  8
0
100
AcDbBlockEnd
  0
BLOCK
  5
6E
330
6D
100
AcDbEntity
  8
0
100
AcDbBlockBegin
  2
FXTIP_ARCHITECT_E
 70
     0
 71
     0
 10
0.0
 20
0.0
 30
0.0
  3
FXTIP_ARCHITECT_E
  1

  0
LINE
  5
70
330
6D
100
AcDbEntity
  8
0
  6
CONTINUOUS
 62
     0
100
AcDbLine
 10
0.0
 20
0.0
 30
0.0
 11
-1.0
 21
0.0
 31
0.0
  0
LINE
  5
71
330
6D
100
AcDbEntity
  8
0
  6
CONTINUOUS
 62
     0
100
AcDbLine
 10
0.0
 20
0.0
 30
0.0
 11
0.707107
 21
0.707107
 31
0.0
  0
LINE
  5
72
330
6D
100
AcDbEntity
  8
0
  6
CONTINUOUS
 62
     0
100
AcDbLine
 10
0.0
 20
0.0
 30
0.0
 11
-0.707107
 21
-0.707107
 31
0.0
  0
ENDBLK
  5
6F
330
6D
100
AcDbEntity
  8
0
100
AcDbBlockEnd
  0
BLOCK
  5
74
330
73
100
AcDbEntity
  8
0
100
AcDbBlockBegin
  2
FXTIP_CIVIL_S
 70
     0
 71
     0
 10
0.0
 20
0.0
 30
0.0
  3
FXTIP_CIVIL_S
  1

  0
LINE
  5
76
330
73
100
AcDbEntity
  8
0
  6
CONTINUOUS
 62
     0
100
AcDbLine
 10
0.0
 20
0.0
 30
0.0
 11
-1.0
 21
0.0
 31
0.0
  0
LINE
  5
77
330
73
100
AcDbEntity
  8
0
  6
CONTINUOUS
 62
     0
100
AcDbLine
 10
0.0
 20
-0.0625
 30
0.0
 11
-1.0
 21
-0.0625
 31
0.0
  0
LINE
  5
78
330
73
100
AcDbEntity
  8
0
  6
CONTINUOUS
 62
     0
100
AcDbLine
 10
0.0
 20
-0.125
 30
0.0
 11
-1.0
 21
-0.125
 31
0.0
  0
ENDBLK
  5
75
330
73
100
AcDbEntity
  8
0
100
AcDbBlockEnd
  0
BLOCK
  5
7A
330
79
100
AcDbEntity
  8
0
100
AcDbBlockBegin
  2
FXTIP_CIVIL_E
 70
     0
 71
     0
 10
0.0
 20
0.0
 30
0.0
  3
FXTIP_CIVIL_E
  1

  0
LINE
  5
7C
330
79
100
AcDbEntity
  8
0
  6
CONTINUOUS
 62
     0
100
AcDbLine
 10
0.0
 20
0.0
 30
0.0
 11
-1.0
 21
0.0
 31
0.0
  0
LINE
  5
7D
330
79
100
AcDbEntity
  8
0
  6
CONTINUOUS
 62
     0
100
AcDbLine
 10
0.0
 20
0.0625
 30
0.0
 11
-1.0
 21
0.0625
 31
0.0
  0
LINE
  5
7E
330
79
100
AcDbEntity
  8
0
  6
CONTINUOUS
 62
     0
100
AcDbLine
 10
0.0
 20
0.125
 30
0.0
 11
-1.0
 21
0.125
 31
0.0
  0
ENDBLK
  5
7B
330
79
100
AcDbEntity
  8
0
100
AcDbBlockEnd
  0
BLOCK
  5
80
330
7F
100
AcDbEntity
  8
0
100
AcDbBlockBegin
  2
FXTIP_WHITEDOT_S
 70
     0
 71
     0
 10
0.0
 20
0.0
 30
0.0
  3
FXTIP_WHITEDOT_S
  1

  0
LINE
  5
82
330
7F
100
AcDbEntity
  8
0
  6
CONTINUOUS
 62
     0
100
AcDbLine
 10
0.0
 20
0.0
 30
0.0
 11
-1.0
 21
0.0
 31
0.0
  0
CIRCLE
  5
83
330
7F
100
AcDbEntity
  8
0
  6
CONTINUOUS
 62
     0
100
AcDbCircle
 10
0.0
 20
0.0
 30
0.0
 40
0.5
  0
ENDBLK
  5
81
330
7F
100
AcDbEntity
  8
0
100
AcDbBlockEnd
  0
BLOCK
  5
85
330
84
100
AcDbEntity
  8
0
100
AcDbBlockBegin
  2
FXTIP_WHITEDOT_E
 70
     0
 71
     0
 10
0.0
 20
0.0
 30
0.0
  3
FXTIP_WHITEDOT_E
  1

  0
LINE
  5
87
330
84
100
AcDbEntity
  8
0
  6
CONTINUOUS
 62
     0
100
AcDbLine
 10
0.0
 20
0.0
 30
0.0
 11
-1.0
 21
0.0
 31
0.0
  0
CIRCLE
  5
88
330
84
100
AcDbEntity
  8
0
  6
CONTINUOUS
 62
     0
100
AcDbCircle
 10
0.0
 20
0.0
 30
0.0
 40
0.5
  0
ENDBLK
  5
86
330
84
100
AcDbEntity
  8
0
100
AcDbBlockEnd
  0
BLOCK
  5
8A
330
89
100
AcDbEntity
  8
0
100
AcDbBlockBegin
  2
FXTIP_UPARROW_S
 70
     0
 71
     0
 10
0.0
 20
0.0
 30
0.0
  3
FXTIP_UPARROW_S
  1

  0
LINE
  5
8C
330
89
100
AcDbEntity
  8
0
  6
CONTINUOUS
 62
     0
100
AcDbLine
 10
0.0
 20
0.0
 30
0.0
 11
-1.0
 21
0.0
 31
0.0
  0
LINE
  5
8D
330
89
100
AcDbEntity
  8
0
  6
CONTINUOUS
 62
     0
100
AcDbLine
 10
0.0
 20
0.0
 30
0.0
 11
-0.965926
 21
-0.258819
 31
0.0
  0
ENDBLK
  5
8B
330
89
100
AcDbEntity
  8
0
100
AcDbBlockEnd
  0
BLOCK
  5
8F
330
8E
100
AcDbEntity
  8
0
100
AcDbBlockBegin
  2
FXTIP_UPARROW_E
 70
     0
 71
     0
 10
0.0
 20
0.0
 30
0.0
  3
FXTIP_UPARROW_E
  1

  0
LINE
  5
91
330
8E
100
AcDbEntity
  8
0
  6
CONTINUOUS
 62
     0
100
AcDbLine
 10
0.0
 20
0.0
 30
0.0
 11
-1.0
 21
0.0
 31
0.0
  0
LINE
  5
92
330
8E
100
AcDbEntity
  8
0
  6
CONTINUOUS
 62
     0
100
AcDbLine
 10
0.0
 20
0.0
 30
0.0
 11
-0.965926
 21
0.258819
 31
0.0
  0
ENDBLK
  5
90
330
8E
100
AcDbEntity
  8
0
100
AcDbBlockEnd
  0
BLOCK
  5
94
330
93
100
AcDbEntity
  8
0
100
AcDbBlockBegin
  2
FXTIP_DOWNARROW_S
 70
     0
 71
     0
 10
0.0
 20
0.0
 30
0.0
  3
FXTIP_DOWNARROW_S
  1

  0
LINE
  5
96
330
93
100
AcDbEntity
  8
0
  6
CONTINUOUS
 62
     0
100
AcDbLine
 10
0.0
 20
0.0
 30
0.0
 11
-1.0
 21
0.0
 31
0.0
  0
LINE
  5
97
330
93
100
AcDbEntity
  8
0
  6
CONTINUOUS
 62
     0
100
AcDbLine
 10
0.0
 20
0.0
 30
0.0
 11
-0.965926
 21
0.258819
 31
0.0
  0
ENDBLK
  5
95
330
93
100
AcDbEntity
  8
0
100
AcDbBlockEnd
  0
BLOCK
  5
99
330
98
100
AcDbEntity
  8
0
100
AcDbBlockBegin
  2
FXTIP_DOWNARROW_E
 70
     0
 71
     0
 10
0.0
 20
0.0
 30
0.0
  3
FXTIP_DOWNARROW_E
  1

  0
LINE
  5
9B
330
98
100
AcDbEntity
  8
0
  6
CONTINUOUS
 62
     0
100
AcDbLine
 10
0.0
 20
0.0
 30
0.0
 11
-1.0
 21
0.0
 31
0.0
  0
LINE
  5
9C
330
98
100
AcDbEntity
  8
0
  6
CONTINUOUS
 62
     0
100
AcDbLine
 10
0.0
 20
0.0
 30
0.0
 11
-0.965926
 21
-0.258819
 31
0.0
  0
ENDBLK
  5
9A
330
98
100
AcDbEntity
  8
0
100
AcDbBlockEnd
  0
BLOCK
  5
9E
330
9D
100
AcDbEntity
  8
0
100
AcDbBlockBegin
  2
FXTIP_BLACKTRIANGLE_S
 70
     0
 71
     0
 10
0.0
 20
0.0
 30
0.0
  3
FXTIP_BLACKTRIANGLE_S
  1

  0
LINE
  5
A0
330
9D
100
AcDbEntity
  8
0
  6
CONTINUOUS
 62
     0
100
AcDbLine
 10
0.0
 20
0.0
 30
0.0
 11
-1.0
 21
0.0
 31
0.0
  0
SOLID
  5
A1
330
9D
100
AcDbEntity
  8
0
  6
CONTINUOUS
 62
     0
100
AcDbTrace
 10
0.0
 20
0.0
 30
0.0
 11
-0.965926
 21
-0.258819
 31
0.0
 12
-0.965926
 22
0.258819
 32
0.0
 13
-0.965926
 23
0.258819
 33
0.0
  0
ENDBLK
  5
9F
330
9D
100
AcDbEntity
  8
0
100
AcDbBlockEnd
  0
BLOCK
  5
A3
330
A2
100
AcDbEntity
  8
0
100
AcDbBlockBegin
  2
FXTIP_BLACKTRIANGLE_E
 70
     0
 71
     0
 10
0.0
 20
0.0
 30
0.0
  3
FXTIP_BLACKTRIANGLE_E
  1

  0
LINE
  5
A5
330
A2
100
AcDbEntity
  8
0
  6
CONTINUOUS
 62
     0
100
AcDbLine
 10
0.0
 20
0.0
 30
0.0
 11
-1.0
 21
0.0
 31
0.0
  0
SOLID
  5
A6
330
A2
100
AcDbEntity
  8
0
  6
CONTINUOUS
 62
     0
100
AcDbTrace
 10
0.0
 20
0.0
 30
0.0
 11
-0.965926
 21
0.258819
 31
0.0
 12
-0.965926
 22
-0.258819
 32
0.0
 13
-0.965926
 23
-0.258819
 33
0.0
  0
ENDBLK
  5
A4
330
A2
100
AcDbEntity
  8
0
100
AcDbBlockEnd
  0
BLOCK
  5
261
330
260
100
AcDbEntity
  8
0
100
AcDbBlockBegin
  2
BLKF021
 70
     0
 71
     0
 10
0.0
 20
0.0
 30
0.0
  3
BLKF021
  1

  0
LINE
  5
264
330
260
100
AcDbEntity
  8
}}ﾊﾊGG血CCТ
  6
CONTINUOUS
 62
     7
100
AcDbLine
 10
10.0
 20
10.0
 30
0.0
 11
584.0
 21
10.0
 31
0.0
  0
LINE
  5
265
330
260
100
AcDbEntity
  8
}}ﾊﾊGG血CCТ
  6
CONTINUOUS
 62
     7
100
AcDbLine
 10
10.0
 20
10.0
 30
0.0
 11
10.0
 21
410.0
 31
0.0
  0
LINE
  5
266
330
260
100
AcDbEntity
  8
}}ﾊﾊGG血CCТ
  6
CONTINUOUS
 62
     7
100
AcDbLine
 10
10.0
 20
410.0
 30
0.0
 11
584.0
 21
410.0
 31
0.0
  0
LINE
  5
267
330
260
100
AcDbEntity
  8
}}ﾊﾊGG血CCТ
  6
CONTINUOUS
 62
     7
100
AcDbLine
 10
584.0
 20
410.0
 30
0.0
 11
584.0
 21
10.0
 31
0.0
  0
LINE
  5
268
330
260
100
AcDbEntity
  8
}}ﾊﾊGG血CCТ
  6
CONTINUOUS
 62
     7
100
AcDbLine
 10
327.0
 20
10.0
 30
0.0
 11
327.0
 21
20.0
 31
0.0
  0
TEXT
  5
269
330
260
100
AcDbEntity
  8
}}ﾊﾊGG血CCТ
  6
CONTINUOUS
 62
     7
100
AcDbText
 10
311.738831
 20
11.596879
 30
0.0
 40
6.648749
  1
品名
 41
1.083413
  7
FX_VECTOR
 72
     5
 11
323.058371
 21
11.596879
 31
0.0
100
AcDbText
  0
LINE
  5
26A
330
260
100
AcDbEntity
  8
}}ﾊﾊGG血CCТ
  6
CONTINUOUS
 62
     7
100
AcDbLine
 10
407.0
 20
20.0
 30
0.0
 11
407.0
 21
10.0
 31
0.0
  0
LINE
  5
26B
330
260
100
AcDbEntity
  8
}}ﾊﾊGG血CCТ
  6
CONTINUOUS
 62
     7
100
AcDbLine
 10
307.0
 20
20.0
 30
0.0
 11
584.0
 21
20.0
 31
0.0
  0
INSERT
  5
26F
330
260
100
AcDbEntity
  8
0
100
AcDbBlockReference
  2
BLKF022
 10
0.0
 20
0.0
 30
0.0
  0
INSERT
  5
278
330
260
100
AcDbEntity
  8
0
100
AcDbBlockReference
  2
BLKF023
 10
0.0
 20
0.0
 30
0.0
  0
HATCH
  5
288
330
260
100
AcDbEntity
  8
GR1-1
  6
CONTINUOUS
 62
     7
100
AcDbHatch
 10
0.0
 20
0.0
 30
0.0
210
0.0
220
0.0
230
1.0
  2

 70
     0
 71
     1
 91
        2
 92
        0
 93
        4
 72
     1
 10
512.8018997861325
 20
17.91346152
 11
518.8018997861325
 21
17.91346152
 72
     1
 10
518.8018997861325
 20
17.91346152
 11
518.8018997861325
 21
11.91346152
 72
     1
 10
518.8018997861325
 20
11.91346152
 11
512.8018997861325
 21
11.91346152
 72
     1
 10
512.8018997861325
 20
11.91346152
 11
512.8018997861325
 21
17.91346152
 97
        0
 92
        0
 93
       15
 72
     1
 10
515.8018997861325
 20
17.76923076000002
 11
512.9461305461325
 21
14.91346152
 72
     1
 10
512.9461305461325
 20
14.91346152
 11
515.8018997861325
 21
12.05769228000001
 72
     1
 10
515.8018997861325
 20
12.05769228000001
 11
517.3595920661326
 21
13.61538462
 72
     1
 10
517.3595920661326
 20
13.61538462
 11
517.3595920661326
 21
12.98076924
 72
     1
 10
517.3595920661326
 20
12.98076924
 11
518.2249766861326
 21
12.98076924
 72
     1
 10
518.2249766861326
 20
12.98076924
 11
518.2249766861326
 21
15.00000000000001
 72
     1
 10
518.2249766861326
 20
15.00000000000001
 11
515.8018997861325
 21
15.00000000000001
 72
     1
 10
515.8018997861325
 20
15.00000000000001
 11
515.8018997861325
 21
14.13461538000001
 72
     1
 10
515.8018997861325
 20
14.13461538000001
 11
516.2461305461325
 21
14.13461538000001
 72
     1
 10
516.2461305461325
 20
14.13461538000001
 11
515.8018997861325
 21
13.69038462
 72
     1
 10
515.8018997861325
 20
13.69038462
 11
514.5788228861325
 21
14.91346152
 72
     1
 10
514.5788228861325
 20
14.91346152
 11
515.8018997861325
 21
16.13653842000003
 72
     1
 10
515.8018997861325
 20
16.13653842000003
 11
516.5922844061325
 21
15.3461538
 72
     1
 10
516.5922844061325
 20
15.3461538
 11
518.2249766861326
 21
15.3461538
 72
     1
 10
518.2249766861326
 20
15.3461538
 11
515.8018997861325
 21
17.76923076000002
 97
        0
 75
     0
 76
     0
 52
45.0
 41
0.05
 77
     0
 78
     1
 53
45.0
 43
0.0
 44
0.0
 45
-0.0353553390593274
 46
0.0353553390593274
 79
     0
 98
        0
  0
TEXT
  5
289
330
260
100
AcDbEntity
  8
}}ﾊﾊGG血CCТ
  6
CONTINUOUS
 62
     7
100
AcDbText
 10
523.225769
 20
11.461285
 30
0.0
 40
7.170908
  1
GOLD CASTER
 41
0.63978
  7
FX_VECTOR
 72
     5
 11
569.977636
 21
11.461285
 31
0.0
100
AcDbText
  0
LINE
  5
28A
330
260
100
AcDbEntity
  8
}}ﾊﾊGG血CCТ
  6
CONTINUOUS
 62
     7
100
AcDbLine
 10
427.0
 20
10.0
 30
0.0
 11
427.0
 21
20.0
 31
0.0
  0
TEXT
  5
28B
330
260
100
AcDbEntity
  8
}}ﾊﾊGG血CCТ
  6
CONTINUOUS
 62
     7
100
AcDbText
 10
411.738831
 20
11.596879
 30
0.0
 40
6.648749
  1
図番
 41
1.083413
  7
FX_VECTOR
 72
     5
 11
423.058371
 21
11.596879
 31
0.0
100
AcDbText
  0
LINE
  5
28C
330
260
100
AcDbEntity
  8
}}ﾊﾊGG血CCТ
  6
CONTINUOUS
 62
     7
100
AcDbLine
 10
507.0
 20
20.0
 30
0.0
 11
507.0
 21
10.0
 31
0.0
  0
LINE
  5
28D
330
260
100
AcDbEntity
  8
}}ﾊﾊGG血CCТ
  6
CONTINUOUS
 62
     7
100
AcDbLine
 10
307.0
 20
20.0
 30
0.0
 11
307.0
 21
10.0
 31
0.0
  0
ENDBLK
  5
262
330
260
100
AcDbEntity
  8
0
100
AcDbBlockEnd
  0
BLOCK
  5
26D
330
26C
100
AcDbEntity
  8
0
100
AcDbBlockBegin
  2
BLKF022
 70
     0
 71
     0
 10
0.0
 20
0.0
 30
0.0
  3
BLKF022
  1

  0
LINE
  5
271
330
26C
100
AcDbEntity
  8
0-1
  6
CONTINUOUS
 62
     7
100
AcDbLine
 10
518.8019
 20
17.913462
 30
0.0
 11
512.8019
 21
17.913462
 31
0.0
  0
LINE
  5
272
330
26C
100
AcDbEntity
  8
0-1
  6
CONTINUOUS
 62
     7
100
AcDbLine
 10
512.8019
 20
17.913462
 30
0.0
 11
512.8019
 21
11.913462
 31
0.0
  0
LINE
  5
273
330
26C
100
AcDbEntity
  8
0-1
  6
CONTINUOUS
 62
     7
100
AcDbLine
 10
512.8019
 20
11.913462
 30
0.0
 11
518.8019
 21
11.913462
 31
0.0
  0
LINE
  5
274
330
26C
100
AcDbEntity
  8
0-1
  6
CONTINUOUS
 62
     7
100
AcDbLine
 10
518.8019
 20
11.913462
 30
0.0
 11
518.8019
 21
17.913462
 31
0.0
  0
ENDBLK
  5
26E
330
26C
100
AcDbEntity
  8
0
100
AcDbBlockEnd
  0
BLOCK
  5
276
330
275
100
AcDbEntity
  8
0
100
AcDbBlockBegin
  2
BLKF023
 70
     0
 71
     0
 10
0.0
 20
0.0
 30
0.0
  3
BLKF023
  1

  0
LINE
  5
279
330
275
100
AcDbEntity
  8
0-1
  6
CONTINUOUS
 62
     7
100
AcDbLine
 10
518.224977
 20
15.346154
 30
0.0
 11
515.8019
 21
17.769231
 31
0.0
  0
LINE
  5
27A
330
275
100
AcDbEntity
  8
0-1
  6
CONTINUOUS
 62
     7
100
AcDbLine
 10
515.8019
 20
17.769231
 30
0.0
 11
512.946131
 21
14.913462
 31
0.0
  0
LINE
  5
27B
330
275
100
AcDbEntity
  8
0-1
  6
CONTINUOUS
 62
     7
100
AcDbLine
 10
512.946131
 20
14.913462
 30
0.0
 11
515.8019
 21
12.057692
 31
0.0
  0
LINE
  5
27C
330
275
100
AcDbEntity
  8
0-1
  6
CONTINUOUS
 62
     7
100
AcDbLine
 10
515.8019
 20
12.057692
 30
0.0
 11
517.359592
 21
13.615385
 31
0.0
  0
LINE
  5
27D
330
275
100
AcDbEntity
  8
0-1
  6
CONTINUOUS
 62
     7
100
AcDbLine
 10
517.359592
 20
13.615385
 30
0.0
 11
517.359592
 21
12.980769
 31
0.0
  0
LINE
  5
27E
330
275
100
AcDbEntity
  8
0-1
  6
CONTINUOUS
 62
     7
100
AcDbLine
 10
517.359592
 20
12.980769
 30
0.0
 11
518.224977
 21
12.980769
 31
0.0
  0
LINE
  5
27F
330
275
100
AcDbEntity
  8
0-1
  6
CONTINUOUS
 62
     7
100
AcDbLine
 10
518.224977
 20
12.980769
 30
0.0
 11
518.224977
 21
15.0
 31
0.0
  0
LINE
  5
280
330
275
100
AcDbEntity
  8
0-1
  6
CONTINUOUS
 62
     7
100
AcDbLine
 10
518.224977
 20
15.0
 30
0.0
 11
515.8019
 21
15.0
 31
0.0
  0
LINE
  5
281
330
275
100
AcDbEntity
  8
0-1
  6
CONTINUOUS
 62
     7
100
AcDbLine
 10
515.8019
 20
15.0
 30
0.0
 11
515.8019
 21
14.134615
 31
0.0
  0
LINE
  5
282
330
275
100
AcDbEntity
  8
0-1
  6
CONTINUOUS
 62
     7
100
AcDbLine
 10
515.8019
 20
14.134615
 30
0.0
 11
516.246131
 21
14.134615
 31
0.0
  0
LINE
  5
283
330
275
100
AcDbEntity
  8
0-1
  6
CONTINUOUS
 62
     7
100
AcDbLine
 10
516.246131
 20
14.134615
 30
0.0
 11
515.8019
 21
13.690385
 31
0.0
  0
LINE
  5
284
330
275
100
AcDbEntity
  8
0-1
  6
CONTINUOUS
 62
     7
100
AcDbLine
 10
515.8019
 20
13.690385
 30
0.0
 11
514.578823
 21
14.913462
 31
0.0
  0
LINE
  5
285
330
275
100
AcDbEntity
  8
0-1
  6
CONTINUOUS
 62
     7
100
AcDbLine
 10
514.578823
 20
14.913462
 30
0.0
 11
515.8019
 21
16.136538
 31
0.0
  0
LINE
  5
286
330
275
100
AcDbEntity
  8
0-1
  6
CONTINUOUS
 62
     7
100
AcDbLine
 10
515.8019
 20
16.136538
 30
0.0
 11
516.592284
 21
15.346154
 31
0.0
  0
LINE
  5
287
330
275
100
AcDbEntity
  8
0-1
  6
CONTINUOUS
 62
     7
100
AcDbLine
 10
516.592284
 20
15.346154
 30
0.0
 11
518.224977
 21
15.346154
 31
0.0
  0
ENDBLK
  5
277
330
275
100
AcDbEntity
  8
0
100
AcDbBlockEnd
  0
ENDSEC
  0
SECTION
  2
ENTITIES
  0
LINE
  5
A9
330
1F
100
AcDbEntity
  8
GR1-1
  6
CONTINUOUS
 62
     3
100
AcDbLine
 10
136.212315
 20
98.95
 30
0.0
 11
139.212315
 21
98.95
 31
0.0
  0
LINE
  5
AA
330
1F
100
AcDbEntity
  8
GR1-1
  6
CONTINUOUS
 62
     3
100
AcDbLine
 10
139.212315
 20
98.95
 30
0.0
 11
139.212315
 21
192.95
 31
0.0
  0
LINE
  5
AB
330
1F
100
AcDbEntity
  8
GR1-1
  6
CONTINUOUS
 62
     3
100
AcDbLine
 10
139.712315
 20
193.45
 30
0.0
 11
193.712315
 21
193.45
 31
0.0
  0
LINE
  5
AC
330
1F
100
AcDbEntity
  8
GR1-1
  6
CONTINUOUS
 62
     3
100
AcDbLine
 10
194.212315
 20
192.95
 30
0.0
 11
194.212315
 21
98.95
 31
0.0
  0
LINE
  5
AD
330
1F
100
AcDbEntity
  8
GR1-1
  6
CONTINUOUS
 62
     3
100
AcDbLine
 10
194.212315
 20
98.95
 30
0.0
 11
197.212315
 21
98.95
 31
0.0
  0
LINE
  5
AE
330
1F
100
AcDbEntity
  8
GR1-1
  6
CONTINUOUS
 62
     3
100
AcDbLine
 10
197.212315
 20
98.95
 30
0.0
 11
197.212315
 21
192.45
 31
0.0
  0
ARC
  5
AF
330
1F
100
AcDbEntity
  8
GR1-1
  6
CONTINUOUS
 62
     3
100
AcDbCircle
 10
193.212315
 20
192.45
 30
0.0
 40
4.0
100
AcDbArc
 50
0.0
 51
90.0
  0
LINE
  5
B0
330
1F
100
AcDbEntity
  8
GR1-1
  6
CONTINUOUS
 62
     3
100
AcDbLine
 10
193.212315
 20
196.45
 30
0.0
 11
140.212315
 21
196.45
 31
0.0
  0
ARC
  5
B1
330
1F
100
AcDbEntity
  8
GR1-1
  6
CONTINUOUS
 62
     3
100
AcDbCircle
 10
140.212315
 20
192.45
 30
0.0
 40
4.0
100
AcDbArc
 50
90.0
 51
180.0
  0
LINE
  5
B2
330
1F
100
AcDbEntity
  8
GR1-1
  6
CONTINUOUS
 62
     3
100
AcDbLine
 10
136.212315
 20
192.45
 30
0.0
 11
136.212315
 21
98.95
 31
0.0
  0
ARC
  5
B3
330
1F
100
AcDbEntity
  8
GR1-1
  6
CONTINUOUS
 62
     3
100
AcDbCircle
 10
226.631201
 20
154.441829
 30
0.0
 40
89.46156784938876
100
AcDbArc
 50
157.742307
 51
167.732682
  0
ARC
  5
B4
330
1F
100
AcDbEntity
  8
GR1-1
  6
CONTINUOUS
 62
     3
100
AcDbCircle
 10
146.747561
 20
187.606624
 30
0.0
 40
3.0
100
AcDbArc
 50
110.128289
 51
166.097313
  0
ARC
  5
B5
330
1F
100
AcDbEntity
  8
GR1-1
  6
CONTINUOUS
 62
     3
100
AcDbCircle
 10
139.712315
 20
192.95
 30
0.0
 40
0.5
100
AcDbArc
 50
90.0
 51
180.0
  0
LINE
  5
B6
330
1F
100
AcDbEntity
  8
GR1-1
  6
CONTINUOUS
 62
     3
100
AcDbLine
 10
130.712315
 20
202.4
 30
0.0
 11
130.712315
 21
145.889557
 31
0.0
  0
ARC
  5
B7
330
1F
100
AcDbEntity
  8
GR1-1
  6
CONTINUOUS
 62
     3
100
AcDbCircle
 10
265.670948
 20
155.417867
 30
0.0
 40
135.2945721841073
100
AcDbArc
 50
184.038478
 51
193.427704
  0
ARC
  5
B8
330
1F
100
AcDbEntity
  8
GR1-1
  6
CONTINUOUS
 62
     3
100
AcDbCircle
 10
166.712315
 20
133.133721
 30
0.0
 40
61.01627906976702
100
AcDbArc
 50
98.687201
 51
110.128289
  0
LINE
  5
B9
330
1F
100
AcDbEntity
  8
GR1-1
  6
CONTINUOUS
 62
     3
100
AcDbLine
 10
129.112315
 20
202.4
 30
0.0
 11
128.112315
 21
202.752119
 31
0.0
  0
ARC
  5
BA
330
1F
100
AcDbEntity
  8
GR1-1
  6
CONTINUOUS
 62
     3
100
AcDbCircle
 10
124.712315
 20
205.7
 30
0.0
 40
4.5
100
AcDbArc
 50
319.073937
 51
360.0
  0
LINE
  5
BB
330
1F
100
AcDbEntity
  8
GR1-1
  6
CONTINUOUS
 62
     3
100
AcDbLine
 10
129.212315
 20
205.7
 30
0.0
 11
129.212315
 21
212.0
 31
0.0
  0
ARC
  5
BC
330
1F
100
AcDbEntity
  8
GR1-1
  6
CONTINUOUS
 62
     3
100
AcDbCircle
 10
133.212315
 20
212.0
 30
0.0
 40
4.0
100
AcDbArc
 50
154.895388
 51
180.0
  0
LINE
  5
BD
330
1F
100
AcDbEntity
  8
GR1-1
  6
CONTINUOUS
 62
     3
100
AcDbLine
 10
127.800974
 20
213.697089
 30
0.0
 11
205.623657
 21
213.697089
 31
0.0
  0
ARC
  5
BE
330
1F
100
AcDbEntity
  8
GR1-1
  6
CONTINUOUS
 62
     3
100
AcDbCircle
 10
205.623657
 20
218.170122
 30
0.0
 40
4.473032676673776
100
AcDbArc
 50
270.0
 51
323.349108
  0
LINE
  5
BF
330
1F
100
AcDbEntity
  8
GR1-1
  6
CONTINUOUS
 62
     3
100
AcDbLine
 10
209.212315
 20
215.5
 30
0.0
 11
209.212315
 21
216.0
 31
0.0
  0
ARC
  5
C0
330
1F
100
AcDbEntity
  8
GR1-1
  6
CONTINUOUS
 62
     3
100
AcDbCircle
 10
200.212315
 20
212.0
 30
0.0
 40
4.0
100
AcDbArc
 50
0.0
 51
25.104612
  0
LINE
  5
C1
330
1F
100
AcDbEntity
  8
GR1-1
  6
CONTINUOUS
 62
     3
100
AcDbLine
 10
204.212315
 20
212.0
 30
0.0
 11
204.212315
 21
205.7
 31
0.0
  0
ARC
  5
C2
330
1F
100
AcDbEntity
  8
GR1-1
  6
CONTINUOUS
 62
     3
100
AcDbCircle
 10
208.712315
 20
205.7
 30
0.0
 40
4.5
100
AcDbArc
 50
180.0
 51
220.926063
  0
LINE
  5
C3
330
1F
100
AcDbEntity
  8
GR1-1
  6
CONTINUOUS
 62
     3
100
AcDbLine
 10
205.312315
 20
202.752119
 30
0.0
 11
204.312315
 21
202.4
 31
0.0
  0
LINE
  5
C4
330
1F
100
AcDbEntity
  8
GR1-1
  6
CONTINUOUS
 62
     3
100
AcDbLine
 10
204.312315
 20
202.4
 30
0.0
 11
129.112315
 21
202.4
 31
0.0
  0
LINE
  5
C5
330
1F
100
AcDbEntity
  8
GR1-1
  6
CONTINUOUS
 62
     3
100
AcDbLine
 10
124.212315
 20
215.5
 30
0.0
 11
124.212315
 21
216.0
 31
0.0
  0
ARC
  5
C6
330
1F
100
AcDbEntity
  8
GR1-1
  6
CONTINUOUS
 62
     3
100
AcDbCircle
 10
127.800974
 20
218.170122
 30
0.0
 40
4.473032676673776
100
AcDbArc
 50
216.650892
 51
270.0
  0
LINE
  5
C7
330
1F
100
AcDbEntity
  8
GR1-1
  6
CONTINUOUS
 62
     3
100
AcDbLine
 10
115.712315
 20
216.0
 30
0.0
 11
217.712315
 21
216.0
 31
0.0
  0
LINE
  5
C8
330
1F
100
AcDbEntity
  8
GR1-1
  6
CONTINUOUS
 62
     3
100
AcDbLine
 10
217.712315
 20
216.0
 30
0.0
 11
217.712315
 21
220.0
 31
0.0
  0
LINE
  5
C9
330
1F
100
AcDbEntity
  8
GR1-1
  6
CONTINUOUS
 62
     3
100
AcDbLine
 10
217.712315
 20
220.0
 30
0.0
 11
115.712315
 21
220.0
 31
0.0
  0
LINE
  5
CA
330
1F
100
AcDbEntity
  8
GR1-1
  6
CONTINUOUS
 62
     3
100
AcDbLine
 10
115.712315
 20
220.0
 30
0.0
 11
115.712315
 21
216.0
 31
0.0
  0
CIRCLE
  5
CB
330
1F
100
AcDbEntity
  8
GR1-1
  6
CONTINUOUS
 62
     3
100
AcDbCircle
 10
166.712315
 20
207.5
 30
0.0
 40
2.1
  0
ARC
  5
CC
330
1F
100
AcDbEntity
  8
GR1-1
  6
CONTINUOUS
 62
     3
100
AcDbCircle
 10
166.712315
 20
133.133721
 30
0.0
 40
61.01627906976702
100
AcDbArc
 50
69.871711
 51
81.312799
  0
ARC
  5
CD
330
1F
100
AcDbEntity
  8
GR1-1
  6
CONTINUOUS
 62
     3
100
AcDbCircle
 10
186.677069
 20
187.606624
 30
0.0
 40
3.0
100
AcDbArc
 50
13.902687
 51
69.871711
  0
ARC
  5
CE
330
1F
100
AcDbEntity
  8
GR1-1
  6
CONTINUOUS
 62
     3
100
AcDbCircle
 10
193.712315
 20
192.95
 30
0.0
 40
0.5
100
AcDbArc
 50
0.0
 51
90.0
  0
LINE
  5
CF
330
1F
100
AcDbEntity
  8
GR1-1
  6
CONTINUOUS
 62
     3
100
AcDbLine
 10
202.712315
 20
202.4
 30
0.0
 11
202.712315
 21
145.889557
 31
0.0
  0
LINE
  5
D0
330
1F
100
AcDbEntity
  8
GR1-1
  6
CONTINUOUS
 62
     3
100
AcDbLine
 10
201.212315
 20
125.0
 30
0.0
 11
202.712315
 21
123.0
 31
0.0
  0
LINE
  5
D1
330
1F
100
AcDbEntity
  8
GR1-1
  6
CONTINUOUS
 62
     3
100
AcDbLine
 10
202.712315
 20
123.0
 30
0.0
 11
202.712315
 21
106.0
 31
0.0
  0
LINE
  5
D2
330
1F
100
AcDbEntity
  8
GR1-1
  6
CONTINUOUS
 62
     3
100
AcDbLine
 10
202.712315
 20
106.0
 30
0.0
 11
201.212315
 21
104.0
 31
0.0
  0
LINE
  5
D3
330
1F
100
AcDbEntity
  8
GR1-1
  6
CONTINUOUS
 62
     3
100
AcDbLine
 10
201.212315
 20
104.0
 30
0.0
 11
197.212315
 21
104.0
 31
0.0
  0
LINE
  5
D4
330
1F
100
AcDbEntity
  8
GR1-1
  6
CONTINUOUS
 62
     3
100
AcDbLine
 10
197.212315
 20
125.0
 30
0.0
 11
201.212315
 21
125.0
 31
0.0
  0
ARC
  5
D5
330
1F
100
AcDbEntity
  8
GR1-1
  6
CONTINUOUS
 62
     3
100
AcDbCircle
 10
67.753682
 20
155.417867
 30
0.0
 40
135.2945721841073
100
AcDbArc
 50
347.007297
 51
355.961522
  0
ARC
  5
D6
330
1F
100
AcDbEntity
  8
GR1-1
  6
CONTINUOUS
 62
     3
100
AcDbCircle
 10
106.79343
 20
154.441829
 30
0.0
 40
89.46156784938876
100
AcDbArc
 50
12.267318
 51
22.257693
  0
LINE
  5
D7
330
1F
100
AcDbEntity
  8
GR1-1
  6
CONTINUOUS
 62
     3
100
AcDbLine
 10
371.712315
 20
220.0
 30
0.0
 11
422.712315
 21
220.0
 31
0.0
  0
LINE
  5
D8
330
1F
100
AcDbEntity
  8
GR1-1
  6
CONTINUOUS
 62
     3
100
AcDbLine
 10
422.712315
 20
220.0
 30
0.0
 11
422.712315
 21
216.0
 31
0.0
  0
LINE
  5
D9
330
1F
100
AcDbEntity
  8
GR1-1
  6
CONTINUOUS
 62
     3
100
AcDbLine
 10
422.712315
 20
216.0
 30
0.0
 11
371.712315
 21
216.0
 31
0.0
  0
LINE
  5
DA
330
1F
100
AcDbEntity
  8
GR1-1
  6
CONTINUOUS
 62
     3
100
AcDbLine
 10
371.712315
 20
213.697089
 30
0.0
 11
410.623657
 21
213.697089
 31
0.0
  0
ARC
  5
DB
330
1F
100
AcDbEntity
  8
GR1-1
  6
CONTINUOUS
 62
     3
100
AcDbCircle
 10
410.623657
 20
218.170122
 30
0.0
 40
4.473032676673776
100
AcDbArc
 50
270.0
 51
323.349108
  0
LINE
  5
DC
330
1F
100
AcDbEntity
  8
GR1-1
  6
CONTINUOUS
 62
     3
100
AcDbLine
 10
414.212315
 20
215.5
 30
0.0
 11
414.212315
 21
216.0
 31
0.0
  0
ARC
  5
DD
330
1F
100
AcDbEntity
  8
GR1-1
  6
CONTINUOUS
 62
     3
100
AcDbCircle
 10
405.212315
 20
212.0
 30
0.0
 40
4.0
100
AcDbArc
 50
0.0
 51
25.104612
  0
LINE
  5
DE
330
1F
100
AcDbEntity
  8
GR1-1
  6
CONTINUOUS
 62
     3
100
AcDbLine
 10
409.212315
 20
212.0
 30
0.0
 11
409.212315
 21
205.7
 31
0.0
  0
ARC
  5
DF
330
1F
100
AcDbEntity
  8
GR1-1
  6
CONTINUOUS
 62
     3
100
AcDbCircle
 10
413.712315
 20
205.7
 30
0.0
 40
4.5
100
AcDbArc
 50
180.0
 51
220.926063
  0
LINE
  5
E0
330
1F
100
AcDbEntity
  8
GR1-1
  6
CONTINUOUS
 62
     3
100
AcDbLine
 10
410.312315
 20
202.752119
 30
0.0
 11
409.312315
 21
202.4
 31
0.0
  0
LINE
  5
E1
330
1F
100
AcDbEntity
  8
GR1-1
  6
CONTINUOUS
 62
     3
100
AcDbLine
 10
409.312315
 20
202.4
 30
0.0
 11
371.712315
 21
202.4
 31
0.0
  0
LINE
  5
E2
330
1F
100
AcDbEntity
  8
GR1-1
  6
CONTINUOUS
 62
     3
100
AcDbLine
 10
392.198894
 20
183.15
 30
0.0
 11
350.388664
 21
107.722349
 31
0.0
  0
CIRCLE
  5
E3
330
1F
100
AcDbEntity
  8
GR1-1
  6
CONTINUOUS
 62
     3
100
AcDbCircle
 10
333.712315
 20
114.5
 30
0.0
 40
10.5
  0
ARC
  5
E4
330
1F
100
AcDbEntity
  8
GR1-1
  6
CONTINUOUS
 62
     3
100
AcDbCircle
 10
335.512315
 20
115.95
 30
0.0
 40
17.0
100
AcDbArc
 50
175.460699
 51
330.945631
  0
ARC
  5
E5
330
1F
100
AcDbEntity
  8
GR1-1
  6
CONTINUOUS
 62
     3
100
AcDbCircle
 10
418.393236
 20
165.969274
 30
0.0
 40
31.32604184452368
100
AcDbArc
 50
115.895221
 51
146.73935
  0
LINE
  5
E6
330
1F
100
AcDbEntity
  8
GR1-1
  6
CONTINUOUS
 62
     3
100
AcDbLine
 10
404.712315
 20
194.15
 30
0.0
 11
407.712315
 21
194.15
 31
0.0
  0
LINE
  5
E7
330
1F
100
AcDbEntity
  8
GR1-1
  6
CONTINUOUS
 62
     3
100
AcDbLine
 10
407.712315
 20
194.15
 30
0.0
 11
407.712315
 21
202.4
 31
0.0
  0
CIRCLE
  5
E8
330
1F
100
AcDbEntity
  8
GR1-1
  6
CONTINUOUS
 62
     3
100
AcDbCircle
 10
390.462315
 20
207.5
 30
0.0
 40
2.1
  0
LINE
  5
E9
330
1F
100
AcDbEntity
  8
GR1-1
  6
CONTINUOUS
 62
     3
100
AcDbLine
 10
412.713385
 20
279.0
 30
0.0
 11
330.713385
 21
279.0
 31
0.0
  0
LINE
  5
EA
330
1F
100
AcDbEntity
  8
GR1-1
  6
CONTINUOUS
 62
     3
100
AcDbLine
 10
335.736148
 20
285.969491
 30
0.0
 11
338.236148
 21
288.469491
 31
0.0
  0
ARC
  5
EB
330
1F
100
AcDbEntity
  8
GR1-1
  6
CONTINUOUS
 62
     3
100
AcDbCircle
 10
334.20564
 20
292.5
 30
0.0
 40
5.7
100
AcDbArc
 50
-45.0
 51
135.0
  0
LINE
  5
EC
330
1F
100
AcDbEntity
  8
GR1-1
  6
CONTINUOUS
 62
     3
100
AcDbLine
 10
330.175131
 20
296.530509
 30
0.0
 11
327.675131
 21
294.030509
 31
0.0
  0
ARC
  5
ED
330
1F
100
AcDbEntity
  8
GR1-1
  6
CONTINUOUS
 62
     3
100
AcDbCircle
 10
331.70564
 20
290.0
 30
0.0
 40
5.7
100
AcDbArc
 50
135.0
 51
315.0
  0
LINE
  5
EE
330
1F
100
AcDbEntity
  8
GR1-1
  6
CONTINUOUS
 62
     3
100
AcDbLine
 10
335.743893
 20
285.969491
 30
0.0
 11
338.243893
 21
288.469491
 31
0.0
  0
ARC
  5
EF
330
1F
100
AcDbEntity
  8
GR1-1
  6
CONTINUOUS
 62
     3
100
AcDbCircle
 10
334.213385
 20
292.5
 30
0.0
 40
5.7
100
AcDbArc
 50
-45.0
 51
135.0
  0
LINE
  5
F0
330
1F
100
AcDbEntity
  8
GR1-1
  6
CONTINUOUS
 62
     3
100
AcDbLine
 10
330.182876
 20
296.530509
 30
0.0
 11
327.682876
 21
294.030509
 31
0.0
  0
ARC
  5
F1
330
1F
100
AcDbEntity
  8
GR1-1
  6
CONTINUOUS
 62
     3
100
AcDbCircle
 10
331.713385
 20
290.0
 30
0.0
 40
5.7
100
AcDbArc
 50
135.0
 51
315.0
  0
ARC
  5
F2
330
1F
100
AcDbEntity
  8
GR1-1
  6
CONTINUOUS
 62
     3
100
AcDbCircle
 10
330.713385
 20
289.0
 30
0.0
 40
10.0
100
AcDbArc
 50
180.0
 51
270.0
  0
LINE
  5
F3
330
1F
100
AcDbEntity
  8
GR1-1
  6
CONTINUOUS
 62
     3
100
AcDbLine
 10
320.713385
 20
289.0
 30
0.0
 11
320.713385
 21
371.0
 31
0.0
  0
LINE
  5
F4
330
1F
100
AcDbEntity
  8
GR1-1
  6
CONTINUOUS
 62
     3
100
AcDbLine
 10
327.675131
 20
365.969491
 30
0.0
 11
330.175131
 21
363.469491
 31
0.0
  0
ARC
  5
F5
330
1F
100
AcDbEntity
  8
GR1-1
  6
CONTINUOUS
 62
     3
100
AcDbCircle
 10
334.20564
 20
367.5
 30
0.0
 40
5.7
100
AcDbArc
 50
-135.0
 51
45.0
  0
LINE
  5
F6
330
1F
100
AcDbEntity
  8
GR1-1
  6
CONTINUOUS
 62
     3
100
AcDbLine
 10
338.236148
 20
371.530509
 30
0.0
 11
335.736148
 21
374.030509
 31
0.0
  0
ARC
  5
F7
330
1F
100
AcDbEntity
  8
GR1-1
  6
CONTINUOUS
 62
     3
100
AcDbCircle
 10
331.70564
 20
370.0
 30
0.0
 40
5.7
100
AcDbArc
 50
45.0
 51
225.0
  0
LINE
  5
F8
330
1F
100
AcDbEntity
  8
GR1-1
  6
CONTINUOUS
 62
     3
100
AcDbLine
 10
327.682876
 20
365.969491
 30
0.0
 11
330.182876
 21
363.469491
 31
0.0
  0
ARC
  5
F9
330
1F
100
AcDbEntity
  8
GR1-1
  6
CONTINUOUS
 62
     3
100
AcDbCircle
 10
334.213385
 20
367.5
 30
0.0
 40
5.7
100
AcDbArc
 50
-135.0
 51
45.0
  0
LINE
  5
FA
330
1F
100
AcDbEntity
  8
GR1-1
  6
CONTINUOUS
 62
     3
100
AcDbLine
 10
338.243893
 20
371.530509
 30
0.0
 11
335.743893
 21
374.030509
 31
0.0
  0
ARC
  5
FB
330
1F
100
AcDbEntity
  8
GR1-1
  6
CONTINUOUS
 62
     3
100
AcDbCircle
 10
331.713385
 20
370.0
 30
0.0
 40
5.7
100
AcDbArc
 50
45.0
 51
225.0
  0
LINE
  5
FC
330
1F
100
AcDbEntity
  8
GR1-1
  6
CONTINUOUS
 62
     3
100
AcDbLine
 10
320.713385
 20
360.5
 30
0.0
 11
318.513385
 21
360.5
 31
0.0
  0
LINE
  5
FD
330
1F
100
AcDbEntity
  8
GR1-1
  6
CONTINUOUS
 62
     3
100
AcDbLine
 10
318.513385
 20
360.5
 30
0.0
 11
318.513385
 21
357.5
 31
0.0
  0
LINE
  5
FE
330
1F
100
AcDbEntity
  8
GR1-1
  6
CONTINUOUS
 62
     3
100
AcDbLine
 10
318.513385
 20
357.5
 30
0.0
 11
320.713385
 21
357.5
 31
0.0
  0
LINE
  5
FF
330
1F
100
AcDbEntity
  8
GR1-1
  6
CONTINUOUS
 62
     3
100
AcDbLine
 10
320.713385
 20
302.5
 30
0.0
 11
318.513385
 21
302.5
 31
0.0
  0
LINE
  5
100
330
1F
100
AcDbEntity
  8
GR1-1
  6
CONTINUOUS
 62
     3
100
AcDbLine
 10
318.513385
 20
302.5
 30
0.0
 11
318.513385
 21
299.5
 31
0.0
  0
LINE
  5
101
330
1F
100
AcDbEntity
  8
GR1-1
  6
CONTINUOUS
 62
     3
100
AcDbLine
 10
318.513385
 20
299.5
 30
0.0
 11
320.713385
 21
299.5
 31
0.0
  0
ARC
  5
102
330
1F
100
AcDbEntity
  8
GR1-1
  6
CONTINUOUS
 62
     3
100
AcDbCircle
 10
330.70564
 20
289.0
 30
0.0
 40
10.0
100
AcDbArc
 50
180.0
 51
270.0
  0
LINE
  5
103
330
1F
100
AcDbEntity
  8
GR1-1
  6
CONTINUOUS
 62
     3
100
AcDbLine
 10
330.713385
 20
381.0
 30
0.0
 11
412.713385
 21
381.0
 31
0.0
  0
LINE
  5
104
330
1F
100
AcDbEntity
  8
GR1-1
  6
CONTINUOUS
 62
     3
100
AcDbLine
 10
407.682876
 20
374.030509
 30
0.0
 11
405.182876
 21
371.530509
 31
0.0
  0
ARC
  5
105
330
1F
100
AcDbEntity
  8
GR1-1
  6
CONTINUOUS
 62
     3
100
AcDbCircle
 10
409.213385
 20
367.5
 30
0.0
 40
5.7
100
AcDbArc
 50
135.0
 51
315.0
  0
LINE
  5
106
330
1F
100
AcDbEntity
  8
GR1-1
  6
CONTINUOUS
 62
     3
100
AcDbLine
 10
413.243893
 20
363.469491
 30
0.0
 11
415.743893
 21
365.969491
 31
0.0
  0
ARC
  5
107
330
1F
100
AcDbEntity
  8
GR1-1
  6
CONTINUOUS
 62
     3
100
AcDbCircle
 10
411.713385
 20
370.0
 30
0.0
 40
5.7
100
AcDbArc
 50
-45.0
 51
135.0
  0
LINE
  5
108
330
1F
100
AcDbEntity
  8
GR1-1
  6
CONTINUOUS
 62
     3
100
AcDbLine
 10
407.675131
 20
374.030509
 30
0.0
 11
405.175131
 21
371.530509
 31
0.0
  0
ARC
  5
109
330
1F
100
AcDbEntity
  8
GR1-1
  6
CONTINUOUS
 62
     3
100
AcDbCircle
 10
409.20564
 20
367.5
 30
0.0
 40
5.7
100
AcDbArc
 50
135.0
 51
315.0
  0
LINE
  5
10A
330
1F
100
AcDbEntity
  8
GR1-1
  6
CONTINUOUS
 62
     3
100
AcDbLine
 10
413.236148
 20
363.469491
 30
0.0
 11
415.736148
 21
365.969491
 31
0.0
  0
ARC
  5
10B
330
1F
100
AcDbEntity
  8
GR1-1
  6
CONTINUOUS
 62
     3
100
AcDbCircle
 10
411.70564
 20
370.0
 30
0.0
 40
5.7
100
AcDbArc
 50
-45.0
 51
135.0
  0
LINE
  5
10C
330
1F
100
AcDbEntity
  8
GR1-1
  6
CONTINUOUS
 62
     3
100
AcDbLine
 10
422.713385
 20
371.0
 30
0.0
 11
422.713385
 21
289.0
 31
0.0
  0
LINE
  5
10D
330
1F
100
AcDbEntity
  8
GR1-1
  6
CONTINUOUS
 62
     3
100
AcDbLine
 10
415.743893
 20
294.030509
 30
0.0
 11
413.243893
 21
296.530509
 31
0.0
  0
ARC
  5
10E
330
1F
100
AcDbEntity
  8
GR1-1
  6
CONTINUOUS
 62
     3
100
AcDbCircle
 10
409.213385
 20
292.5
 30
0.0
 40
5.7
100
AcDbArc
 50
45.0
 51
225.0
  0
LINE
  5
10F
330
1F
100
AcDbEntity
  8
GR1-1
  6
CONTINUOUS
 62
     3
100
AcDbLine
 10
405.182876
 20
288.469491
 30
0.0
 11
407.682876
 21
285.969491
 31
0.0
  0
ARC
  5
110
330
1F
100
AcDbEntity
  8
GR1-1
  6
CONTINUOUS
 62
     3
100
AcDbCircle
 10
411.713385
 20
290.0
 30
0.0
 40
5.7
100
AcDbArc
 50
-135.0
 51
45.0
  0
LINE
  5
111
330
1F
100
AcDbEntity
  8
GR1-1
  6
CONTINUOUS
 62
     3
100
AcDbLine
 10
415.736148
 20
294.030509
 30
0.0
 11
413.236148
 21
296.530509
 31
0.0
  0
ARC
  5
112
330
1F
100
AcDbEntity
  8
GR1-1
  6
CONTINUOUS
 62
     3
100
AcDbCircle
 10
409.20564
 20
292.5
 30
0.0
 40
5.7
100
AcDbArc
 50
45.0
 51
225.0
  0
LINE
  5
113
330
1F
100
AcDbEntity
  8
GR1-1
  6
CONTINUOUS
 62
     3
100
AcDbLine
 10
405.175131
 20
288.469491
 30
0.0
 11
407.675131
 21
285.969491
 31
0.0
  0
ARC
  5
114
330
1F
100
AcDbEntity
  8
GR1-1
  6
CONTINUOUS
 62
     3
100
AcDbCircle
 10
411.70564
 20
290.0
 30
0.0
 40
5.7
100
AcDbArc
 50
-135.0
 51
45.0
  0
ARC
  5
115
330
1F
100
AcDbEntity
  8
GR1-1
  6
CONTINUOUS
 62
     3
100
AcDbCircle
 10
412.713385
 20
289.0
 30
0.0
 40
10.0
100
AcDbArc
 50
270.0
 51
360.0
  0
CIRCLE
  5
116
330
1F
100
AcDbEntity
  8
GR1-1
  6
CONTINUOUS
 62
     3
100
AcDbCircle
 10
371.713385
 20
330.0
 30
0.0
 40
13.0
  0
ARC
  5
117
330
1F
100
AcDbEntity
  8
GR1-1
  6
CONTINUOUS
 62
     3
100
AcDbCircle
 10
412.713385
 20
371.0
 30
0.0
 40
10.0
100
AcDbArc
 50
0.0
 51
90.0
  0
ARC
  5
118
330
1F
100
AcDbEntity
  8
GR1-1
  6
CONTINUOUS
 62
     3
100
AcDbCircle
 10
330.713385
 20
371.0
 30
0.0
 40
10.0
100
AcDbArc
 50
90.0
 51
180.0
  0
LINE
  5
119
330
1F
100
AcDbEntity
  8
GR1-1
  6
CENTER
 62
     6
100
AcDbLine
 10
119.935388
 20
114.5
 30
0.0
 11
208.014254
 21
114.5
 31
0.0
  0
LINE
  5
11A
330
1F
100
AcDbEntity
  8
GR1-1
  6
CONTINUOUS
 62
     6
100
AcDbLine
 10
201.212315
 20
104.0
 30
0.0
 11
201.212315
 21
125.0
 31
0.0
  0
LINE
  5
11B
330
1F
100
AcDbEntity
  8
GR1-1
  6
CENTER
 62
     6
100
AcDbLine
 10
166.712315
 20
49.029321
 30
0.0
 11
166.712315
 21
224.303406
 31
0.0
  0
ARC
  5
11C
330
1F
100
AcDbEntity
  8
GR1-1
  6
CONTINUOUS
 62
     6
100
AcDbCircle
 10
166.712315
 20
579.075
 30
0.0
 40
378.625000000005
100
AcDbArc
 50
265.834869
 51
274.165131
  0
LINE
  5
11D
330
1F
100
AcDbEntity
  8
GR1-1
  6
CONTINUOUS
 62
     6
100
AcDbLine
 10
205.312315
 20
202.752119
 30
0.0
 11
128.112315
 21
202.752119
 31
0.0
  0
LINE
  5
11E
330
1F
100
AcDbEntity
  8
GR1-1
  6
CENTER
 62
     6
100
AcDbLine
 10
265.258069
 20
114.5
 30
0.0
 11
403.590077
 21
114.5
 31
0.0
  0
LINE
  5
11F
330
1F
100
AcDbEntity
  8
GR1-1
  6
CENTER
 62
     6
100
AcDbLine
 10
371.712315
 20
129.11712
 30
0.0
 11
371.712315
 21
224.01154
 31
0.0
  0
LINE
  5
120
330
1F
100
AcDbEntity
  8
GR1-1
  6
CONTINUOUS
 62
     6
100
AcDbLine
 10
371.712315
 20
202.752119
 30
0.0
 11
410.312315
 21
202.752119
 31
0.0
  0
CIRCLE
  5
121
330
1F
100
AcDbEntity
  8
GR1-1
  6
CONTINUOUS
 62
     6
100
AcDbCircle
 10
333.712315
 20
114.5
 30
0.0
 40
8.5
  0
CIRCLE
  5
122
330
1F
100
AcDbEntity
  8
GR1-1
  6
CONTINUOUS
 62
     6
100
AcDbCircle
 10
333.712315
 20
114.5
 30
0.0
 40
3.0
  0
LINE
  5
123
330
1F
100
AcDbEntity
  8
GR1-1
  6
CENTER
 62
     6
100
AcDbLine
 10
333.712315
 20
49.180285
 30
0.0
 11
333.712315
 21
135.46569
 31
0.0
  0
LINE
  5
124
330
1F
100
AcDbEntity
  8
GR1-1
  6
CONTINUOUS
 62
     7
100
AcDbLine
 10
331.70564
 20
285.995935
 30
0.0
 11
331.70564
 21
280.995935
 31
0.0
  0
CIRCLE
  5
125
330
1F
100
AcDbEntity
  8
GR1-1
  6
CONTINUOUS
 62
     6
100
AcDbCircle
 10
371.713385
 20
330.0
 30
0.0
 40
8.009445438332094
  0
CIRCLE
  5
126
330
1F
100
AcDbEntity
  8
GR1-1
  6
CONTINUOUS
 62
     6
100
AcDbCircle
 10
371.713385
 20
330.0
 30
0.0
 40
13.40000000000002
  0
CIRCLE
  5
127
330
1F
100
AcDbEntity
  8
GR1-1
  6
CONTINUOUS
 62
     7
100
AcDbCircle
 10
371.70564
 20
330.0
 30
0.0
 40
38.0
  0
CIRCLE
  5
128
330
1F
100
AcDbEntity
  8
GR1-1
  6
CONTINUOUS
 62
     6
100
AcDbCircle
 10
371.713385
 20
330.0
 30
0.0
 40
38.0
  0
CIRCLE
  5
129
330
1F
100
AcDbEntity
  8
GR1-1
  6
CONTINUOUS
 62
     6
100
AcDbCircle
 10
371.70564
 20
330.0
 30
0.0
 40
42.5
  0
CIRCLE
  5
12A
330
1F
100
AcDbEntity
  8
GR1-1
  6
CONTINUOUS
 62
     6
100
AcDbCircle
 10
371.713385
 20
330.0
 30
0.0
 40
42.5
  0
LINE
  5
12B
330
1F
100
AcDbEntity
  8
GR1-1
  6
CENTER
 62
     6
100
AcDbLine
 10
425.085799
 20
330.0
 30
0.0
 11
266.411849
 21
330.0
 31
0.0
  0
LINE
  5
12C
330
1F
100
AcDbEntity
  8
GR1-1
  6
CENTER
 62
     6
100
AcDbLine
 10
409.209704
 20
360.893108
 30
0.0
 11
409.209704
 21
375.632798
 31
0.0
  0
LINE
  5
12D
330
1F
100
AcDbEntity
  8
GR1-1
  6
CENTER
 62
     6
100
AcDbLine
 10
403.49987
 20
370.0
 30
0.0
 11
419.363408
 21
370.0
 31
0.0
  0
LINE
  5
12E
330
1F
100
AcDbEntity
  8
GR1-1
  6
CENTER
 62
     6
100
AcDbLine
 10
417.893762
 20
367.5
 30
0.0
 11
402.159898
 21
367.5
 31
0.0
  0
LINE
  5
12F
330
1F
100
AcDbEntity
  8
GR1-1
  6
CENTER
 62
     6
100
AcDbLine
 10
411.709704
 20
377.318569
 30
0.0
 11
411.709704
 21
362.103405
 31
0.0
  0
LINE
  5
130
330
1F
100
AcDbEntity
  8
LAYERGROUP-1
  6
CENTER
 62
     6
100
AcDbLine
 10
371.712315
 20
383.460513
 30
0.0
 11
371.712315
 21
276.456838
 31
0.0
  0
CIRCLE
  5
131
330
1F
100
AcDbEntity
  8
GR1-1
  6
CONTINUOUS
 62
     3
100
AcDbCircle
 10
333.712315
 20
114.500004
 30
0.0
 40
2.0
  0
LINE
  5
132
330
1F
100
AcDbEntity
  8
GR1-1
  6
CONTINUOUS
 62
     3
100
AcDbLine
 10
285.712315
 20
349.0
 30
0.0
 11
285.712315
 21
348.400415
 31
0.0
  0
ARC
  5
133
330
1F
100
AcDbEntity
  8
GR1-1
  6
CONTINUOUS
 62
     3
100
AcDbCircle
 10
283.712315
 20
348.400415
 30
0.0
 40
2.0
100
AcDbArc
 50
290.0
 51
360.0
  0
LINE
  5
134
330
1F
100
AcDbEntity
  8
GR1-1
  6
CONTINUOUS
 62
     3
100
AcDbLine
 10
284.396355
 20
346.52103
 30
0.0
 11
275.578572
 21
343.311619
 31
0.0
  0
ARC
  5
135
330
1F
100
AcDbEntity
  8
GR1-1
  6
CONTINUOUS
 62
     3
100
AcDbCircle
 10
277.288672
 20
338.613156
 30
0.0
 40
5.0
100
AcDbArc
 50
110.0
 51
165.753732
  0
ARC
  5
136
330
1F
100
AcDbEntity
  8
GR1-1
  6
CONTINUOUS
 62
     3
100
AcDbCircle
 10
311.212315
 20
330.0
 30
0.0
 40
40.0
100
AcDbArc
 50
165.753732
 51
194.246268
  0
ARC
  5
137
330
1F
100
AcDbEntity
  8
GR1-1
  6
CONTINUOUS
 62
     3
100
AcDbCircle
 10
277.288672
 20
321.386844
 30
0.0
 40
5.0
100
AcDbArc
 50
194.246268
 51
250.0
  0
LINE
  5
138
330
1F
100
AcDbEntity
  8
GR1-1
  6
CONTINUOUS
 62
     3
100
AcDbLine
 10
275.578572
 20
316.688381
 30
0.0
 11
284.396355
 21
313.47897
 31
0.0
  0
LINE
  5
139
330
1F
100
AcDbEntity
  8
GR1-1
  6
CONTINUOUS
 62
     3
100
AcDbLine
 10
285.712315
 20
311.599585
 30
0.0
 11
285.712315
 21
311.0
 31
0.0
  0
LINE
  5
13A
330
1F
100
AcDbEntity
  8
GR1-1
  6
CONTINUOUS
 62
     3
100
AcDbLine
 10
285.712315
 20
311.0
 30
0.0
 11
320.713385
 21
311.0
 31
0.0
  0
ARC
  5
13B
330
1F
100
AcDbEntity
  8
GR1-1
  6
CONTINUOUS
 62
     3
100
AcDbCircle
 10
283.712315
 20
311.599585
 30
0.0
 40
2.0
100
AcDbArc
 50
0.0
 51
70.0
  0
LINE
  5
13C
330
1F
100
AcDbEntity
  8
GR1-1
  6
CONTINUOUS
 62
     6
100
AcDbLine
 10
320.713385
 20
317.555
 30
0.0
 11
274.076668
 21
317.555
 31
0.0
  0
LINE
  5
13D
330
1F
100
AcDbEntity
  8
GR1-1
  6
CONTINUOUS
 62
     6
100
AcDbLine
 10
285.712315
 20
311.599585
 30
0.0
 11
320.713385
 21
311.599585
 31
0.0
  0
LINE
  5
13E
330
1F
100
AcDbEntity
  8
GR1-1
  6
CONTINUOUS
 62
     6
100
AcDbLine
 10
274.076668
 20
342.445
 30
0.0
 11
320.713385
 21
342.445
 31
0.0
  0
LINE
  5
13F
330
1F
100
AcDbEntity
  8
GR1-1
  6
CONTINUOUS
 62
     3
100
AcDbLine
 10
285.712315
 20
349.0
 30
0.0
 11
320.713385
 21
349.0
 31
0.0
  0
LINE
  5
140
330
1F
100
AcDbEntity
  8
GR1-1
  6
CONTINUOUS
 62
     6
100
AcDbLine
 10
285.712315
 20
348.400415
 30
0.0
 11
320.713385
 21
348.400415
 31
0.0
  0
LINE
  5
141
330
1F
100
AcDbEntity
  8
GR1-1
  6
CONTINUOUS
 62
     3
100
AcDbLine
 10
318.565639
 20
117.295429
 30
0.0
 11
324.849873
 21
196.45
 31
0.0
  0
LINE
  5
142
330
1F
100
AcDbEntity
  8
GR1-1
  6
CONTINUOUS
 62
     3
100
AcDbLine
 10
321.712315
 20
193.45
 30
0.0
 11
324.611697
 21
193.45
 31
0.0
  0
LINE
  5
143
330
1F
100
AcDbEntity
  8
GR1-1
  6
CONTINUOUS
 62
     3
100
AcDbLine
 10
335.712315
 20
202.4
 30
0.0
 11
335.712315
 21
200.45
 31
0.0
  0
ARC
  5
144
330
1F
100
AcDbEntity
  8
GR1-1
  6
CONTINUOUS
 62
     3
100
AcDbCircle
 10
331.712315
 20
200.45
 30
0.0
 40
4.0
100
AcDbArc
 50
270.0
 51
360.0
  0
LINE
  5
145
330
1F
100
AcDbEntity
  8
GR1-1
  6
CONTINUOUS
 62
     3
100
AcDbLine
 10
331.712315
 20
196.45
 30
0.0
 11
321.712315
 21
196.45
 31
0.0
  0
LINE
  5
146
330
1F
100
AcDbEntity
  8
GR1-1
  6
CONTINUOUS
 62
     3
100
AcDbLine
 10
321.712315
 20
196.45
 30
0.0
 11
321.712315
 21
193.45
 31
0.0
  0
LINE
  5
147
330
1F
100
AcDbEntity
  8
GR1-1
  6
CONTINUOUS
 62
     6
100
AcDbLine
 10
352.587724
 20
200.058889
 30
0.0
 11
352.587724
 21
122.689557
 31
0.0
  0
LINE
  5
148
330
1F
100
AcDbEntity
  8
GR1-1
  6
CONTINUOUS
 62
     3
100
AcDbLine
 10
371.692119
 20
220.0
 30
0.0
 11
320.692119
 21
220.0
 31
0.0
  0
LINE
  5
149
330
1F
100
AcDbEntity
  8
GR1-1
  6
CONTINUOUS
 62
     3
100
AcDbLine
 10
320.692119
 20
220.0
 30
0.0
 11
320.692119
 21
216.0
 31
0.0
  0
LINE
  5
14A
330
1F
100
AcDbEntity
  8
GR1-1
  6
CONTINUOUS
 62
     3
100
AcDbLine
 10
320.692119
 20
216.0
 30
0.0
 11
371.692119
 21
216.0
 31
0.0
  0
LINE
  5
14B
330
1F
100
AcDbEntity
  8
GR1-1
  6
CONTINUOUS
 62
     3
100
AcDbLine
 10
371.692119
 20
213.697089
 30
0.0
 11
332.780777
 21
213.697089
 31
0.0
  0
ARC
  5
14C
330
1F
100
AcDbEntity
  8
GR1-1
  6
CONTINUOUS
 62
     3
100
AcDbCircle
 10
332.780777
 20
218.170122
 30
0.0
 40
4.473032676673776
100
AcDbArc
 50
216.650892
 51
270.0
  0
LINE
  5
14D
330
1F
100
AcDbEntity
  8
GR1-1
  6
CONTINUOUS
 62
     3
100
AcDbLine
 10
329.192119
 20
215.5
 30
0.0
 11
329.192119
 21
216.0
 31
0.0
  0
ARC
  5
14E
330
1F
100
AcDbEntity
  8
GR1-1
  6
CONTINUOUS
 62
     3
100
AcDbCircle
 10
338.192119
 20
212.0
 30
0.0
 40
4.0
100
AcDbArc
 50
154.895388
 51
180.0
  0
LINE
  5
14F
330
1F
100
AcDbEntity
  8
GR1-1
  6
CONTINUOUS
 62
     3
100
AcDbLine
 10
334.192119
 20
212.0
 30
0.0
 11
334.192119
 21
205.7
 31
0.0
  0
ARC
  5
150
330
1F
100
AcDbEntity
  8
GR1-1
  6
CONTINUOUS
 62
     3
100
AcDbCircle
 10
329.692119
 20
205.7
 30
0.0
 40
4.5
100
AcDbArc
 50
319.073937
 51
360.0
  0
LINE
  5
151
330
1F
100
AcDbEntity
  8
GR1-1
  6
CONTINUOUS
 62
     3
100
AcDbLine
 10
333.092119
 20
202.752119
 30
0.0
 11
334.092119
 21
202.4
 31
0.0
  0
LINE
  5
152
330
1F
100
AcDbEntity
  8
GR1-1
  6
CONTINUOUS
 62
     3
100
AcDbLine
 10
334.092119
 20
202.4
 30
0.0
 11
371.692119
 21
202.4
 31
0.0
  0
LINE
  5
153
330
1F
100
AcDbEntity
  8
GR1-1
  6
CONTINUOUS
 62
     6
100
AcDbLine
 10
371.692119
 20
202.752119
 30
0.0
 11
333.092119
 21
202.752119
 31
0.0
  0
LINE
  5
154
330
1F
100
AcDbEntity
  8
GR1-1
  6
CENTER
 62
     6
100
AcDbLine
 10
334.214926
 20
360.893108
 30
0.0
 11
334.214926
 21
375.632798
 31
0.0
  0
LINE
  5
155
330
1F
100
AcDbEntity
  8
GR1-1
  6
CENTER
 62
     6
100
AcDbLine
 10
339.92476
 20
370.0
 30
0.0
 11
324.061222
 21
370.0
 31
0.0
  0
LINE
  5
156
330
1F
100
AcDbEntity
  8
GR1-1
  6
CENTER
 62
     6
100
AcDbLine
 10
325.530869
 20
367.5
 30
0.0
 11
341.264732
 21
367.5
 31
0.0
  0
LINE
  5
157
330
1F
100
AcDbEntity
  8
GR1-1
  6
CENTER
 62
     6
100
AcDbLine
 10
331.714926
 20
377.318569
 30
0.0
 11
331.714926
 21
362.103405
 31
0.0
  0
LINE
  5
158
330
1F
100
AcDbEntity
  8
GR1-1
  6
CENTER
 62
     6
100
AcDbLine
 10
409.209704
 20
299.106892
 30
0.0
 11
409.209704
 21
284.367202
 31
0.0
  0
LINE
  5
159
330
1F
100
AcDbEntity
  8
GR1-1
  6
CENTER
 62
     6
100
AcDbLine
 10
403.49987
 20
290.0
 30
0.0
 11
419.363408
 21
290.0
 31
0.0
  0
LINE
  5
15A
330
1F
100
AcDbEntity
  8
GR1-1
  6
CENTER
 62
     6
100
AcDbLine
 10
417.893762
 20
292.5
 30
0.0
 11
402.159898
 21
292.5
 31
0.0
  0
LINE
  5
15B
330
1F
100
AcDbEntity
  8
GR1-1
  6
CENTER
 62
     6
100
AcDbLine
 10
411.709704
 20
282.681431
 30
0.0
 11
411.709704
 21
297.896595
 31
0.0
  0
LINE
  5
15C
330
1F
100
AcDbEntity
  8
GR1-1
  6
CENTER
 62
     6
100
AcDbLine
 10
334.214926
 20
299.106892
 30
0.0
 11
334.214926
 21
284.367202
 31
0.0
  0
LINE
  5
15D
330
1F
100
AcDbEntity
  8
GR1-1
  6
CENTER
 62
     6
100
AcDbLine
 10
339.92476
 20
290.0
 30
0.0
 11
324.061222
 21
290.0
 31
0.0
  0
LINE
  5
15E
330
1F
100
AcDbEntity
  8
GR1-1
  6
CENTER
 62
     6
100
AcDbLine
 10
325.530869
 20
292.5
 30
0.0
 11
341.264732
 21
292.5
 31
0.0
  0
LINE
  5
15F
330
1F
100
AcDbEntity
  8
GR1-1
  6
CENTER
 62
     6
100
AcDbLine
 10
331.714926
 20
282.681431
 30
0.0
 11
331.714926
 21
297.896595
 31
0.0
  0
LINE
  5
160
330
1F
100
AcDbEntity
  8
LAYERGROUP-1
  6
CENTER
 62
     6
100
AcDbLine
 10
163.544364
 20
207.5
 30
0.0
 11
169.844553
 21
207.5
 31
0.0
  0
LINE
  5
161
330
1F
100
AcDbEntity
  8
LAYERGROUP-1
  6
CENTER
 62
     6
100
AcDbLine
 10
386.850384
 20
207.5
 30
0.0
 11
393.349921
 21
207.5
 31
0.0
  0
LINE
  5
162
330
1F
100
AcDbEntity
  8
LAYERGROUP-1
  6
CENTER
 62
     6
100
AcDbLine
 10
390.462315
 20
210.88654
 30
0.0
 11
390.462315
 21
204.445558
 31
0.0
  0
CIRCLE
  5
163
330
1F
100
AcDbEntity
  8
GR1-1
  6
CONTINUOUS
 62
     3
100
AcDbCircle
 10
300.212315
 20
114.5
 30
0.0
 40
5.0
  0
ARC
  5
164
330
1F
100
AcDbEntity
  8
GR1-1
  6
CONTINUOUS
 62
     3
100
AcDbCircle
 10
333.712315
 20
114.5
 30
0.0
 40
62.5
100
AcDbArc
 50
-260.349994
 51
44.384875
  0
CIRCLE
  5
165
330
1F
100
AcDbEntity
  8
GR1-1
  6
CONTINUOUS
 62
     3
100
AcDbCircle
 10
357.400392
 20
90.811923
 30
0.0
 40
5.0
  0
CIRCLE
  5
166
330
1F
100
AcDbEntity
  8
GR1-1
  6
CONTINUOUS
 62
     3
100
AcDbCircle
 10
367.212315
 20
114.5
 30
0.0
 40
5.0
  0
CIRCLE
  5
167
330
1F
100
AcDbEntity
  8
GR1-1
  6
CONTINUOUS
 62
     3
100
AcDbCircle
 10
333.712315
 20
81.0
 30
0.0
 40
5.0
  0
CIRCLE
  5
168
330
1F
100
AcDbEntity
  8
GR1-1
  6
CONTINUOUS
 62
     3
100
AcDbCircle
 10
320.966642
 20
83.519208
 30
0.0
 40
2.0
  0
CIRCLE
  5
169
330
1F
100
AcDbEntity
  8
GR1-1
  6
CONTINUOUS
 62
     3
100
AcDbCircle
 10
310.024238
 20
90.811923
 30
0.0
 40
5.0
  0
CIRCLE
  5
16A
330
1F
100
AcDbEntity
  8
GR1-1
  6
CONTINUOUS
 62
     3
100
AcDbCircle
 10
310.024238
 20
138.188077
 30
0.0
 40
5.0
  0
ARC
  5
16B
330
1F
100
AcDbEntity
  8
GR1-1
  6
CONTINUOUS
 62
     3
100
AcDbCircle
 10
333.712315
 20
114.5
 30
0.0
 40
48.0
100
AcDbArc
 50
-255.926257
 51
39.141265
  0
TEXT
  5
16C
330
1F
100
AcDbEntity
  8
GR1-1
  6
CONTINUOUS
 62
     7
100
AcDbText
 10
292.86792
 20
85.353607
 30
0.0
 40
7.27538
  1
G
 50
122.0
 41
1.053374
  7
FX_VECTOR
 72
     5
 11
289.386942
 21
90.924336
 31
0.0
100
AcDbText
  0
TEXT
  5
16D
330
1F
100
AcDbEntity
  8
GR1-1
  6
CONTINUOUS
 62
     7
100
AcDbText
 10
289.209015
 20
91.321716
 30
0.0
 40
7.27538
  1
O
 50
114.0
 41
0.997933
  7
FX_VECTOR
 72
     5
 11
286.537209
 21
97.322689
 31
0.0
100
AcDbText
  0
TEXT
  5
16E
330
1F
100
AcDbEntity
  8
GR1-1
  6
CONTINUOUS
 62
     7
100
AcDbText
 10
286.416321
 20
97.740967
 30
0.0
 40
7.27538
  1
L
 50
106.0
 41
1.185046
  7
FX_VECTOR
 72
     5
 11
284.605691
 21
104.055382
 31
0.0
100
AcDbText
  0
TEXT
  5
16F
330
1F
100
AcDbEntity
  8
GR1-1
  6
CONTINUOUS
 62
     7
100
AcDbText
 10
284.544189
 20
104.486389
 30
0.0
 40
7.27538
  1
D
 50
98.0
 41
1.053374
  7
FX_VECTOR
 72
     5
 11
283.629978
 21
110.991344
 31
0.0
100
AcDbText
  0
TEXT
  5
170
330
1F
100
AcDbEntity
  8
GR1-1
  6
CONTINUOUS
 62
     7
100
AcDbText
 10
283.688751
 20
118.426849
 30
0.0
 40
7.27538
  1
C
 50
82.0
 41
1.053374
  7
FX_VECTOR
 72
     5
 11
284.602963
 21
124.931804
 31
0.0
100
AcDbText
  0
TEXT
  5
171
330
1F
100
AcDbEntity
  8
GR1-1
  6
CONTINUOUS
 62
     7
100
AcDbText
 10
284.722107
 20
125.350586
 30
0.0
 40
7.27538
  1
A
 50
74.0
 41
1.115337
  7
FX_VECTOR
 72
     5
 11
286.532736
 21
131.665001
 31
0.0
100
AcDbText
  0
TEXT
  5
172
330
1F
100
AcDbEntity
  8
GR1-1
  6
CONTINUOUS
 62
     7
100
AcDbText
 10
286.708984
 20
132.06311
 30
0.0
 40
7.27538
  1
S
 50
66.0
 41
1.115337
  7
FX_VECTOR
 72
     5
 11
289.38079
 21
138.064084
 31
0.0
100
AcDbText
  0
TEXT
  5
173
330
1F
100
AcDbEntity
  8
GR1-1
  6
CONTINUOUS
 62
     7
100
AcDbText
 10
289.610718
 20
138.433777
 30
0.0
 40
7.27538
  1
T
 50
58.0
 41
1.264049
  7
FX_VECTOR
 72
     5
 11
293.091695
 21
144.004506
 31
0.0
100
AcDbText
  0
TEXT
  5
174
330
1F
100
AcDbEntity
  8
GR1-1
  6
CONTINUOUS
 62
     7
100
AcDbText
 10
293.37085
 20
144.338593
 30
0.0
 40
7.27538
  1
E
 50
50.0
 41
1.115337
  7
FX_VECTOR
 72
     5
 11
297.593246
 21
149.370649
 31
0.0
100
AcDbText
  0
TEXT
  5
175
330
1F
100
AcDbEntity
  8
GR1-1
  6
CONTINUOUS
 62
     7
100
AcDbText
 10
297.916168
 20
149.662659
 30
0.0
 40
7.27538
  1
R
 50
42.0
 41
1.053374
  7
FX_VECTOR
 72
     5
 11
302.7978
 21
154.058099
 31
0.0
100
AcDbText
  0
TEXT
  5
176
330
1F
100
AcDbEntity
  8
GR1-1
  6
CONTINUOUS
 62
     7
100
AcDbText
 10
378.955048
 20
136.394653
 30
0.0
 40
7.241241
  1
1
 50
291.25
 41
2.106545
  7
FX_VECTOR
 72
     5
 11
381.850996
 21
128.947735
 31
0.0
100
AcDbText
  0
TEXT
  5
177
330
1F
100
AcDbEntity
  8
GR1-1
  6
CONTINUOUS
 62
     7
100
AcDbText
 10
381.694366
 20
129.466858
 30
0.0
 40
7.241241
  1
2
 50
282.75
 41
1.363058
  7
FX_VECTOR
 72
     5
 11
383.457781
 21
121.673689
 31
0.0
100
AcDbText
  0
TEXT
  5
178
330
1F
100
AcDbEntity
  8
GR1-1
  6
CONTINUOUS
 62
     7
100
AcDbText
 10
383.379547
 20
122.210266
 30
0.0
 40
7.241241
  1
5
 50
274.25
 41
1.363058
  7
FX_VECTOR
 72
     5
 11
383.971688
 21
114.242049
 31
0.0
100
AcDbText
  0
TEXT
  5
179
330
1F
100
AcDbEntity
  8
GR1-1
  6
CONTINUOUS
 62
     7
100
AcDbText
 10
383.973663
 20
114.784302
 30
0.0
 40
7.241241
  1
X
 50
265.75
 41
1.363058
  7
FX_VECTOR
 72
     5
 11
383.381523
 21
106.816085
 31
0.0
100
AcDbText
  0
TEXT
  5
17A
330
1F
100
AcDbEntity
  8
GR1-1
  6
CONTINUOUS
 62
     7
100
AcDbText
 10
383.463593
 20
107.352081
 30
0.0
 40
7.241241
  1
3
 50
257.25
 41
1.363058
  7
FX_VECTOR
 72
     5
 11
381.700178
 21
99.558912
 31
0.0
100
AcDbText
  0
TEXT
  5
17B
330
1F
100
AcDbEntity
  8
GR1-1
  6
CONTINUOUS
 62
     7
100
AcDbText
 10
381.860565
 20
100.076874
 30
0.0
 40
7.241241
  1
8
 50
248.75
 41
1.363058
  7
FX_VECTOR
 72
     5
 11
378.964617
 21
92.629955
 31
0.0
100
AcDbText
  0
LINE
  5
17C
330
1F
100
AcDbEntity
  8
GR1-1
  6
CONTINUOUS
 62
     7
100
AcDbLine
 10
293.677001
 20
74.519709
 30
0.0
 11
297.691785
 21
78.978578
 31
0.0
  0
LINE
  5
17D
330
1F
100
AcDbEntity
  8
GR1-1
  6
CONTINUOUS
 62
     7
100
AcDbLine
 10
297.691785
 20
78.978578
 30
0.0
 11
302.150654
 21
74.963794
 31
0.0
  0
LINE
  5
17E
330
1F
100
AcDbEntity
  8
GR1-1
  6
CONTINUOUS
 62
     7
100
AcDbLine
 10
302.150654
 20
74.963794
 30
0.0
 11
298.13587
 21
70.504926
 31
0.0
  0
LINE
  5
17F
330
1F
100
AcDbEntity
  8
GR1-1
  6
CONTINUOUS
 62
     7
100
AcDbLine
 10
298.13587
 20
70.504926
 30
0.0
 11
293.677001
 21
74.519709
 31
0.0
  0
LINE
  5
180
330
1F
100
AcDbEntity
  8
GR1-1
  6
CONTINUOUS
 62
     7
100
AcDbLine
 10
295.834101
 20
76.210656
 30
0.0
 11
296.021241
 21
72.639821
 31
0.0
  0
LINE
  5
181
330
1F
100
AcDbEntity
  8
GR1-1
  6
CONTINUOUS
 62
     7
100
AcDbLine
 10
296.021241
 20
72.639821
 30
0.0
 11
300.015759
 21
72.849165
 31
0.0
  0
LINE
  5
182
330
1F
100
AcDbEntity
  8
GR1-1
  6
CONTINUOUS
 62
     7
100
AcDbLine
 10
300.015759
 20
72.849165
 30
0.0
 11
299.806415
 21
76.843683
 31
0.0
  0
LINE
  5
183
330
1F
100
AcDbEntity
  8
GR1-1
  6
CONTINUOUS
 62
     7
100
AcDbLine
 10
299.806415
 20
76.843683
 30
0.0
 11
297.465263
 21
76.720988
 31
0.0
  0
LINE
  5
184
330
1F
100
AcDbEntity
  8
GR1-1
  6
CONTINUOUS
 62
     7
100
AcDbLine
 10
297.385715
 20
76.887764
 30
0.0
 11
297.909576
 21
77.469572
 31
0.0
  0
LINE
  5
185
330
1F
100
AcDbEntity
  8
GR1-1
  6
CONTINUOUS
 62
     7
100
AcDbLine
 10
297.909576
 20
77.469572
 30
0.0
 11
297.166432
 21
78.138702
 31
0.0
  0
LINE
  5
186
330
1F
100
AcDbEntity
  8
GR1-1
  6
CONTINUOUS
 62
     7
100
AcDbLine
 10
297.166432
 20
78.138702
 30
0.0
 11
295.811897
 21
76.634339
 31
0.0
  0
LINE
  5
187
330
1F
100
AcDbEntity
  8
GR1-1
  6
CONTINUOUS
 62
     7
100
AcDbLine
 10
295.811897
 20
76.634339
 30
0.0
 11
297.913828
 21
74.741752
 31
0.0
  0
LINE
  5
188
330
1F
100
AcDbEntity
  8
GR1-1
  6
CONTINUOUS
 62
     7
100
AcDbLine
 10
297.913828
 20
74.741752
 30
0.0
 11
298.248393
 21
75.113324
 31
0.0
  0
LINE
  5
189
330
1F
100
AcDbEntity
  8
GR1-1
  6
CONTINUOUS
 62
     7
100
AcDbLine
 10
298.248393
 20
75.113324
 30
0.0
 11
297.748411
 21
75.56351
 31
0.0
  0
LINE
  5
18A
330
1F
100
AcDbEntity
  8
GR1-1
  6
CONTINUOUS
 62
     7
100
AcDbLine
 10
297.81009
 20
75.737688
 30
0.0
 11
298.860121
 21
75.792717
 31
0.0
  0
LINE
  5
18B
330
1F
100
AcDbEntity
  8
GR1-1
  6
CONTINUOUS
 62
     7
100
AcDbLine
 10
298.860121
 20
75.792717
 30
0.0
 11
298.964793
 21
73.795458
 31
0.0
  0
LINE
  5
18C
330
1F
100
AcDbEntity
  8
GR1-1
  6
CONTINUOUS
 62
     7
100
AcDbLine
 10
298.964793
 20
73.795458
 30
0.0
 11
296.967534
 21
73.690786
 31
0.0
  0
LINE
  5
18D
330
1F
100
AcDbEntity
  8
GR1-1
  6
CONTINUOUS
 62
     7
100
AcDbLine
 10
296.967534
 20
73.690786
 30
0.0
 11
296.885066
 21
75.264363
 31
0.0
  0
LINE
  5
18E
330
1F
100
AcDbEntity
  8
GR1-1
  6
CONTINUOUS
 62
     7
100
AcDbLine
 10
296.885066
 20
75.264363
 30
0.0
 11
295.834101
 21
76.210656
 31
0.0
  0
ARC
  5
18F
330
1F
100
AcDbEntity
  8
GR1-1
  6
CONTINUOUS
 62
     7
100
AcDbCircle
 10
297.460029
 20
76.820851
 30
0.0
 40
0.1
100
AcDbArc
 50
138.0
 51
273.0
  0
ARC
  5
190
330
1F
100
AcDbEntity
  8
GR1-1
  6
CONTINUOUS
 62
     7
100
AcDbCircle
 10
297.815324
 20
75.637825
 30
0.0
 40
0.1
100
AcDbArc
 50
93.0
 51
228.0
  0
LINE
  5
191
330
1F
100
AcDbEntity
  8
GR1-1
  6
CENTER
 62
     6
100
AcDbLine
 10
350.359024
 20
97.853291
 30
0.0
 11
364.432483
 21
83.779832
 31
0.0
  0
CIRCLE
  5
192
330
1F
100
AcDbEntity
  8
GR1-1
  6
CONTINUOUS
 62
     6
100
AcDbCircle
 10
357.400392
 20
90.811923
 30
0.0
 40
7.25
  0
LINE
  5
193
330
1F
100
AcDbEntity
  8
GR1-1
  6
CENTER
 62
     6
100
AcDbLine
 10
323.126974
 20
88.73471
 30
0.0
 11
318.785977
 21
78.254616
 31
0.0
  0
CIRCLE
  5
194
330
1F
100
AcDbEntity
  8
GR1-1
  6
CONTINUOUS
 62
     6
100
AcDbCircle
 10
310.024238
 20
90.811923
 30
0.0
 40
7.25
  0
LINE
  5
195
330
1F
100
AcDbEntity
  8
GR1-1
  6
CENTER
 62
     6
100
AcDbLine
 10
317.065606
 20
97.853291
 30
0.0
 11
302.992147
 21
83.779832
 31
0.0
  0
LINE
  5
196
330
1F
100
AcDbEntity
  8
GR1-1
  6
CENTER
 62
     6
100
AcDbLine
 10
317.065606
 20
131.146709
 30
0.0
 11
302.992147
 21
145.220168
 31
0.0
  0
CIRCLE
  5
197
330
1F
100
AcDbEntity
  8
GR1-1
  6
CONTINUOUS
 62
     6
100
AcDbCircle
 10
310.024238
 20
138.188077
 30
0.0
 40
7.25
  0
ARC
  5
198
330
1F
100
AcDbEntity
  8
GR1-1
  6
CENTER
 62
     6
100
AcDbCircle
 10
333.712315
 20
114.5
 30
0.0
 40
33.50000000000003
100
AcDbArc
 50
-247.324642
 51
28.75961
  0
ARC
  5
199
330
1F
100
AcDbEntity
  8
GR1-1
  6
CONTINUOUS
 62
     6
100
AcDbCircle
 10
333.712315
 20
114.5
 30
0.0
 40
44.50000000000003
100
AcDbArc
 50
-254.401528
 51
37.321571
  0
LINE
  5
19A
330
1F
100
AcDbEntity
  8
GR1-1
  6
CONTINUOUS
 62
     3
100
AcDbLine
 10
123.212315
 20
109.447
 30
0.0
 11
123.212315
 21
119.553
 31
0.0
  0
LINE
  5
19B
330
1F
100
AcDbEntity
  8
GR1-1
  6
CONTINUOUS
 62
     3
100
AcDbLine
 10
123.212315
 20
119.553
 30
0.0
 11
124.212315
 21
120.5
 31
0.0
  0
LINE
  5
19C
330
1F
100
AcDbEntity
  8
GR1-1
  6
CONTINUOUS
 62
     3
100
AcDbLine
 10
124.212315
 20
120.5
 30
0.0
 11
126.212315
 21
120.5
 31
0.0
  0
LINE
  5
19D
330
1F
100
AcDbEntity
  8
GR1-1
  6
CONTINUOUS
 62
     3
100
AcDbLine
 10
126.212315
 20
108.5
 30
0.0
 11
124.212315
 21
108.5
 31
0.0
  0
LINE
  5
19E
330
1F
100
AcDbEntity
  8
GR1-1
  6
CONTINUOUS
 62
     3
100
AcDbLine
 10
124.212315
 20
108.5
 30
0.0
 11
123.212315
 21
109.447
 31
0.0
  0
LINE
  5
19F
330
1F
100
AcDbEntity
  8
GR1-1
  6
CONTINUOUS
 62
     3
100
AcDbLine
 10
147.712315
 20
162.5
 30
0.0
 11
147.712315
 21
66.5
 31
0.0
  0
LINE
  5
1A0
330
1F
100
AcDbEntity
  8
GR1-1
  6
CONTINUOUS
 62
     3
100
AcDbLine
 10
147.712315
 20
162.5
 30
0.0
 11
148.3119
 21
162.5
 31
0.0
  0
ARC
  5
1A1
330
1F
100
AcDbEntity
  8
GR1-1
  6
CONTINUOUS
 62
     3
100
AcDbCircle
 10
148.3119
 20
164.5
 30
0.0
 40
2.0
100
AcDbArc
 50
270.0
 51
340.0
  0
LINE
  5
1A2
330
1F
100
AcDbEntity
  8
GR1-1
  6
CONTINUOUS
 62
     3
100
AcDbLine
 10
150.191285
 20
163.81596
 30
0.0
 11
153.400696
 21
172.633744
 31
0.0
  0
ARC
  5
1A3
330
1F
100
AcDbEntity
  8
GR1-1
  6
CONTINUOUS
 62
     3
100
AcDbCircle
 10
158.099159
 20
170.923643
 30
0.0
 40
5.0
100
AcDbArc
 50
104.246268
 51
160.0
  0
ARC
  5
1A4
330
1F
100
AcDbEntity
  8
GR1-1
  6
CONTINUOUS
 62
     3
100
AcDbCircle
 10
166.712315
 20
137.0
 30
0.0
 40
40.0
100
AcDbArc
 50
75.753732
 51
104.246268
  0
LINE
  5
1A5
330
1F
100
AcDbEntity
  8
GR1-1
  6
CONTINUOUS
 62
     6
100
AcDbLine
 10
154.267315
 20
174.135647
 30
0.0
 11
154.267315
 21
54.864353
 31
0.0
  0
LINE
  5
1A6
330
1F
100
AcDbEntity
  8
GR1-1
  6
CONTINUOUS
 62
     6
100
AcDbLine
 10
148.3119
 20
162.5
 30
0.0
 11
148.3119
 21
66.5
 31
0.0
  0
LINE
  5
1A7
330
1F
100
AcDbEntity
  8
GR1-1
  6
CONTINUOUS
 62
     6
100
AcDbLine
 10
124.212315
 20
120.5
 30
0.0
 11
124.212315
 21
108.5
 31
0.0
  0
LINE
  5
1A8
330
1F
100
AcDbEntity
  8
GR1-1
  6
CONTINUOUS
 62
     6
100
AcDbLine
 10
126.212315
 20
109.447
 30
0.0
 11
123.212315
 21
109.447
 31
0.0
  0
LINE
  5
1A9
330
1F
100
AcDbEntity
  8
GR1-1
  6
CONTINUOUS
 62
     6
100
AcDbLine
 10
126.212315
 20
119.553
 30
0.0
 11
123.212315
 21
119.553
 31
0.0
  0
LINE
  5
1AA
330
1F
100
AcDbEntity
  8
GR1-1
  6
CONTINUOUS
 62
     3
100
AcDbLine
 10
147.712315
 20
66.5
 30
0.0
 11
148.3119
 21
66.5
 31
0.0
  0
ARC
  5
1AB
330
1F
100
AcDbEntity
  8
GR1-1
  6
CONTINUOUS
 62
     3
100
AcDbCircle
 10
148.3119
 20
64.5
 30
0.0
 40
2.0
100
AcDbArc
 50
20.0
 51
90.0
  0
LINE
  5
1AC
330
1F
100
AcDbEntity
  8
GR1-1
  6
CONTINUOUS
 62
     3
100
AcDbLine
 10
150.191285
 20
65.18404
 30
0.0
 11
153.400696
 21
56.366256
 31
0.0
  0
ARC
  5
1AD
330
1F
100
AcDbEntity
  8
GR1-1
  6
CONTINUOUS
 62
     3
100
AcDbCircle
 10
158.099159
 20
58.076357
 30
0.0
 40
5.0
100
AcDbArc
 50
200.0
 51
255.753732
  0
ARC
  5
1AE
330
1F
100
AcDbEntity
  8
GR1-1
  6
CONTINUOUS
 62
     3
100
AcDbCircle
 10
166.712315
 20
92.0
 30
0.0
 40
40.0
100
AcDbArc
 50
255.753732
 51
284.246268
  0
LINE
  5
1AF
330
1F
100
AcDbEntity
  8
GR1-1
  6
CONTINUOUS
 62
     3
100
AcDbLine
 10
185.712315
 20
162.5
 30
0.0
 11
185.712315
 21
66.5
 31
0.0
  0
LINE
  5
1B0
330
1F
100
AcDbEntity
  8
GR1-1
  6
CONTINUOUS
 62
     3
100
AcDbLine
 10
185.712315
 20
162.5
 30
0.0
 11
185.11273
 21
162.5
 31
0.0
  0
ARC
  5
1B1
330
1F
100
AcDbEntity
  8
GR1-1
  6
CONTINUOUS
 62
     3
100
AcDbCircle
 10
185.11273
 20
164.5
 30
0.0
 40
2.0
100
AcDbArc
 50
200.0
 51
270.0
  0
LINE
  5
1B2
330
1F
100
AcDbEntity
  8
GR1-1
  6
CONTINUOUS
 62
     3
100
AcDbLine
 10
183.233345
 20
163.81596
 30
0.0
 11
180.023934
 21
172.633744
 31
0.0
  0
ARC
  5
1B3
330
1F
100
AcDbEntity
  8
GR1-1
  6
CONTINUOUS
 62
     3
100
AcDbCircle
 10
175.325471
 20
170.923643
 30
0.0
 40
5.0
100
AcDbArc
 50
20.0
 51
75.753732
  0
LINE
  5
1B4
330
1F
100
AcDbEntity
  8
GR1-1
  6
CONTINUOUS
 62
     6
100
AcDbLine
 10
179.157315
 20
174.135647
 30
0.0
 11
179.157315
 21
54.864353
 31
0.0
  0
LINE
  5
1B5
330
1F
100
AcDbEntity
  8
GR1-1
  6
CONTINUOUS
 62
     6
100
AcDbLine
 10
185.11273
 20
162.5
 30
0.0
 11
185.11273
 21
66.5
 31
0.0
  0
LINE
  5
1B6
330
1F
100
AcDbEntity
  8
GR1-1
  6
CONTINUOUS
 62
     3
100
AcDbLine
 10
185.712315
 20
66.5
 30
0.0
 11
185.11273
 21
66.5
 31
0.0
  0
ARC
  5
1B7
330
1F
100
AcDbEntity
  8
GR1-1
  6
CONTINUOUS
 62
     3
100
AcDbCircle
 10
185.11273
 20
64.5
 30
0.0
 40
2.0
100
AcDbArc
 50
90.0
 51
160.0
  0
LINE
  5
1B8
330
1F
100
AcDbEntity
  8
GR1-1
  6
CONTINUOUS
 62
     3
100
AcDbLine
 10
183.233345
 20
65.18404
 30
0.0
 11
180.023934
 21
56.366256
 31
0.0
  0
ARC
  5
1B9
330
1F
100
AcDbEntity
  8
GR1-1
  6
CONTINUOUS
 62
     3
100
AcDbCircle
 10
175.325471
 20
58.076357
 30
0.0
 40
5.0
100
AcDbArc
 50
284.246268
 51
340.0
  0
TEXT
  5
1BA
330
1F
100
AcDbEntity
  8
}}ﾊﾊGG血CCТ
  6
CONTINUOUS
 62
     7
100
AcDbText
 10
329.922729
 20
12.0
 30
0.0
 40
6.0
  1
ＳＪ－１２５　Ｒ
 41
0.794326
  7
FX_VECTOR
 72
     5
 11
361.922729
 21
12.0
 31
0.0
100
AcDbText
  0
TEXT
  5
1BB
330
1F
100
AcDbEntity
  8
LAYERGROUP-1
  6
CONTINUOUS
 62
     7
100
AcDbText
 10
429.631592
 20
12.0
 30
0.0
 40
6.0
  1
S35A0GCA-C02
 41
0.694215
  7
FX_VECTOR
 72
     5
 11
477.631592
 21
12.0
 31
0.0
100
AcDbText
  0
TEXT
  5
1BC
330
1F
100
AcDbEntity
  8
GR1-1
  6
CONTINUOUS
 62
     7
100
AcDbText
 10
367.205627
 20
249.93335
 30
0.0
 40
4.0
  1
102
 41
0.828947
  7
FX_VECTOR
 72
     5
 11
376.205627
 21
249.93335
 31
0.0
100
AcDbText
  0
LINE
  5
1BD
330
1F
100
AcDbEntity
  8
GR1-1
  6
CONTINUOUS
 62
     7
100
AcDbLine
 10
320.70564
 20
288.0
 30
0.0
 11
320.70564
 21
247.933352
 31
0.0
  0
LINE
  5
1BE
330
1F
100
AcDbEntity
  8
GR1-1
  6
CONTINUOUS
 62
     7
100
AcDbLine
 10
422.70564
 20
288.0
 30
0.0
 11
422.70564
 21
247.933352
 31
0.0
  0
LINE
  5
1BF
330
1F
100
AcDbEntity
  8
GR1-1
  6
CONTINUOUS
 62
     7
100
AcDbLine
 10
320.70564
 20
248.933352
 30
0.0
 11
422.70564
 21
248.933352
 31
0.0
  0
INSERT
  5
1C0
330
1F
100
AcDbEntity
  8
GR1-1
  6
CONTINUOUS
 62
     7
100
AcDbBlockReference
  2
FXTIP_ARROW_S
 10
320.70564
 20
248.933352
 30
0.0
 41
4.0
 42
4.0
 50
180.0
  0
INSERT
  5
1C1
330
1F
100
AcDbEntity
  8
GR1-1
  6
CONTINUOUS
 62
     7
100
AcDbBlockReference
  2
FXTIP_ARROW_E
 10
422.70564
 20
248.933352
 30
0.0
 41
4.0
 42
4.0
 50
360.0
  0
TEXT
  5
1C2
330
1F
100
AcDbEntity
  8
GR1-1
  6
CONTINUOUS
 62
     7
100
AcDbText
 10
368.707672
 20
259.93335
 30
0.0
 40
4.0
  1
80
 41
0.851351
  7
FX_VECTOR
 72
     5
 11
374.707672
 21
259.93335
 31
0.0
100
AcDbText
  0
LINE
  5
1C3
330
1F
100
AcDbEntity
  8
GR1-1
  6
CONTINUOUS
 62
     7
100
AcDbLine
 10
331.70564
 20
279.995935
 30
0.0
 11
331.70564
 21
257.933352
 31
0.0
  0
LINE
  5
1C4
330
1F
100
AcDbEntity
  8
GR1-1
  6
CONTINUOUS
 62
     7
100
AcDbLine
 10
411.709704
 20
279.995935
 30
0.0
 11
411.709704
 21
257.933352
 31
0.0
  0
LINE
  5
1C5
330
1F
100
AcDbEntity
  8
GR1-1
  6
CONTINUOUS
 62
     7
100
AcDbLine
 10
331.70564
 20
258.933352
 30
0.0
 11
411.709704
 21
258.933352
 31
0.0
  0
INSERT
  5
1C6
330
1F
100
AcDbEntity
  8
GR1-1
  6
CONTINUOUS
 62
     7
100
AcDbBlockReference
  2
FXTIP_ARROW_S
 10
331.70564
 20
258.933352
 30
0.0
 41
4.0
 42
4.0
 50
180.0
  0
INSERT
  5
1C7
330
1F
100
AcDbEntity
  8
GR1-1
  6
CONTINUOUS
 62
     7
100
AcDbBlockReference
  2
FXTIP_ARROW_E
 10
411.709704
 20
258.933352
 30
0.0
 41
4.0
 42
4.0
 50
360.0
  0
TEXT
  5
1C8
330
1F
100
AcDbEntity
  8
GR1-1
  6
CONTINUOUS
 62
     7
100
AcDbText
 10
368.707672
 20
269.93335
 30
0.0
 40
4.0
  1
75
 41
0.851351
  7
FX_VECTOR
 72
     5
 11
374.707672
 21
269.93335
 31
0.0
100
AcDbText
  0
LINE
  5
1C9
330
1F
100
AcDbEntity
  8
GR1-1
  6
CONTINUOUS
 62
     7
100
AcDbLine
 10
334.20564
 20
282.495935
 30
0.0
 11
334.20564
 21
267.933352
 31
0.0
  0
LINE
  5
1CA
330
1F
100
AcDbEntity
  8
GR1-1
  6
CONTINUOUS
 62
     7
100
AcDbLine
 10
409.209704
 20
282.495935
 30
0.0
 11
409.209704
 21
267.933352
 31
0.0
  0
LINE
  5
1CB
330
1F
100
AcDbEntity
  8
GR1-1
  6
CONTINUOUS
 62
     7
100
AcDbLine
 10
334.20564
 20
268.933352
 30
0.0
 11
409.209704
 21
268.933352
 31
0.0
  0
INSERT
  5
1CC
330
1F
100
AcDbEntity
  8
GR1-1
  6
CONTINUOUS
 62
     7
100
AcDbBlockReference
  2
FXTIP_ARROW_S
 10
334.20564
 20
268.933352
 30
0.0
 41
4.0
 42
4.0
 50
180.0
  0
INSERT
  5
1CD
330
1F
100
AcDbEntity
  8
GR1-1
  6
CONTINUOUS
 62
     7
100
AcDbBlockReference
  2
FXTIP_ARROW_E
 10
409.209704
 20
268.933352
 30
0.0
 41
4.0
 42
4.0
 50
360.0
  0
TEXT
  5
1CE
330
1F
100
AcDbEntity
  8
GR1-1
  6
CONTINUOUS
 62
     7
100
AcDbText
 10
451.641174
 20
325.5
 30
0.0
 40
4.0
  1
102
 50
90.0
 41
0.828947
  7
FX_VECTOR
 72
     5
 11
451.641174
 21
334.5
 31
0.0
100
AcDbText
  0
LINE
  5
1CF
330
1F
100
AcDbEntity
  8
GR1-1
  6
CONTINUOUS
 62
     7
100
AcDbLine
 10
413.70564
 20
279.0
 30
0.0
 11
453.641173
 21
279.0
 31
0.0
  0
LINE
  5
1D0
330
1F
100
AcDbEntity
  8
GR1-1
  6
CONTINUOUS
 62
     7
100
AcDbLine
 10
413.70564
 20
381.0
 30
0.0
 11
453.641173
 21
381.0
 31
0.0
  0
LINE
  5
1D1
330
1F
100
AcDbEntity
  8
GR1-1
  6
CONTINUOUS
 62
     7
100
AcDbLine
 10
452.641173
 20
279.0
 30
0.0
 11
452.641173
 21
381.0
 31
0.0
  0
INSERT
  5
1D2
330
1F
100
AcDbEntity
  8
GR1-1
  6
CONTINUOUS
 62
     7
100
AcDbBlockReference
  2
FXTIP_ARROW_S
 10
452.641173
 20
279.0
 30
0.0
 41
4.0
 42
4.0
 50
270.0
  0
INSERT
  5
1D3
330
1F
100
AcDbEntity
  8
GR1-1
  6
CONTINUOUS
 62
     7
100
AcDbBlockReference
  2
FXTIP_ARROW_E
 10
452.641173
 20
381.0
 30
0.0
 41
4.0
 42
4.0
 50
90.0
  0
TEXT
  5
1D4
330
1F
100
AcDbEntity
  8
GR1-1
  6
CONTINUOUS
 62
     7
100
AcDbText
 10
441.641174
 20
327.0
 30
0.0
 40
4.0
  1
80
 50
90.0
 41
0.851351
  7
FX_VECTOR
 72
     5
 11
441.641174
 21
333.0
 31
0.0
100
AcDbText
  0
LINE
  5
1D5
330
1F
100
AcDbEntity
  8
GR1-1
  6
CONTINUOUS
 62
     7
100
AcDbLine
 10
421.709704
 20
290.0
 30
0.0
 11
443.641173
 21
290.0
 31
0.0
  0
LINE
  5
1D6
330
1F
100
AcDbEntity
  8
GR1-1
  6
CONTINUOUS
 62
     7
100
AcDbLine
 10
421.709704
 20
370.0
 30
0.0
 11
443.641173
 21
370.0
 31
0.0
  0
LINE
  5
1D7
330
1F
100
AcDbEntity
  8
GR1-1
  6
CONTINUOUS
 62
     7
100
AcDbLine
 10
442.641173
 20
290.0
 30
0.0
 11
442.641173
 21
370.0
 31
0.0
  0
INSERT
  5
1D8
330
1F
100
AcDbEntity
  8
GR1-1
  6
CONTINUOUS
 62
     7
100
AcDbBlockReference
  2
FXTIP_ARROW_S
 10
442.641173
 20
290.0
 30
0.0
 41
4.0
 42
4.0
 50
270.0
  0
INSERT
  5
1D9
330
1F
100
AcDbEntity
  8
GR1-1
  6
CONTINUOUS
 62
     7
100
AcDbBlockReference
  2
FXTIP_ARROW_E
 10
442.641173
 20
370.0
 30
0.0
 41
4.0
 42
4.0
 50
90.0
  0
TEXT
  5
1DA
330
1F
100
AcDbEntity
  8
GR1-1
  6
CONTINUOUS
 62
     7
100
AcDbText
 10
431.641174
 20
327.0
 30
0.0
 40
4.0
  1
75
 50
90.0
 41
0.851351
  7
FX_VECTOR
 72
     5
 11
431.641174
 21
333.0
 31
0.0
100
AcDbText
  0
LINE
  5
1DB
330
1F
100
AcDbEntity
  8
GR1-1
  6
CONTINUOUS
 62
     7
100
AcDbLine
 10
419.209704
 20
367.5
 30
0.0
 11
433.641173
 21
367.5
 31
0.0
  0
LINE
  5
1DC
330
1F
100
AcDbEntity
  8
GR1-1
  6
CONTINUOUS
 62
     7
100
AcDbLine
 10
419.209704
 20
292.5
 30
0.0
 11
433.641173
 21
292.5
 31
0.0
  0
LINE
  5
1DD
330
1F
100
AcDbEntity
  8
GR1-1
  6
CONTINUOUS
 62
     7
100
AcDbLine
 10
432.641173
 20
367.5
 30
0.0
 11
432.641173
 21
292.5
 31
0.0
  0
INSERT
  5
1DE
330
1F
100
AcDbEntity
  8
GR1-1
  6
CONTINUOUS
 62
     7
100
AcDbBlockReference
  2
FXTIP_ARROW_S
 10
432.641173
 20
367.5
 30
0.0
 41
4.0
 42
4.0
 50
90.0
  0
INSERT
  5
1DF
330
1F
100
AcDbEntity
  8
GR1-1
  6
CONTINUOUS
 62
     7
100
AcDbBlockReference
  2
FXTIP_ARROW_E
 10
432.641173
 20
292.5
 30
0.0
 41
4.0
 42
4.0
 50
270.0
  0
TEXT
  5
1E0
330
1F
100
AcDbEntity
  8
GR1-1
  6
CONTINUOUS
 62
     7
100
AcDbText
 10
441.675964
 20
131.5
 30
0.0
 40
4.0
  1
168
 50
90.0
 41
0.828947
  7
FX_VECTOR
 72
     5
 11
441.675964
 21
140.5
 31
0.0
100
AcDbText
  0
LINE
  5
1E1
330
1F
100
AcDbEntity
  8
GR1-1
  6
CONTINUOUS
 62
     7
100
AcDbLine
 10
423.712315
 20
220.0
 30
0.0
 11
443.675949
 21
220.0
 31
0.0
  0
LINE
  5
1E2
330
1F
100
AcDbEntity
  8
GR1-1
  6
CONTINUOUS
 62
     7
100
AcDbLine
 10
334.712315
 20
52.0
 30
0.0
 11
443.675949
 21
52.0
 31
0.0
  0
LINE
  5
1E3
330
1F
100
AcDbEntity
  8
GR1-1
  6
CONTINUOUS
 62
     7
100
AcDbLine
 10
442.675949
 20
220.0
 30
0.0
 11
442.675949
 21
52.0
 31
0.0
  0
INSERT
  5
1E4
330
1F
100
AcDbEntity
  8
GR1-1
  6
CONTINUOUS
 62
     7
100
AcDbBlockReference
  2
FXTIP_ARROW_S
 10
442.675949
 20
220.0
 30
0.0
 41
4.0
 42
4.0
 50
90.0
  0
INSERT
  5
1E5
330
1F
100
AcDbEntity
  8
GR1-1
  6
CONTINUOUS
 62
     7
100
AcDbBlockReference
  2
FXTIP_ARROW_E
 10
442.675949
 20
52.0
 30
0.0
 41
4.0
 42
4.0
 50
270.0
  0
TEXT
  5
1E6
330
1F
100
AcDbEntity
  8
GR1-1
  6
CONTINUOUS
 62
     7
100
AcDbText
 10
431.675964
 20
159.75
 30
0.0
 40
4.0
  1
105.5
 50
90.0
 41
0.905172
  7
FX_VECTOR
 72
     5
 11
431.675964
 21
174.75
 31
0.0
100
AcDbText
  0
LINE
  5
1E7
330
1F
100
AcDbEntity
  8
GR1-1
  6
CONTINUOUS
 62
     7
100
AcDbLine
 10
404.590077
 20
114.5
 30
0.0
 11
433.675949
 21
114.5
 31
0.0
  0
LINE
  5
1E8
330
1F
100
AcDbEntity
  8
GR1-1
  6
CONTINUOUS
 62
     7
100
AcDbLine
 10
432.675949
 20
220.0
 30
0.0
 11
432.675949
 21
114.5
 31
0.0
  0
INSERT
  5
1E9
330
1F
100
AcDbEntity
  8
GR1-1
  6
CONTINUOUS
 62
     7
100
AcDbBlockReference
  2
FXTIP_ARROW_S
 10
432.675949
 20
220.0
 30
0.0
 41
4.0
 42
4.0
 50
90.0
  0
INSERT
  5
1EA
330
1F
100
AcDbEntity
  8
GR1-1
  6
CONTINUOUS
 62
     7
100
AcDbBlockReference
  2
FXTIP_ARROW_E
 10
432.675949
 20
114.5
 30
0.0
 41
4.0
 42
4.0
 50
270.0
  0
TEXT
  5
1EB
330
1F
100
AcDbEntity
  8
GR1-1
  6
CONTINUOUS
 62
     7
100
AcDbText
 10
307.875371
 20
385.352727
 30
0.0
 40
4.0
  1
4-11
 50
45.0
 41
0.818182
  7
FX_VECTOR
 72
     5
 11
316.360652
 21
393.838008
 31
0.0
100
AcDbText
  0
LINE
  5
1EC
330
1F
100
AcDbEntity
  8
GR1-1
  6
CONTINUOUS
 62
     7
100
AcDbLine
 10
326.975769
 20
366.676598
 30
0.0
 11
308.087509
 21
385.564858
 31
0.0
  0
LINE
  5
1ED
330
1F
100
AcDbEntity
  8
GR1-1
  6
CONTINUOUS
 62
     7
100
AcDbLine
 10
335.036787
 20
374.737615
 30
0.0
 11
316.148526
 21
393.625876
 31
0.0
  0
LINE
  5
1EE
330
1F
100
AcDbEntity
  8
GR1-1
  6
CONTINUOUS
 62
     7
100
AcDbLine
 10
308.794616
 20
384.857752
 30
0.0
 11
316.855633
 21
392.918769
 31
0.0
  0
INSERT
  5
1EF
330
1F
100
AcDbEntity
  8
GR1-1
  6
CONTINUOUS
 62
     7
100
AcDbBlockReference
  2
FXTIP_ARROW_S
 10
308.794616
 20
384.857752
 30
0.0
 41
4.0
 42
4.0
 50
225.0
  0
INSERT
  5
1F0
330
1F
100
AcDbEntity
  8
GR1-1
  6
CONTINUOUS
 62
     7
100
AcDbBlockReference
  2
FXTIP_ARROW_E
 10
316.855633
 20
392.918769
 30
0.0
 41
4.0
 42
4.0
 50
45.0
  0
TEXT
  5
1F1
330
1F
100
AcDbEntity
  8
LAYERGROUP-1
  6
CONTINUOUS
 62
     7
100
AcDbText
 10
163.712326
 20
43.0
 30
0.0
 40
4.0
  1
38
 41
0.851351
  7
FX_VECTOR
 72
     5
 11
169.712326
 21
43.0
 31
0.0
100
AcDbText
  0
LINE
  5
1F2
330
1F
100
AcDbEntity
  8
LAYERGROUP-1
  6
CONTINUOUS
 62
     7
100
AcDbLine
 10
147.712315
 20
42.0
 30
0.0
 11
185.712315
 21
42.0
 31
0.0
  0
INSERT
  5
1F3
330
1F
100
AcDbEntity
  8
LAYERGROUP-1
  6
CONTINUOUS
 62
     7
100
AcDbBlockReference
  2
FXTIP_ARROW_S
 10
147.712315
 20
42.0
 30
0.0
 41
4.0
 42
4.0
 50
180.0
  0
INSERT
  5
1F4
330
1F
100
AcDbEntity
  8
LAYERGROUP-1
  6
CONTINUOUS
 62
     7
100
AcDbBlockReference
  2
FXTIP_ARROW_E
 10
185.712315
 20
42.0
 30
0.0
 41
4.0
 42
4.0
 50
360.0
  0
LINE
  5
1F5
330
1F
100
AcDbEntity
  8
LAYERGROUP-1
  6
CONTINUOUS
 62
     7
100
AcDbLine
 10
147.712315
 20
65.5
 30
0.0
 11
147.712315
 21
41.0
 31
0.0
  0
LINE
  5
1F6
330
1F
100
AcDbEntity
  8
LAYERGROUP-1
  6
CONTINUOUS
 62
     7
100
AcDbLine
 10
185.712315
 20
65.5
 30
0.0
 11
185.712315
 21
41.0
 31
0.0
  0
LINE
  5
1F7
330
1F
100
AcDbEntity
  8
GR1-1
  6
CONTINUOUS
 62
     7
100
AcDbLine
 10
297.901978
 20
78.789319
 30
0.0
 11
297.502526
 21
78.768385
 31
0.0
  0
LINE
  5
1F8
330
1F
100
AcDbEntity
  8
GR1-1
  6
CONTINUOUS
 62
     7
100
AcDbLine
 10
298.112171
 20
78.600061
 30
0.0
 11
297.313268
 21
78.558192
 31
0.0
  0
LINE
  5
1F9
330
1F
100
AcDbEntity
  8
GR1-1
  6
CONTINUOUS
 62
     7
100
AcDbLine
 10
298.322364
 20
78.410802
 30
0.0
 11
297.124009
 21
78.347999
 31
0.0
  0
LINE
  5
1FA
330
1F
100
AcDbEntity
  8
GR1-1
  6
CONTINUOUS
 62
     7
100
AcDbLine
 10
298.532557
 20
78.221543
 30
0.0
 11
296.93475
 21
78.137806
 31
0.0
  0
LINE
  5
1FB
330
1F
100
AcDbEntity
  8
GR1-1
  6
CONTINUOUS
 62
     7
100
AcDbLine
 10
298.742751
 20
78.032285
 30
0.0
 11
297.364823
 21
77.96007
 31
0.0
  0
LINE
  5
1FC
330
1F
100
AcDbEntity
  8
GR1-1
  6
CONTINUOUS
 62
     7
100
AcDbLine
 10
296.9878
 20
77.940311
 30
0.0
 11
296.745491
 21
77.927613
 31
0.0
  0
LINE
  5
1FD
330
1F
100
AcDbEntity
  8
GR1-1
  6
CONTINUOUS
 62
     7
100
AcDbLine
 10
298.952944
 20
77.843026
 30
0.0
 11
297.575016
 21
77.770812
 31
0.0
  0
LINE
  5
1FE
330
1F
100
AcDbEntity
  8
GR1-1
  6
CONTINUOUS
 62
     7
100
AcDbLine
 10
296.798541
 20
77.730118
 30
0.0
 11
296.556233
 21
77.71742
 31
0.0
  0
LINE
  5
1FF
330
1F
100
AcDbEntity
  8
GR1-1
  6
CONTINUOUS
 62
     7
100
AcDbLine
 10
299.163137
 20
77.653767
 30
0.0
 11
297.785209
 21
77.581553
 31
0.0
  0
LINE
  5
200
330
1F
100
AcDbEntity
  8
GR1-1
  6
CONTINUOUS
 62
     7
100
AcDbLine
 10
296.609282
 20
77.519925
 30
0.0
 11
296.366974
 21
77.507226
 31
0.0
  0
LINE
  5
201
330
1F
100
AcDbEntity
  8
GR1-1
  6
CONTINUOUS
 62
     7
100
AcDbLine
 10
299.37333
 20
77.464508
 30
0.0
 11
297.832299
 21
77.383746
 31
0.0
  0
LINE
  5
202
330
1F
100
AcDbEntity
  8
GR1-1
  6
CONTINUOUS
 62
     7
100
AcDbLine
 10
296.420023
 20
77.309732
 30
0.0
 11
296.177715
 21
77.297033
 31
0.0
  0
LINE
  5
203
330
1F
100
AcDbEntity
  8
GR1-1
  6
CONTINUOUS
 62
     7
100
AcDbLine
 10
299.583523
 20
77.27525
 30
0.0
 11
297.64304
 21
77.173553
 31
0.0
  0
LINE
  5
204
330
1F
100
AcDbEntity
  8
GR1-1
  6
CONTINUOUS
 62
     7
100
AcDbLine
 10
296.230765
 20
77.099539
 30
0.0
 11
295.988457
 21
77.08684
 31
0.0
  0
LINE
  5
205
330
1F
100
AcDbEntity
  8
GR1-1
  6
CONTINUOUS
 62
     7
100
AcDbLine
 10
299.793716
 20
77.085991
 30
0.0
 11
297.453781
 21
76.96336
 31
0.0
  0
LINE
  5
206
330
1F
100
AcDbEntity
  8
GR1-1
  6
CONTINUOUS
 62
     7
100
AcDbLine
 10
296.041506
 20
76.889346
 30
0.0
 11
295.799198
 21
76.876647
 31
0.0
  0
LINE
  5
207
330
1F
100
AcDbEntity
  8
GR1-1
  6
CONTINUOUS
 62
     7
100
AcDbLine
 10
300.003909
 20
76.896732
 30
0.0
 11
297.381229
 21
76.759283
 31
0.0
  0
LINE
  5
208
330
1F
100
AcDbEntity
  8
GR1-1
  6
CONTINUOUS
 62
     7
100
AcDbLine
 10
295.852247
 20
76.679153
 30
0.0
 11
295.609939
 21
76.666454
 31
0.0
  0
LINE
  5
209
330
1F
100
AcDbEntity
  8
GR1-1
  6
CONTINUOUS
 62
     7
100
AcDbLine
 10
300.214102
 20
76.707474
 30
0.0
 11
299.81465
 21
76.686539
 31
0.0
  0
LINE
  5
20A
330
1F
100
AcDbEntity
  8
GR1-1
  6
CONTINUOUS
 62
     7
100
AcDbLine
 10
295.977276
 20
76.485431
 30
0.0
 11
295.42068
 21
76.456261
 31
0.0
  0
LINE
  5
20B
330
1F
100
AcDbEntity
  8
GR1-1
  6
CONTINUOUS
 62
     7
100
AcDbLine
 10
300.424295
 20
76.518215
 30
0.0
 11
299.825118
 21
76.486813
 31
0.0
  0
LINE
  5
20C
330
1F
100
AcDbEntity
  8
GR1-1
  6
CONTINUOUS
 62
     7
100
AcDbLine
 10
296.187469
 20
76.296172
 30
0.0
 11
295.231422
 21
76.246068
 31
0.0
  0
LINE
  5
20D
330
1F
100
AcDbEntity
  8
GR1-1
  6
CONTINUOUS
 62
     7
100
AcDbLine
 10
300.634488
 20
76.328956
 30
0.0
 11
299.835585
 21
76.287087
 31
0.0
  0
LINE
  5
20E
330
1F
100
AcDbEntity
  8
GR1-1
  6
CONTINUOUS
 62
     7
100
AcDbLine
 10
296.397662
 20
76.106913
 30
0.0
 11
295.973979
 21
76.084709
 31
0.0
  0
LINE
  5
20F
330
1F
100
AcDbEntity
  8
GR1-1
  6
CONTINUOUS
 62
     7
100
AcDbLine
 10
295.841067
 20
76.077744
 30
0.0
 11
295.042163
 21
76.035875
 31
0.0
  0
LINE
  5
210
330
1F
100
AcDbEntity
  8
GR1-1
  6
CONTINUOUS
 62
     7
100
AcDbLine
 10
300.844682
 20
76.139697
 30
0.0
 11
299.846052
 21
76.087361
 31
0.0
  0
LINE
  5
211
330
1F
100
AcDbEntity
  8
GR1-1
  6
CONTINUOUS
 62
     7
100
AcDbLine
 10
296.607855
 20
75.917655
 30
0.0
 11
296.184173
 21
75.89545
 31
0.0
  0
LINE
  5
212
330
1F
100
AcDbEntity
  8
GR1-1
  6
CONTINUOUS
 62
     7
100
AcDbLine
 10
295.851534
 20
75.878018
 30
0.0
 11
294.852904
 21
75.825682
 31
0.0
  0
LINE
  5
213
330
1F
100
AcDbEntity
  8
GR1-1
  6
CONTINUOUS
 62
     7
100
AcDbLine
 10
301.054875
 20
75.950439
 30
0.0
 11
299.856519
 21
75.887636
 31
0.0
  0
LINE
  5
214
330
1F
100
AcDbEntity
  8
GR1-1
  6
CONTINUOUS
 62
     7
100
AcDbLine
 10
296.818048
 20
75.728396
 30
0.0
 11
296.394366
 21
75.706192
 31
0.0
  0
LINE
  5
215
330
1F
100
AcDbEntity
  8
GR1-1
  6
CONTINUOUS
 62
     7
100
AcDbLine
 10
295.862001
 20
75.678292
 30
0.0
 11
294.663646
 21
75.615489
 31
0.0
  0
LINE
  5
216
330
1F
100
AcDbEntity
  8
GR1-1
  6
CONTINUOUS
 62
     7
100
AcDbLine
 10
301.265068
 20
75.76118
 30
0.0
 11
299.866986
 21
75.68791
 31
0.0
  0
LINE
  5
217
330
1F
100
AcDbEntity
  8
GR1-1
  6
CONTINUOUS
 62
     7
100
AcDbLine
 10
298.868357
 20
75.635574
 30
0.0
 11
297.736524
 21
75.576257
 31
0.0
  0
LINE
  5
218
330
1F
100
AcDbEntity
  8
GR1-1
  6
CONTINUOUS
 62
     7
100
AcDbLine
 10
297.028241
 20
75.539137
 30
0.0
 11
296.604559
 21
75.516933
 31
0.0
  0
LINE
  5
219
330
1F
100
AcDbEntity
  8
GR1-1
  6
CONTINUOUS
 62
     7
100
AcDbLine
 10
295.872468
 20
75.478566
 30
0.0
 11
294.474387
 21
75.405295
 31
0.0
  0
LINE
  5
21A
330
1F
100
AcDbEntity
  8
GR1-1
  6
CONTINUOUS
 62
     7
100
AcDbLine
 10
301.475261
 20
75.571921
 30
0.0
 11
299.877454
 21
75.488184
 31
0.0
  0
LINE
  5
21B
330
1F
100
AcDbEntity
  8
GR1-1
  6
CONTINUOUS
 62
     7
100
AcDbLine
 10
298.878824
 20
75.435848
 30
0.0
 11
297.944572
 21
75.386886
 31
0.0
  0
LINE
  5
21C
330
1F
100
AcDbEntity
  8
GR1-1
  6
CONTINUOUS
 62
     7
100
AcDbLine
 10
297.238435
 20
75.349879
 30
0.0
 11
296.814752
 21
75.327674
 31
0.0
  0
LINE
  5
21D
330
1F
100
AcDbEntity
  8
GR1-1
  6
CONTINUOUS
 62
     7
100
AcDbLine
 10
295.882935
 20
75.27884
 30
0.0
 11
294.285128
 21
75.195102
 31
0.0
  0
LINE
  5
21E
330
1F
100
AcDbEntity
  8
GR1-1
  6
CONTINUOUS
 62
     7
100
AcDbLine
 10
301.685454
 20
75.382663
 30
0.0
 11
299.887921
 21
75.288458
 31
0.0
  0
LINE
  5
21F
330
1F
100
AcDbEntity
  8
GR1-1
  6
CONTINUOUS
 62
     7
100
AcDbLine
 10
298.889291
 20
75.236122
 30
0.0
 11
298.154765
 21
75.197627
 31
0.0
  0
LINE
  5
220
330
1F
100
AcDbEntity
  8
GR1-1
  6
CONTINUOUS
 62
     7
100
AcDbLine
 10
297.448628
 20
75.16062
 30
0.0
 11
296.892032
 21
75.13145
 31
0.0
  0
LINE
  5
221
330
1F
100
AcDbEntity
  8
GR1-1
  6
CONTINUOUS
 62
     7
100
AcDbLine
 10
295.893403
 20
75.079114
 30
0.0
 11
294.095869
 21
74.984909
 31
0.0
  0
LINE
  5
222
330
1F
100
AcDbEntity
  8
GR1-1
  6
CONTINUOUS
 62
     7
100
AcDbLine
 10
301.895647
 20
75.193404
 30
0.0
 11
299.898388
 21
75.088732
 31
0.0
  0
LINE
  5
223
330
1F
100
AcDbEntity
  8
GR1-1
  6
CONTINUOUS
 62
     7
100
AcDbLine
 10
298.899758
 20
75.036396
 30
0.0
 11
298.143437
 21
74.996759
 31
0.0
  0
LINE
  5
224
330
1F
100
AcDbEntity
  8
GR1-1
  6
CONTINUOUS
 62
     7
100
AcDbLine
 10
297.658821
 20
74.971361
 30
0.0
 11
296.902499
 21
74.931724
 31
0.0
  0
LINE
  5
225
330
1F
100
AcDbEntity
  8
GR1-1
  6
CONTINUOUS
 62
     7
100
AcDbLine
 10
295.90387
 20
74.879388
 30
0.0
 11
293.906611
 21
74.774716
 31
0.0
  0
LINE
  5
226
330
1F
100
AcDbEntity
  8
GR1-1
  6
CONTINUOUS
 62
     7
100
AcDbLine
 10
302.10584
 20
75.004145
 30
0.0
 11
299.908855
 21
74.889006
 31
0.0
  0
LINE
  5
227
330
1F
100
AcDbEntity
  8
GR1-1
  6
CONTINUOUS
 62
     7
100
AcDbLine
 10
298.910226
 20
74.83667
 30
0.0
 11
297.954178
 21
74.786566
 31
0.0
  0
LINE
  5
228
330
1F
100
AcDbEntity
  8
GR1-1
  6
CONTINUOUS
 62
     7
100
AcDbLine
 10
297.869014
 20
74.782102
 30
0.0
 11
296.912967
 21
74.731998
 31
0.0
  0
LINE
  5
229
330
1F
100
AcDbEntity
  8
GR1-1
  6
CONTINUOUS
 62
     7
100
AcDbLine
 10
295.914337
 20
74.679662
 30
0.0
 11
293.717352
 21
74.564523
 31
0.0
  0
LINE
  5
22A
330
1F
100
AcDbEntity
  8
GR1-1
  6
CONTINUOUS
 62
     7
100
AcDbLine
 10
302.001746
 20
74.798415
 30
0.0
 11
299.919322
 21
74.68928
 31
0.0
  0
LINE
  5
22B
330
1F
100
AcDbEntity
  8
GR1-1
  6
CONTINUOUS
 62
     7
100
AcDbLine
 10
298.920693
 20
74.636944
 30
0.0
 11
296.923434
 21
74.532272
 31
0.0
  0
LINE
  5
22C
330
1F
100
AcDbEntity
  8
GR1-1
  6
CONTINUOUS
 62
     7
100
AcDbLine
 10
295.924804
 20
74.479936
 30
0.0
 11
293.842381
 21
74.370801
 31
0.0
  0
LINE
  5
22D
330
1F
100
AcDbEntity
  8
GR1-1
  6
CONTINUOUS
 62
     7
100
AcDbLine
 10
301.812487
 20
74.588222
 30
0.0
 11
299.929789
 21
74.489554
 31
0.0
  0
LINE
  5
22E
330
1F
100
AcDbEntity
  8
GR1-1
  6
CONTINUOUS
 62
     7
100
AcDbLine
 10
298.93116
 20
74.437218
 30
0.0
 11
296.933901
 21
74.332546
 31
0.0
  0
LINE
  5
22F
330
1F
100
AcDbEntity
  8
GR1-1
  6
CONTINUOUS
 62
     7
100
AcDbLine
 10
295.935271
 20
74.28021
 30
0.0
 11
294.052574
 21
74.181542
 31
0.0
  0
LINE
  5
230
330
1F
100
AcDbEntity
  8
GR1-1
  6
CONTINUOUS
 62
     7
100
AcDbLine
 10
301.623228
 20
74.378029
 30
0.0
 11
299.940257
 21
74.289828
 31
0.0
  0
LINE
  5
231
330
1F
100
AcDbEntity
  8
GR1-1
  6
CONTINUOUS
 62
     7
100
AcDbLine
 10
298.941627
 20
74.237492
 30
0.0
 11
296.944368
 21
74.13282
 31
0.0
  0
LINE
  5
232
330
1F
100
AcDbEntity
  8
GR1-1
  6
CONTINUOUS
 62
     7
100
AcDbLine
 10
295.945739
 20
74.080484
 30
0.0
 11
294.262767
 21
73.992284
 31
0.0
  0
LINE
  5
233
330
1F
100
AcDbEntity
  8
GR1-1
  6
CONTINUOUS
 62
     7
100
AcDbLine
 10
301.43397
 20
74.167836
 30
0.0
 11
299.950724
 21
74.090102
 31
0.0
  0
LINE
  5
234
330
1F
100
AcDbEntity
  8
GR1-1
  6
CONTINUOUS
 62
     7
100
AcDbLine
 10
298.952094
 20
74.037766
 30
0.0
 11
296.954835
 21
73.933095
 31
0.0
  0
LINE
  5
235
330
1F
100
AcDbEntity
  8
GR1-1
  6
CONTINUOUS
 62
     7
100
AcDbLine
 10
295.956206
 20
73.880759
 30
0.0
 11
294.47296
 21
73.803025
 31
0.0
  0
LINE
  5
236
330
1F
100
AcDbEntity
  8
GR1-1
  6
CONTINUOUS
 62
     7
100
AcDbLine
 10
301.244711
 20
73.957643
 30
0.0
 11
299.961191
 21
73.890376
 31
0.0
  0
LINE
  5
237
330
1F
100
AcDbEntity
  8
GR1-1
  6
CONTINUOUS
 62
     7
100
AcDbLine
 10
298.962562
 20
73.838041
 30
0.0
 11
296.965302
 21
73.733369
 31
0.0
  0
LINE
  5
238
330
1F
100
AcDbEntity
  8
GR1-1
  6
CONTINUOUS
 62
     7
100
AcDbLine
 10
295.966673
 20
73.681033
 30
0.0
 11
294.683153
 21
73.613766
 31
0.0
  0
LINE
  5
239
330
1F
100
AcDbEntity
  8
GR1-1
  6
CONTINUOUS
 62
     7
100
AcDbLine
 10
301.055452
 20
73.74745
 30
0.0
 11
299.971658
 21
73.690651
 31
0.0
  0
LINE
  5
23A
330
1F
100
AcDbEntity
  8
GR1-1
  6
CONTINUOUS
 62
     7
100
AcDbLine
 10
295.97714
 20
73.481307
 30
0.0
 11
294.893346
 21
73.424507
 31
0.0
  0
LINE
  5
23B
330
1F
100
AcDbEntity
  8
GR1-1
  6
CONTINUOUS
 62
     7
100
AcDbLine
 10
300.866194
 20
73.537257
 30
0.0
 11
299.982125
 21
73.490925
 31
0.0
  0
LINE
  5
23C
330
1F
100
AcDbEntity
  8
GR1-1
  6
CONTINUOUS
 62
     7
100
AcDbLine
 10
295.987607
 20
73.281581
 30
0.0
 11
295.103539
 21
73.235249
 31
0.0
  0
LINE
  5
23D
330
1F
100
AcDbEntity
  8
GR1-1
  6
CONTINUOUS
 62
     7
100
AcDbLine
 10
300.676935
 20
73.327064
 30
0.0
 11
299.992593
 21
73.291199
 31
0.0
  0
LINE
  5
23E
330
1F
100
AcDbEntity
  8
GR1-1
  6
CONTINUOUS
 62
     7
100
AcDbLine
 10
295.998075
 20
73.081855
 30
0.0
 11
295.313732
 21
73.04599
 31
0.0
  0
LINE
  5
23F
330
1F
100
AcDbEntity
  8
GR1-1
  6
CONTINUOUS
 62
     7
100
AcDbLine
 10
300.487676
 20
73.116871
 30
0.0
 11
300.00306
 21
73.091473
 31
0.0
  0
LINE
  5
240
330
1F
100
AcDbEntity
  8
GR1-1
  6
CONTINUOUS
 62
     7
100
AcDbLine
 10
296.008542
 20
72.882129
 30
0.0
 11
295.523925
 21
72.856731
 31
0.0
  0
LINE
  5
241
330
1F
100
AcDbEntity
  8
GR1-1
  6
CONTINUOUS
 62
     7
100
AcDbLine
 10
300.298417
 20
72.906677
 30
0.0
 11
300.013527
 21
72.891747
 31
0.0
  0
LINE
  5
242
330
1F
100
AcDbEntity
  8
GR1-1
  6
CONTINUOUS
 62
     7
100
AcDbLine
 10
296.019009
 20
72.682403
 30
0.0
 11
295.734118
 21
72.667473
 31
0.0
  0
LINE
  5
243
330
1F
100
AcDbEntity
  8
GR1-1
  6
CONTINUOUS
 62
     7
100
AcDbLine
 10
300.109159
 20
72.696484
 30
0.0
 11
295.944312
 21
72.478214
 31
0.0
  0
LINE
  5
244
330
1F
100
AcDbEntity
  8
GR1-1
  6
CONTINUOUS
 62
     7
100
AcDbLine
 10
299.9199
 20
72.486291
 30
0.0
 11
296.154505
 21
72.288955
 31
0.0
  0
LINE
  5
245
330
1F
100
AcDbEntity
  8
GR1-1
  6
CONTINUOUS
 62
     7
100
AcDbLine
 10
299.730641
 20
72.276098
 30
0.0
 11
296.364698
 21
72.099696
 31
0.0
  0
LINE
  5
246
330
1F
100
AcDbEntity
  8
GR1-1
  6
CONTINUOUS
 62
     7
100
AcDbLine
 10
299.541383
 20
72.065905
 30
0.0
 11
296.574891
 21
71.910438
 31
0.0
  0
LINE
  5
247
330
1F
100
AcDbEntity
  8
GR1-1
  6
CONTINUOUS
 62
     7
100
AcDbLine
 10
299.352124
 20
71.855712
 30
0.0
 11
296.785084
 21
71.721179
 31
0.0
  0
LINE
  5
248
330
1F
100
AcDbEntity
  8
GR1-1
  6
CONTINUOUS
 62
     7
100
AcDbLine
 10
299.162865
 20
71.645519
 30
0.0
 11
296.995277
 21
71.53192
 31
0.0
  0
LINE
  5
249
330
1F
100
AcDbEntity
  8
GR1-1
  6
CONTINUOUS
 62
     7
100
AcDbLine
 10
298.973606
 20
71.435326
 30
0.0
 11
297.20547
 21
71.342662
 31
0.0
  0
LINE
  5
24A
330
1F
100
AcDbEntity
  8
GR1-1
  6
CONTINUOUS
 62
     7
100
AcDbLine
 10
298.784348
 20
71.225133
 30
0.0
 11
297.415663
 21
71.153403
 31
0.0
  0
LINE
  5
24B
330
1F
100
AcDbEntity
  8
GR1-1
  6
CONTINUOUS
 62
     7
100
AcDbLine
 10
298.595089
 20
71.01494
 30
0.0
 11
297.625856
 21
70.964144
 31
0.0
  0
LINE
  5
24C
330
1F
100
AcDbEntity
  8
GR1-1
  6
CONTINUOUS
 62
     7
100
AcDbLine
 10
298.40583
 20
70.804746
 30
0.0
 11
297.836049
 21
70.774885
 31
0.0
  0
LINE
  5
24D
330
1F
100
AcDbEntity
  8
GR1-1
  6
CONTINUOUS
 62
     7
100
AcDbLine
 10
298.216572
 20
70.594553
 30
0.0
 11
298.046243
 21
70.585627
 31
0.0
  0
TEXT
  5
24E
330
1F
100
AcDbEntity
  8
LAYERGROUP-1
  6
CONTINUOUS
 62
     7
100
AcDbText
 10
163.712311
 20
32.958286
 30
0.0
 40
4.0
  1
55
 41
0.851351
  7
FX_VECTOR
 72
     5
 11
169.712311
 21
32.958286
 31
0.0
100
AcDbText
  0
LINE
  5
24F
330
1F
100
AcDbEntity
  8
LAYERGROUP-1
  6
CONTINUOUS
 62
     7
100
AcDbLine
 10
139.212315
 20
31.958286
 30
0.0
 11
194.212315
 21
31.958286
 31
0.0
  0
INSERT
  5
250
330
1F
100
AcDbEntity
  8
LAYERGROUP-1
  6
CONTINUOUS
 62
     7
100
AcDbBlockReference
  2
FXTIP_ARROW_S
 10
139.212315
 20
31.958286
 30
0.0
 41
4.0
 42
4.0
 50
180.0
  0
INSERT
  5
251
330
1F
100
AcDbEntity
  8
LAYERGROUP-1
  6
CONTINUOUS
 62
     7
100
AcDbBlockReference
  2
FXTIP_ARROW_E
 10
194.212315
 20
31.958286
 30
0.0
 41
4.0
 42
4.0
 50
360.0
  0
LINE
  5
252
330
1F
100
AcDbEntity
  8
LAYERGROUP-1
  6
CONTINUOUS
 62
     7
100
AcDbLine
 10
139.212315
 20
97.95
 30
0.0
 11
139.212315
 21
30.958286
 31
0.0
  0
LINE
  5
253
330
1F
100
AcDbEntity
  8
LAYERGROUP-1
  6
CONTINUOUS
 62
     7
100
AcDbLine
 10
194.212315
 20
97.95
 30
0.0
 11
194.212315
 21
30.958286
 31
0.0
  0
TEXT
  5
254
330
1F
100
AcDbEntity
  8
LAYERGROUP-1
  6
CONTINUOUS
 62
     7
100
AcDbText
 10
349.712311
 20
32.958286
 30
0.0
 40
4.0
  1
38
 41
0.851351
  7
FX_VECTOR
 72
     5
 11
355.712311
 21
32.958286
 31
0.0
100
AcDbText
  0
LINE
  5
255
330
1F
100
AcDbEntity
  8
LAYERGROUP-1
  6
CONTINUOUS
 62
     7
100
AcDbLine
 10
333.712315
 20
31.958286
 30
0.0
 11
371.712315
 21
31.958286
 31
0.0
  0
INSERT
  5
256
330
1F
100
AcDbEntity
  8
LAYERGROUP-1
  6
CONTINUOUS
 62
     7
100
AcDbBlockReference
  2
FXTIP_ARROW_S
 10
333.712315
 20
31.958286
 30
0.0
 41
4.0
 42
4.0
 50
180.0
  0
INSERT
  5
257
330
1F
100
AcDbEntity
  8
LAYERGROUP-1
  6
CONTINUOUS
 62
     7
100
AcDbBlockReference
  2
FXTIP_ARROW_E
 10
371.712315
 20
31.958286
 30
0.0
 41
4.0
 42
4.0
 50
360.0
  0
LINE
  5
258
330
1F
100
AcDbEntity
  8
LAYERGROUP-1
  6
CONTINUOUS
 62
     7
100
AcDbLine
 10
333.712315
 20
48.180285
 30
0.0
 11
333.712315
 21
30.958286
 31
0.0
  0
LINE
  5
259
330
1F
100
AcDbEntity
  8
LAYERGROUP-1
  6
CONTINUOUS
 62
     7
100
AcDbLine
 10
371.712315
 20
128.11712
 30
0.0
 11
371.712315
 21
30.958286
 31
0.0
  0
TEXT
  5
25A
330
1F
100
AcDbEntity
  8
LAYERGROUP-1
  6
CONTINUOUS
 62
     7
100
AcDbText
 10
224.000793
 20
108.5
 30
0.0
 40
4.0
  1
%%c125
 50
90.0
 41
0.828947
  7
FX_VECTOR
 72
     5
 11
224.000793
 21
120.5
 31
0.0
100
AcDbText
  0
LINE
  5
25B
330
1F
100
AcDbEntity
  8
LAYERGROUP-1
  6
CONTINUOUS
 62
     7
100
AcDbLine
 10
225.000793
 20
52.0
 30
0.0
 11
225.000793
 21
177.0
 31
0.0
  0
INSERT
  5
25C
330
1F
100
AcDbEntity
  8
LAYERGROUP-1
  6
CONTINUOUS
 62
     7
100
AcDbBlockReference
  2
FXTIP_ARROW_S
 10
225.000793
 20
52.0
 30
0.0
 41
4.0
 42
4.0
 50
270.0
  0
INSERT
  5
25D
330
1F
100
AcDbEntity
  8
LAYERGROUP-1
  6
CONTINUOUS
 62
     7
100
AcDbBlockReference
  2
FXTIP_ARROW_E
 10
225.000793
 20
177.0
 30
0.0
 41
4.0
 42
4.0
 50
90.0
  0
LINE
  5
25E
330
1F
100
AcDbEntity
  8
LAYERGROUP-1
  6
CONTINUOUS
 62
     7
100
AcDbLine
 10
167.712315
 20
52.0
 30
0.0
 11
226.000793
 21
52.0
 31
0.0
  0
LINE
  5
25F
330
1F
100
AcDbEntity
  8
LAYERGROUP-1
  6
CONTINUOUS
 62
     7
100
AcDbLine
 10
167.712315
 20
177.0
 30
0.0
 11
226.000793
 21
177.0
 31
0.0
  0
INSERT
  5
263
330
1F
100
AcDbEntity
  8
0
100
AcDbBlockReference
  2
BLKF021
 10
0.0
 20
0.0
 30
0.0
  0
LINE
  5
28E
330
1F
100
AcDbEntity
  8
LAYERGROUP-1
  6
CONTINUOUS
 62
     3
100
AcDbLine
 10
194.212315
 20
120.5
 30
0.0
 11
193.712315
 21
120.5
 31
0.0
  0
LINE
  5
28F
330
1F
100
AcDbEntity
  8
LAYERGROUP-1
  6
CONTINUOUS
 62
     3
100
AcDbLine
 10
194.212315
 20
108.5
 30
0.0
 11
193.712315
 21
108.5
 31
0.0
  0
LINE
  5
290
330
1F
100
AcDbEntity
  8
LAYERGROUP-1
  6
CONTINUOUS
 62
     3
100
AcDbLine
 10
139.712315
 20
120.5
 30
0.0
 11
139.212315
 21
120.5
 31
0.0
  0
LINE
  5
291
330
1F
100
AcDbEntity
  8
LAYERGROUP-1
  6
CONTINUOUS
 62
     3
100
AcDbLine
 10
139.712315
 20
108.5
 30
0.0
 11
139.212315
 21
108.5
 31
0.0
  0
ARC
  5
292
330
1F
100
AcDbEntity
  8
0-1
  6
CONTINUOUS
 62
     3
100
AcDbCircle
 10
188.268022
 20
94.958845
 30
0.0
 40
2.444293581215881
100
AcDbArc
 50
282.582959
 51
360.0
  0
LINE
  5
294
330
1F
100
AcDbEntity
  8
001-1
  6
CONTINUOUS
 62
     3
100
AcDbLine
 10
193.712315
 20
121.6
 30
0.0
 11
193.712315
 21
124.0
 31
0.0
  0
LINE
  5
295
330
1F
100
AcDbEntity
  8
LAYERGROUP-1
  6
CONTINUOUS
 62
     3
100
AcDbLine
 10
193.712315
 20
121.6
 30
0.0
 11
193.712315
 21
107.4
 31
0.0
  0
LINE
  5
296
330
1F
100
AcDbEntity
  8
LAYERGROUP-1
  6
CONTINUOUS
 62
     3
100
AcDbLine
 10
193.712315
 20
124.0
 30
0.0
 11
191.212315
 21
124.0
 31
0.0
  0
ARC
  5
297
330
1F
100
AcDbEntity
  8
LAYERGROUP-1
  6
CONTINUOUS
 62
     3
100
AcDbCircle
 10
191.212315
 20
124.5
 30
0.0
 40
0.5
100
AcDbArc
 50
180.0
 51
270.0
  0
LINE
  5
298
330
1F
100
AcDbEntity
  8
001-1
  6
CONTINUOUS
 62
     3
100
AcDbLine
 10
193.712315
 20
107.4
 30
0.0
 11
193.712315
 21
105.0
 31
0.0
  0
LINE
  5
299
330
1F
100
AcDbEntity
  8
LAYERGROUP-1
  6
CONTINUOUS
 62
     3
100
AcDbLine
 10
193.712315
 20
105.0
 30
0.0
 11
191.212315
 21
105.0
 31
0.0
  0
ARC
  5
29A
330
1F
100
AcDbEntity
  8
LAYERGROUP-1
  6
CONTINUOUS
 62
     3
100
AcDbCircle
 10
191.212315
 20
104.5
 30
0.0
 40
0.5
100
AcDbArc
 50
90.0
 51
180.0
  0
ARC
  5
29B
330
1F
100
AcDbEntity
  8
0-1
  6
CONTINUOUS
 62
     3
100
AcDbCircle
 10
145.156609
 20
94.958845
 30
0.0
 40
2.444293581215881
100
AcDbArc
 50
180.0
 51
257.417041
  0
LINE
  5
29C
330
1F
100
AcDbEntity
  8
001-1
  6
CONTINUOUS
 62
     3
100
AcDbLine
 10
139.712315
 20
121.6
 30
0.0
 11
139.712315
 21
124.0
 31
0.0
  0
LINE
  5
29D
330
1F
100
AcDbEntity
  8
LAYERGROUP-1
  6
CONTINUOUS
 62
     3
100
AcDbLine
 10
139.712315
 20
121.6
 30
0.0
 11
139.712315
 21
107.4
 31
0.0
  0
LINE
  5
29E
330
1F
100
AcDbEntity
  8
LAYERGROUP-1
  6
CONTINUOUS
 62
     3
100
AcDbLine
 10
139.712315
 20
124.0
 30
0.0
 11
142.212315
 21
124.0
 31
0.0
  0
ARC
  5
29F
330
1F
100
AcDbEntity
  8
LAYERGROUP-1
  6
CONTINUOUS
 62
     3
100
AcDbCircle
 10
142.212315
 20
124.5
 30
0.0
 40
0.5
100
AcDbArc
 50
270.0
 51
360.0
  0
LINE
  5
2A0
330
1F
100
AcDbEntity
  8
001-1
  6
CONTINUOUS
 62
     3
100
AcDbLine
 10
139.712315
 20
107.4
 30
0.0
 11
139.712315
 21
105.0
 31
0.0
  0
LINE
  5
2A1
330
1F
100
AcDbEntity
  8
LAYERGROUP-1
  6
CONTINUOUS
 62
     3
100
AcDbLine
 10
139.712315
 20
105.0
 30
0.0
 11
142.212315
 21
105.0
 31
0.0
  0
ARC
  5
2A2
330
1F
100
AcDbEntity
  8
LAYERGROUP-1
  6
CONTINUOUS
 62
     3
100
AcDbCircle
 10
142.212315
 20
104.5
 30
0.0
 40
0.5
100
AcDbArc
 50
0.0
 51
90.0
  0
LINE
  5
2A3
330
1F
100
AcDbEntity
  8
0-1
  6
CONTINUOUS
 62
     3
100
AcDbLine
 10
147.612315
 20
91.90625
 30
0.0
 11
144.624112
 21
92.57326
 31
0.0
  0
LINE
  5
2A4
330
1F
100
AcDbEntity
  8
0-1
  6
CONTINUOUS
 62
     3
100
AcDbLine
 10
185.812315
 20
91.90625
 30
0.0
 11
188.800518
 21
92.57326
 31
0.0
  0
ARC
  5
2A5
330
1F
100
AcDbEntity
  8
0-1
  6
CONTINUOUS
 62
     3
100
AcDbCircle
 10
188.268022
 20
134.041155
 30
0.0
 40
2.444293581215881
100
AcDbArc
 50
0.0
 51
77.417041
  0
LINE
  5
2A6
330
1F
100
AcDbEntity
  8
0-1
  6
CONTINUOUS
 62
     3
100
AcDbLine
 10
190.712315
 20
134.041155
 30
0.0
 11
190.712315
 21
94.958845
 31
0.0
  0
ARC
  5
2A7
330
1F
100
AcDbEntity
  8
0-1
  6
CONTINUOUS
 62
     3
100
AcDbCircle
 10
145.156609
 20
134.041155
 30
0.0
 40
2.444293581215881
100
AcDbArc
 50
102.582959
 51
180.0
  0
LINE
  5
2A8
330
1F
100
AcDbEntity
  8
0-1
  6
CONTINUOUS
 62
     3
100
AcDbLine
 10
142.712315
 20
94.958845
 30
0.0
 11
142.712315
 21
134.041155
 31
0.0
  0
LINE
  5
2A9
330
1F
100
AcDbEntity
  8
0-1
  6
CONTINUOUS
 62
     3
100
AcDbLine
 10
147.612315
 20
137.09375
 30
0.0
 11
144.624112
 21
136.42674
 31
0.0
  0
LINE
  5
2AA
330
1F
100
AcDbEntity
  8
0-1
  6
CONTINUOUS
 62
     3
100
AcDbLine
 10
185.812315
 20
137.09375
 30
0.0
 11
188.800518
 21
136.42674
 31
0.0
  0
LINE
  5
2AB
330
1F
100
AcDbEntity
  8
GR1-1
  6
CONTINUOUS
 62
     3
100
AcDbLine
 10
126.212315
 20
107.5
 30
0.0
 11
126.212315
 21
121.5
 31
0.0
  0
LINE
  5
2AC
330
1F
100
AcDbEntity
  8
GR1-1
  6
CONTINUOUS
 62
     3
100
AcDbLine
 10
126.212315
 20
121.5
 30
0.0
 11
130.212315
 21
124.0
 31
0.0
  0
ARC
  5
2AD
330
1F
100
AcDbEntity
  8
GR1-1
  6
CONTINUOUS
 62
     3
100
AcDbCircle
 10
131.243915
 20
121.8
 30
0.0
 40
2.42985542723951
100
AcDbArc
 50
115.122296
 51
244.877704
  0
ARC
  5
2AE
330
1F
100
AcDbEntity
  8
GR1-1
  6
CONTINUOUS
 62
     3
100
AcDbCircle
 10
138.814059
 20
114.5
 30
0.0
 40
10.0
100
AcDbArc
 50
149.33617
 51
210.66383
  0
ARC
  5
2AF
330
1F
100
AcDbEntity
  8
GR1-1
  6
CONTINUOUS
 62
     3
100
AcDbCircle
 10
131.243915
 20
107.2
 30
0.0
 40
2.429855427239536
100
AcDbArc
 50
115.122296
 51
244.877704
  0
LINE
  5
2B0
330
1F
100
AcDbEntity
  8
GR1-1
  6
CONTINUOUS
 62
     3
100
AcDbLine
 10
130.212315
 20
105.0
 30
0.0
 11
126.212315
 21
107.5
 31
0.0
  0
LINE
  5
2B1
330
1F
100
AcDbEntity
  8
GR1-1
  6
CONTINUOUS
 62
     3
100
AcDbLine
 10
130.212315
 20
119.6
 30
0.0
 11
135.212315
 21
119.6
 31
0.0
  0
LINE
  5
2B2
330
1F
100
AcDbEntity
  8
GR1-1
  6
CONTINUOUS
 62
     3
100
AcDbLine
 10
135.212315
 20
124.0
 30
0.0
 11
130.212315
 21
124.0
 31
0.0
  0
ARC
  5
2B3
330
1F
100
AcDbEntity
  8
GR1-1
  6
CONTINUOUS
 62
     3
100
AcDbCircle
 10
122.707315
 20
114.5
 30
0.0
 40
13.50500000000005
100
AcDbArc
 50
-22.187446
 51
11.876233
  0
LINE
  5
2B4
330
1F
100
AcDbEntity
  8
GR1-1
  6
CONTINUOUS
 62
     3
100
AcDbLine
 10
135.212315
 20
109.4
 30
0.0
 11
130.212315
 21
109.4
 31
0.0
  0
LINE
  5
2B5
330
1F
100
AcDbEntity
  8
GR1-1
  6
CONTINUOUS
 62
     3
100
AcDbLine
 10
130.212315
 20
105.0
 30
0.0
 11
135.212315
 21
105.0
 31
0.0
  0
ARC
  5
2B6
330
1F
100
AcDbEntity
  8
GR1-1
  6
CONTINUOUS
 62
     3
100
AcDbCircle
 10
133.292315
 20
107.2
 30
0.0
 40
2.919999999999983
100
AcDbArc
 50
-48.88791
 51
48.88791
  0
ARC
  5
2B7
330
1F
100
AcDbEntity
  8
GR1-1
  6
CONTINUOUS
 62
     3
100
AcDbCircle
 10
133.292315
 20
121.8
 30
0.0
 40
2.919999999999983
100
AcDbArc
 50
-48.88791
 51
51.409877
  0
ARC
  5
2B8
330
1F
100
AcDbEntity
  8
GR1-1
  6
CONTINUOUS
 62
     3
100
AcDbCircle
 10
122.707315
 20
114.5
 30
0.0
 40
13.50500000000005
100
AcDbArc
 50
11.876233
 51
22.187446
  0
ARC
  5
2B9
330
1F
100
AcDbEntity
  8
0-1
  6
CONTINUOUS
 62
     3
100
AcDbCircle
 10
314.17116
 20
308.444294
 30
0.0
 40
2.444293581215881
100
AcDbArc
 50
192.582959
 51
270.0
  0
ARC
  5
2BA
330
1F
100
AcDbEntity
  8
0-1
  6
CONTINUOUS
 62
     3
100
AcDbCircle
 10
314.17116
 20
351.555706
 30
0.0
 40
2.444293581215881
100
AcDbArc
 50
90.0
 51
167.417041
  0
LINE
  5
2BB
330
1F
100
AcDbEntity
  8
0-1
  6
CONTINUOUS
 62
     3
100
AcDbLine
 10
311.118565
 20
349.1
 30
0.0
 11
311.785575
 21
352.088203
 31
0.0
  0
LINE
  5
2BC
330
1F
100
AcDbEntity
  8
0-1
  6
CONTINUOUS
 62
     3
100
AcDbLine
 10
311.118565
 20
310.9
 30
0.0
 11
311.785575
 21
307.911797
 31
0.0
  0
LINE
  5
2BD
330
1F
100
AcDbEntity
  8
0-1
  6
CONTINUOUS
 62
     3
100
AcDbLine
 10
320.713385
 20
306.0
 30
0.0
 11
314.17116
 21
306.0
 31
0.0
  0
LINE
  5
2BE
330
1F
100
AcDbEntity
  8
0-1
  6
CONTINUOUS
 62
     3
100
AcDbLine
 10
314.17116
 20
354.0
 30
0.0
 11
320.713385
 21
354.0
 31
0.0
  0
ARC
  5
2BF
330
1F
100
AcDbEntity
  8
LAYERGROUP-1
  6
CONTINUOUS
 62
     3
100
AcDbCircle
 10
333.712315
 20
114.5
 30
0.0
 40
15.95
100
AcDbArc
 50
159.308653
 51
285.47706
  0
ARC
  5
2C0
330
1F
100
AcDbEntity
  8
LAYERGROUP-1
  6
CONTINUOUS
 62
     6
100
AcDbCircle
 10
333.712315
 20
114.5
 30
0.0
 40
21.92674035982475
100
AcDbArc
 50
-230.21581
 51
6.407946
  0
ARC
  5
2C1
330
1F
100
AcDbEntity
  8
LAYERGROUP-1
  6
CONTINUOUS
 62
     6
100
AcDbCircle
 10
333.712315
 20
114.5
 30
0.0
 40
26.23812045679465
100
AcDbArc
 50
-238.814078
 51
18.068699
  0
ARC
  5
2C2
330
1F
100
AcDbEntity
  8
LAYERGROUP-1
  6
CONTINUOUS
 62
     6
100
AcDbCircle
 10
333.712315
 20
114.5
 30
0.0
 40
16.64692259275699
100
AcDbArc
 50
152.432794
 51
303.980112
  0
ENDSEC
  0
SECTION
  2
OBJECTS
  0
DICTIONARY
  5
C
330
0
100
AcDbDictionary
  3
ACAD_GROUP
350
D
  3
ACAD_LAYOUT
350
1A
  3
ACAD_MLINESTYLE
350
17
  3
ACAD_PLOTSETTINGS
350
19
  3
ACDBHEADERROUNDTRIPXREC
350
2C3
  0
DICTIONARY
  5
D
102
{ACAD_REACTORS
330
C
102
}
330
C
100
AcDbDictionary
  0
DICTIONARY
  5
1A
102
{ACAD_REACTORS
330
C
102
}
330
C
100
AcDbDictionary
  0
DICTIONARY
  5
17
102
{ACAD_REACTORS
330
C
102
}
330
C
100
AcDbDictionary
  3
STANDARD
350
18
  0
DICTIONARY
  5
19
102
{ACAD_REACTORS
330
C
102
}
330
C
100
AcDbDictionary
  0
DICTIONARY
  5
2C3
102
{ACAD_REACTORS
330
C
102
}
330
C
100
AcDbDictionary
  3
CEPSNTYPE
350
2CC
  3
DIMSTYLEDATA
350
2E2
  3
FINGERPRINTGUID
350
2CD
  3
HYPERLINKBASE
350
2C6
  3
INSUNITS
350
2CB
  3
LAYOUTDICT
350
2C8
  3
LWETCUNION
350
2CA
  3
PLOTSETDICT
350
2C9
  3
PSVPSCALE
350
2CF
  3
PUCSBASE
350
2D2
  3
PUCSORGBACK
350
2D8
  3
PUCSORGBOTTOM
350
2D4
  3
PUCSORGFRONT
350
2D7
  3
PUCSORGLEFT
350
2D5
  3
PUCSORGRIGHT
350
2D6
  3
PUCSORGTOP
350
2D3
  3
PUCSORTHOREF
350
2D0
  3
PUCSORTHOVIEW
350
2D1
  3
STYLESHEET
350
2C7
  3
TSTACKALIGN
350
2C4
  3
TSTACKSIZE
350
2C5
  3
UCSBASE
350
2DB
  3
UCSORGBACK
350
2E1
  3
UCSORGBOTTOM
350
2DD
  3
UCSORGFRONT
350
2E0
  3
UCSORGLEFT
350
2DE
  3
UCSORGRIGHT
350
2DF
  3
UCSORGTOP
350
2DC
  3
UCSORTHOREF
350
2D9
  3
UCSORTHOVIEW
350
2DA
  3
VERSIONGUID
350
2CE
  0
MLINESTYLE
  5
18
102
{ACAD_REACTORS
330
17
102
}
330
17
100
AcDbMlineStyle
  2
Standard
 70
     0
  3

 62
   256
 51
90.0
 52
90.0
 71
     2
 49
0.5
 62
   256
  6
BYLAYER
 49
-0.5
 62
   256
  6
BYLAYER
  0
XRECORD
  5
2CC
102
{ACAD_REACTORS
330
2C3
102
}
330
2C3
100
AcDbXrecord
 90
        0
  0
XRECORD
  5
2E2
102
{ACAD_REACTORS
330
2C3
102
}
330
2C3
100
AcDbXrecord
1000
DSTYLE
1002
{
1070
   179
 70
     2
1070
   171
 70
     3
1070
   143
 40
0.03937
1070
   274
 70
     3
1070
    41
 40
4.0
1070
   343
340
41
1070
   344
340
47
1070
   141
 40
2.5
1070
   176
 70
     7
1070
   177
 70
     7
1070
   178
 70
     7
1070
   271
 70
     2
1070
    46
 40
6.0
1070
    43
 40
10.0
1070
    44
 40
1.0
1070
    42
 40
1.0
1070
   147
 40
1.0
1070
   341
340
41
1070
   173
 70
     1
1070
    77
 70
     1
1070
   272
 70
     2
1070
    73
 70
     0
1070
   172
 70
     1
1070
    74
 70
     0
1070
   283
 70
     0
1070
   340
340
3F
1070
   140
 40
4.0
1070
   284
 70
     8
1070
    78
 70
     8
1002
}
  0
XRECORD
  5
2CD
102
{ACAD_REACTORS
330
2C3
102
}
330
2C3
100
AcDbXrecord
  1
{B31B0EE4-0D82-473D-819E-EBF4DE8B0F1C}
  0
XRECORD
  5
2C6
102
{ACAD_REACTORS
330
2C3
102
}
330
2C3
100
AcDbXrecord
  1

  0
XRECORD
  5
2CB
102
{ACAD_REACTORS
330
2C3
102
}
330
2C3
100
AcDbXrecord
 90
        1
  0
XRECORD
  5
2C8
102
{ACAD_REACTORS
330
2C3
102
}
330
2C3
100
AcDbXrecord
340
1A
  0
XRECORD
  5
2CA
102
{ACAD_REACTORS
330
2C3
102
}
330
2C3
100
AcDbXrecord
 90
    10781
  0
XRECORD
  5
2C9
102
{ACAD_REACTORS
330
2C3
102
}
330
2C3
100
AcDbXrecord
340
19
  0
XRECORD
  5
2CF
102
{ACAD_REACTORS
330
2C3
102
}
330
2C3
100
AcDbXrecord
 40
0.0
  0
XRECORD
  5
2D2
102
{ACAD_REACTORS
330
2C3
102
}
330
2C3
100
AcDbXrecord
340
0
  0
XRECORD
  5
2D8
102
{ACAD_REACTORS
330
2C3
102
}
330
2C3
100
AcDbXrecord
 10
0.0
 20
0.0
 30
0.0
  0
XRECORD
  5
2D4
102
{ACAD_REACTORS
330
2C3
102
}
330
2C3
100
AcDbXrecord
 10
0.0
 20
0.0
 30
0.0
  0
XRECORD
  5
2D7
102
{ACAD_REACTORS
330
2C3
102
}
330
2C3
100
AcDbXrecord
 10
0.0
 20
0.0
 30
0.0
  0
XRECORD
  5
2D5
102
{ACAD_REACTORS
330
2C3
102
}
330
2C3
100
AcDbXrecord
 10
0.0
 20
0.0
 30
0.0
  0
XRECORD
  5
2D6
102
{ACAD_REACTORS
330
2C3
102
}
330
2C3
100
AcDbXrecord
 10
0.0
 20
0.0
 30
0.0
  0
XRECORD
  5
2D3
102
{ACAD_REACTORS
330
2C3
102
}
330
2C3
100
AcDbXrecord
 10
0.0
 20
0.0
 30
0.0
  0
XRECORD
  5
2D0
102
{ACAD_REACTORS
330
2C3
102
}
330
2C3
100
AcDbXrecord
340
0
  0
XRECORD
  5
2D1
102
{ACAD_REACTORS
330
2C3
102
}
330
2C3
100
AcDbXrecord
 70
     0
  0
XRECORD
  5
2C7
102
{ACAD_REACTORS
330
2C3
102
}
330
2C3
100
AcDbXrecord
  1

  0
XRECORD
  5
2C4
102
{ACAD_REACTORS
330
2C3
102
}
330
2C3
100
AcDbXrecord
 90
        1
  0
XRECORD
  5
2C5
102
{ACAD_REACTORS
330
2C3
102
}
330
2C3
100
AcDbXrecord
 90
       70
  0
XRECORD
  5
2DB
102
{ACAD_REACTORS
330
2C3
102
}
330
2C3
100
AcDbXrecord
340
0
  0
XRECORD
  5
2E1
102
{ACAD_REACTORS
330
2C3
102
}
330
2C3
100
AcDbXrecord
 10
0.0
 20
0.0
 30
0.0
  0
XRECORD
  5
2DD
102
{ACAD_REACTORS
330
2C3
102
}
330
2C3
100
AcDbXrecord
 10
0.0
 20
0.0
 30
0.0
  0
XRECORD
  5
2E0
102
{ACAD_REACTORS
330
2C3
102
}
330
2C3
100
AcDbXrecord
 10
0.0
 20
0.0
 30
0.0
  0
XRECORD
  5
2DE
102
{ACAD_REACTORS
330
2C3
102
}
330
2C3
100
AcDbXrecord
 10
0.0
 20
0.0
 30
0.0
  0
XRECORD
  5
2DF
102
{ACAD_REACTORS
330
2C3
102
}
330
2C3
100
AcDbXrecord
 10
0.0
 20
0.0
 30
0.0
  0
XRECORD
  5
2DC
102
{ACAD_REACTORS
330
2C3
102
}
330
2C3
100
AcDbXrecord
 10
0.0
 20
0.0
 30
0.0
  0
XRECORD
  5
2D9
102
{ACAD_REACTORS
330
2C3
102
}
330
2C3
100
AcDbXrecord
340
0
  0
XRECORD
  5
2DA
102
{ACAD_REACTORS
330
2C3
102
}
330
2C3
100
AcDbXrecord
 70
     0
  0
XRECORD
  5
2CE
102
{ACAD_REACTORS
330
2C3
102
}
330
2C3
100
AcDbXrecord
  1
{FAEB1C32-E019-11D5-929B-00C0DF256EC4}
  0
ENDSEC
  0
EOF
