  0
SECTION
  2
HEADER
  9
$ACADVER
  1
AC1015
  9
$ACADMAINTVER
 70
     6
  9
$DWGCODEPAGE
  3
ANSI_932
  9
$INSBASE
 10
0.0
 20
0.0
 30
0.0
  9
$EXTMIN
 10
0.0
 20
0.0
 30
0.0
  9
$EXTMAX
 10
594.0
 20
420.0
 30
0.0
  9
$LIMMIN
 10
0.0
 20
0.0
  9
$LIMMAX
 10
594.0
 20
420.0
  9
$ORTHOMODE
 70
     0
  9
$REGENMODE
 70
     1
  9
$FILLMODE
 70
     1
  9
$QTEXTMODE
 70
     0
  9
$MIRRTEXT
 70
     1
  9
$LTSCALE
 40
1.0
  9
$ATTMODE
 70
     1
  9
$TEXTSIZE
 40
2.5
  9
$TRACEWID
 40
1.0
  9
$TEXTSTYLE
  7
FX_VECTOR
  9
$CLAYER
  8
0
  9
$CELTYPE
  6
ByLayer
  9
$CECOLOR
 62
   256
  9
$CELTSCALE
 40
1.0
  9
$DISPSILH
 70
     0
  9
$DIMSCALE
 40
1.0
  9
$DIMASZ
 40
4.0
  9
$DIMEXO
 40
1.0
  9
$DIMDLI
 40
10.0
  9
$DIMRND
 40
0.0
  9
$DIMDLE
 40
6.0
  9
$DIMEXE
 40
1.0
  9
$DIMTP
 40
0.0
  9
$DIMTM
 40
0.0
  9
$DIMTXT
 40
4.0
  9
$DIMCEN
 40
2.5
  9
$DIMTSZ
 40
0.0
  9
$DIMTOL
 70
     0
  9
$DIMLIM
 70
     0
  9
$DIMTIH
 70
     0
  9
$DIMTOH
 70
     0
  9
$DIMSE1
 70
     0
  9
$DIMSE2
 70
     0
  9
$DIMTAD
 70
     1
  9
$DIMZIN
 70
     8
  9
$DIMBLK
  1

  9
$DIMASO
 70
     1
  9
$DIMSHO
 70
     1
  9
$DIMPOST
  1

  9
$DIMAPOST
  1

  9
$DIMALT
 70
     0
  9
$DIMALTD
 70
     3
  9
$DIMALTF
 40
0.03937
  9
$DIMLFAC
 40
1.0
  9
$DIMTOFL
 70
     1
  9
$DIMTVP
 40
0.0
  9
$DIMTIX
 70
     0
  9
$DIMSOXD
 70
     0
  9
$DIMSAH
 70
     1
  9
$DIMBLK1
  1

  9
$DIMBLK2
  1
FXTIP_ARROW_E
  9
$DIMSTYLE
  2
FX_DIMINFO
  9
$DIMCLRD
 70
     7
  9
$DIMCLRE
 70
     7
  9
$DIMCLRT
 70
     7
  9
$DIMTFAC
 40
1.0
  9
$DIMGAP
 40
1.0
  9
$DIMJUST
 70
     0
  9
$DIMSD1
 70
     0
  9
$DIMSD2
 70
     0
  9
$DIMTOLJ
 70
     1
  9
$DIMTZIN
 70
     8
  9
$DIMALTZ
 70
     0
  9
$DIMALTTZ
 70
     0
  9
$DIMUPT
 70
     0
  9
$DIMDEC
 70
     2
  9
$DIMTDEC
 70
     2
  9
$DIMALTU
 70
     2
  9
$DIMALTTD
 70
     3
  9
$DIMTXSTY
  7
FX_VECTOR
  9
$DIMAUNIT
 70
     0
  9
$DIMADEC
 70
     2
  9
$DIMALTRND
 40
0.0
  9
$DIMAZIN
 70
     2
  9
$DIMDSEP
 70
    46
  9
$DIMATFIT
 70
     3
  9
$DIMFRAC
 70
     0
  9
$DIMLDRBLK
  1

  9
$DIMLUNIT
 70
     2
  9
$DIMLWD
 70
    -2
  9
$DIMLWE
 70
    -2
  9
$DIMTMOVE
 70
     0
  9
$LUNITS
 70
     2
  9
$LUPREC
 70
     4
  9
$SKETCHINC
 40
1.0
  9
$FILLETRAD
 40
10.0
  9
$AUNITS
 70
     0
  9
$AUPREC
 70
     0
  9
$MENU
  1
.
  9
$ELEVATION
 40
0.0
  9
$PELEVATION
 40
0.0
  9
$THICKNESS
 40
0.0
  9
$LIMCHECK
 70
     0
  9
$CHAMFERA
 40
0.0
  9
$CHAMFERB
 40
0.0
  9
$CHAMFERC
 40
0.0
  9
$CHAMFERD
 40
0.0
  9
$SKPOLY
 70
     0
  9
$TDCREATE
 40
2457836.688338785
  9
$TDUCREATE
 40
2457836.313338785
  9
$TDUPDATE
 40
2457836.688339687
  9
$TDUUPDATE
 40
2457836.313339687
  9
$TDINDWG
 40
0.0000000116
  9
$TDUSRTIMER
 40
0.0000000116
  9
$USRTIMER
 70
     1
  9
$ANGBASE
 50
0.0
  9
$ANGDIR
 70
     0
  9
$PDMODE
 70
     0
  9
$PDSIZE
 40
0.0
  9
$PLINEWID
 40
0.0
  9
$SPLFRAME
 70
     0
  9
$SPLINETYPE
 70
     6
  9
$SPLINESEGS
 70
     8
  9
$HANDSEED
  5
3EC
  9
$SURFTAB1
 70
     6
  9
$SURFTAB2
 70
     6
  9
$SURFTYPE
 70
     6
  9
$SURFU
 70
     6
  9
$SURFV
 70
     6
  9
$UCSBASE
  2

  9
$UCSNAME
  2

  9
$UCSORG
 10
0.0
 20
0.0
 30
0.0
  9
$UCSXDIR
 10
1.0
 20
0.0
 30
0.0
  9
$UCSYDIR
 10
0.0
 20
1.0
 30
0.0
  9
$UCSORTHOREF
  2

  9
$UCSORTHOVIEW
 70
     0
  9
$UCSORGTOP
 10
0.0
 20
0.0
 30
0.0
  9
$UCSORGBOTTOM
 10
0.0
 20
0.0
 30
0.0
  9
$UCSORGLEFT
 10
0.0
 20
0.0
 30
0.0
  9
$UCSORGRIGHT
 10
0.0
 20
0.0
 30
0.0
  9
$UCSORGFRONT
 10
0.0
 20
0.0
 30
0.0
  9
$UCSORGBACK
 10
0.0
 20
0.0
 30
0.0
  9
$PUCSBASE
  2

  9
$PUCSNAME
  2

  9
$PUCSORG
 10
0.0
 20
0.0
 30
0.0
  9
$PUCSXDIR
 10
1.0
 20
0.0
 30
0.0
  9
$PUCSYDIR
 10
0.0
 20
1.0
 30
0.0
  9
$PUCSORTHOREF
  2

  9
$PUCSORTHOVIEW
 70
     0
  9
$PUCSORGTOP
 10
0.0
 20
0.0
 30
0.0
  9
$PUCSORGBOTTOM
 10
0.0
 20
0.0
 30
0.0
  9
$PUCSORGLEFT
 10
0.0
 20
0.0
 30
0.0
  9
$PUCSORGRIGHT
 10
0.0
 20
0.0
 30
0.0
  9
$PUCSORGFRONT
 10
0.0
 20
0.0
 30
0.0
  9
$PUCSORGBACK
 10
0.0
 20
0.0
 30
0.0
  9
$USERI1
 70
     0
  9
$USERI2
 70
     0
  9
$USERI3
 70
     0
  9
$USERI4
 70
     0
  9
$USERI5
 70
     0
  9
$USERR1
 40
0.0
  9
$USERR2
 40
0.0
  9
$USERR3
 40
0.0
  9
$USERR4
 40
0.0
  9
$USERR5
 40
0.0
  9
$WORLDVIEW
 70
     1
  9
$SHADEDGE
 70
     3
  9
$SHADEDIF
 70
    70
  9
$TILEMODE
 70
     1
  9
$MAXACTVP
 70
    64
  9
$PINSBASE
 10
0.0
 20
0.0
 30
0.0
  9
$PLIMCHECK
 70
     0
  9
$PEXTMIN
 10
1.000000000000000E+20
 20
1.000000000000000E+20
 30
1.000000000000000E+20
  9
$PEXTMAX
 10
-1.000000000000000E+20
 20
-1.000000000000000E+20
 30
-1.000000000000000E+20
  9
$PLIMMIN
 10
0.0
 20
0.0
  9
$PLIMMAX
 10
420.0
 20
297.0
  9
$UNITMODE
 70
     0
  9
$VISRETAIN
 70
     1
  9
$PLINEGEN
 70
     0
  9
$PSLTSCALE
 70
     1
  9
$TREEDEPTH
 70
  3020
  9
$CMLSTYLE
  2
Standard
  9
$CMLJUST
 70
     0
  9
$CMLSCALE
 40
20.0
  9
$PROXYGRAPHICS
 70
     1
  9
$MEASUREMENT
 70
     1
  9
$CELWEIGHT
370
    -1
  9
$ENDCAPS
280
     0
  9
$JOINSTYLE
280
     0
  9
$LWDISPLAY
290
     0
  9
$INSUNITS
 70
     4
  9
$HYPERLINKBASE
  1

  9
$STYLESHEET
  1

  9
$XEDIT
290
     1
  9
$CEPSNTYPE
380
     0
  9
$PSTYLEMODE
290
     1
  9
$FINGERPRINTGUID
  2
{4FEBB868-B914-44E0-BCF8-F29FA0F8A278}
  9
$VERSIONGUID
  2
{FAEB1C32-E019-11D5-929B-00C0DF256EC4}
  9
$EXTNAMES
290
     1
  9
$PSVPSCALE
 40
0.0
  9
$OLESTARTUP
290
     0
  0
ENDSEC
  0
SECTION
  2
CLASSES
  0
CLASS
  1
ACDBDICTIONARYWDFLT
  2
AcDbDictionaryWithDefault
  3
ObjectDBX Classes
 90
        0
280
     0
281
     0
  0
CLASS
  1
VISUALSTYLE
  2
AcDbVisualStyle
  3
ObjectDBX Classes
 90
     4095
280
     0
281
     0
  0
CLASS
  1
MATERIAL
  2
AcDbMaterial
  3
ObjectDBX Classes
 90
     1153
280
     0
281
     0
  0
CLASS
  1
SCALE
  2
AcDbScale
  3
ObjectDBX Classes
 90
     1153
280
     0
281
     0
  0
CLASS
  1
TABLESTYLE
  2
AcDbTableStyle
  3
ObjectDBX Classes
 90
     4095
280
     0
281
     0
  0
CLASS
  1
MLEADERSTYLE
  2
AcDbMLeaderStyle
  3
ACDB_MLEADERSTYLE_CLASS
 90
     4095
280
     0
281
     0
  0
CLASS
  1
SUN
  2
AcDbSun
  3
SCENEOE
 90
     1153
280
     0
281
     0
  0
CLASS
  1
DICTIONARYVAR
  2
AcDbDictionaryVar
  3
ObjectDBX Classes
 90
        0
280
     0
281
     0
  0
CLASS
  1
ACDBPLACEHOLDER
  2
AcDbPlaceHolder
  3
ObjectDBX Classes
 90
        0
280
     0
281
     0
  0
CLASS
  1
LAYOUT
  2
AcDbLayout
  3
ObjectDBX Classes
 90
        0
280
     0
281
     0
  0
ENDSEC
  0
SECTION
  2
TABLES
  0
TABLE
  2
VPORT
  5
8
102
{ACAD_XDICTIONARY
360
3AF
102
}
330
0
100
AcDbSymbolTable
 70
     1
  0
VPORT
  5
29
330
8
100
AcDbSymbolTableRecord
100
AcDbViewportTableRecord
  2
*Active
 70
     0
 10
0.0
 20
0.0
 11
1.0
 21
1.0
 12
297.0
 22
210.0
 13
0.0
 23
0.0
 14
10.0
 24
10.0
 15
10.0
 25
10.0
 16
0.0
 26
0.0
 36
1.0
 17
0.0
 27
0.0
 37
0.0
 40
420.0
 41
1.414285714285714
 42
50.0
 43
0.0
 44
0.0
 50
0.0
 51
0.0
 71
     0
 72
   100
 73
     1
 74
     3
 75
     0
 76
     0
 77
     0
 78
     0
281
     0
 65
     1
110
0.0
120
0.0
130
0.0
111
1.0
121
0.0
131
0.0
112
0.0
122
1.0
132
0.0
 79
     0
146
0.0
  0
ENDTAB
  0
TABLE
  2
LTYPE
  5
5
330
0
100
AcDbSymbolTable
 70
     5
  0
LTYPE
  5
14
330
5
100
AcDbSymbolTableRecord
100
AcDbLinetypeTableRecord
  2
ByBlock
 70
     0
  3

 72
    65
 73
     0
 40
0.0
  0
LTYPE
  5
15
330
5
100
AcDbSymbolTableRecord
100
AcDbLinetypeTableRecord
  2
ByLayer
 70
     0
  3

 72
    65
 73
     0
 40
0.0
  0
LTYPE
  5
16
330
5
100
AcDbSymbolTableRecord
100
AcDbLinetypeTableRecord
  2
Continuous
 70
     0
  3
Continuous
 72
    65
 73
     0
 40
0.0
  0
LTYPE
  5
6E
330
5
100
AcDbSymbolTableRecord
100
AcDbLinetypeTableRecord
  2
DASHDOT
 70
     0
  3
Dash dot __ . __ . __ . __ . __ . __ . __ . __
 72
    65
 73
     4
 40
13.0
 49
10.0
 74
     0
 49
-1.0
 74
     0
 49
1.0
 74
     0
 49
-1.0
 74
     0
  0
LTYPE
  5
71
330
5
100
AcDbSymbolTableRecord
100
AcDbLinetypeTableRecord
  2
DASHED
 70
     0
  3
Dashed __ __ __ __ __ __ __ __ __ __ __ __ __ _
 72
    65
 73
     2
 40
2.0
 49
1.0
 74
     0
 49
-1.0
 74
     0
  0
ENDTAB
  0
TABLE
  2
LAYER
  5
2
330
0
100
AcDbSymbolTable
 70
     7
  0
LAYER
  5
10
330
2
100
AcDbSymbolTableRecord
100
AcDbLayerTableRecord
  2
0
 70
     0
 62
     7
  6
Continuous
370
    -3
390
F
  0
LAYER
  5
DF
330
2
100
AcDbSymbolTableRecord
100
AcDbLayerTableRecord
  2
Defpoints
 70
     0
 62
     7
  6
Continuous
290
     0
370
    -3
390
F
  0
LAYER
  5
E4
330
2
100
AcDbSymbolTableRecord
100
AcDbLayerTableRecord
  2
図面枠ﾚｲﾔ
 70
     0
 62
     7
  6
Continuous
370
    -3
390
F
  0
LAYER
  5
109
330
2
100
AcDbSymbolTableRecord
100
AcDbLayerTableRecord
  2
GR1
 70
     0
 62
     7
  6
Continuous
370
    -3
390
F
  0
LAYER
  5
29A
330
2
100
AcDbSymbolTableRecord
100
AcDbLayerTableRecord
  2
基準ﾚｲﾔｸﾞﾙｰﾌﾟ
 70
     0
 62
     7
  6
Continuous
370
    -3
390
F
  0
ENDTAB
  0
TABLE
  2
STYLE
  5
3
330
0
100
AcDbSymbolTable
 70
     3
  0
STYLE
  5
11
330
3
100
AcDbSymbolTableRecord
100
AcDbTextStyleTableRecord
  2
Standard
 70
     0
 40
0.0
 41
1.0
 50
0.0
 71
     0
 42
2.5
  3
txt
  4

  0
STYLE
  5
74
330
3
100
AcDbSymbolTableRecord
100
AcDbTextStyleTableRecord
  2
FX_VECTOR
 70
     0
 40
0.0
 41
1.0
 50
0.0
 71
     0
 42
2.5
  3
MONOTXT.SHX
  4
BigFont.shx
  0
STYLE
  5
E0
330
3
100
AcDbSymbolTableRecord
100
AcDbTextStyleTableRecord
  2
DEFAULT
 70
     0
 40
0.0
 41
1.0
 50
0.0
 71
     0
 42
2.5
  3

  4

1001
ACAD
1000
ＭＳ ゴシック
1071
    32817
  0
ENDTAB
  0
TABLE
  2
VIEW
  5
6
330
0
100
AcDbSymbolTable
 70
     0
  0
ENDTAB
  0
TABLE
  2
UCS
  5
7
330
0
100
AcDbSymbolTable
 70
     0
  0
ENDTAB
  0
TABLE
  2
APPID
  5
9
330
0
100
AcDbSymbolTable
 70
     2
  0
APPID
  5
12
330
9
100
AcDbSymbolTableRecord
100
AcDbRegAppTableRecord
  2
ACAD
 70
     0
  0
APPID
  5
3E9
330
9
100
AcDbSymbolTableRecord
100
AcDbRegAppTableRecord
  2
ACAD_MLEADERVER
 70
     0
  0
ENDTAB
  0
TABLE
  2
DIMSTYLE
  5
A
330
0
100
AcDbSymbolTable
 70
     2
100
AcDbDimStyleTable
  0
DIMSTYLE
105
27
330
A
100
AcDbSymbolTableRecord
100
AcDbDimStyleTableRecord
  2
ISO-25
 70
     0
 41
2.5
 42
0.625
 43
3.75
 44
1.25
 73
     0
 74
     0
 77
     1
 78
     8
140
2.5
141
2.5
143
0.03937007874016
147
0.625
171
     3
172
     1
178
     0
271
     2
272
     2
274
     3
278
    44
283
     0
284
     8
340
11
  0
DIMSTYLE
105
DE
330
A
100
AcDbSymbolTableRecord
100
AcDbDimStyleTableRecord
  2
FX_DIMINFO
 70
     0
 41
4.0
 42
1.0
 43
10.0
 44
1.0
 46
6.0
 73
     0
 74
     0
 77
     1
 78
     8
 79
     2
140
4.0
141
2.5
143
0.03937
147
1.0
171
     3
172
     1
173
     1
176
     7
177
     7
271
     2
178
     7
179
     2
271
     2
272
     2
274
     3
284
     8
340
74
344
7E
  0
ENDTAB
  0
TABLE
  2
BLOCK_RECORD
  5
1
330
0
100
AcDbSymbolTable
 70
    25
  0
BLOCK_RECORD
  5
1F
330
1
100
AcDbSymbolTableRecord
100
AcDbBlockTableRecord
  2
*Model_Space
340
22
  0
BLOCK_RECORD
  5
1B
330
1
100
AcDbSymbolTableRecord
100
AcDbBlockTableRecord
  2
*Paper_Space
340
1E
  0
BLOCK_RECORD
  5
23
330
1
100
AcDbSymbolTableRecord
100
AcDbBlockTableRecord
  2
*Paper_Space0
340
26
  0
BLOCK_RECORD
  5
75
330
1
100
AcDbSymbolTableRecord
100
AcDbBlockTableRecord
  2
FXTIP_NONE
340
0
  0
BLOCK_RECORD
  5
78
330
1
100
AcDbSymbolTableRecord
100
AcDbBlockTableRecord
  2
FXTIP_ARROW_S
340
0
102
{BLKREFS
331
2E5
331
2EA
331
2F0
331
2F6
331
2FC
331
302
331
308
331
30E
331
314
331
31A
331
320
331
324
331
329
331
330
331
336
102
}
  0
BLOCK_RECORD
  5
7E
330
1
100
AcDbSymbolTableRecord
100
AcDbBlockTableRecord
  2
FXTIP_ARROW_E
340
0
102
{BLKREFS
331
2E6
331
2EB
331
2F1
331
2F7
331
2FD
331
303
331
309
331
30F
331
315
331
31B
331
321
331
32A
331
331
331
337
102
}
  0
BLOCK_RECORD
  5
84
330
1
100
AcDbSymbolTableRecord
100
AcDbBlockTableRecord
  2
FXTIP_BLACKDOT_S
340
0
  0
BLOCK_RECORD
  5
8A
330
1
100
AcDbSymbolTableRecord
100
AcDbBlockTableRecord
  2
FXTIP_BLACKDOT_E
340
0
  0
BLOCK_RECORD
  5
90
330
1
100
AcDbSymbolTableRecord
100
AcDbBlockTableRecord
  2
FXTIP_TRIANGLE_S
340
0
  0
BLOCK_RECORD
  5
97
330
1
100
AcDbSymbolTableRecord
100
AcDbBlockTableRecord
  2
FXTIP_TRIANGLE_E
340
0
  0
BLOCK_RECORD
  5
9E
330
1
100
AcDbSymbolTableRecord
100
AcDbBlockTableRecord
  2
FXTIP_ARCHITECT_S
340
0
  0
BLOCK_RECORD
  5
A4
330
1
100
AcDbSymbolTableRecord
100
AcDbBlockTableRecord
  2
FXTIP_ARCHITECT_E
340
0
  0
BLOCK_RECORD
  5
AA
330
1
100
AcDbSymbolTableRecord
100
AcDbBlockTableRecord
  2
FXTIP_CIVIL_S
340
0
  0
BLOCK_RECORD
  5
B0
330
1
100
AcDbSymbolTableRecord
100
AcDbBlockTableRecord
  2
FXTIP_CIVIL_E
340
0
  0
BLOCK_RECORD
  5
B6
330
1
100
AcDbSymbolTableRecord
100
AcDbBlockTableRecord
  2
FXTIP_WHITEDOT_S
340
0
  0
BLOCK_RECORD
  5
BB
330
1
100
AcDbSymbolTableRecord
100
AcDbBlockTableRecord
  2
FXTIP_WHITEDOT_E
340
0
  0
BLOCK_RECORD
  5
C0
330
1
100
AcDbSymbolTableRecord
100
AcDbBlockTableRecord
  2
FXTIP_UPARROW_S
340
0
  0
BLOCK_RECORD
  5
C5
330
1
100
AcDbSymbolTableRecord
100
AcDbBlockTableRecord
  2
FXTIP_UPARROW_E
340
0
  0
BLOCK_RECORD
  5
CA
330
1
100
AcDbSymbolTableRecord
100
AcDbBlockTableRecord
  2
FXTIP_DOWNARROW_S
340
0
  0
BLOCK_RECORD
  5
CF
330
1
100
AcDbSymbolTableRecord
100
AcDbBlockTableRecord
  2
FXTIP_DOWNARROW_E
340
0
  0
BLOCK_RECORD
  5
D4
330
1
100
AcDbSymbolTableRecord
100
AcDbBlockTableRecord
  2
FXTIP_BLACKTRIANGLE_S
340
0
  0
BLOCK_RECORD
  5
D9
330
1
100
AcDbSymbolTableRecord
100
AcDbBlockTableRecord
  2
FXTIP_BLACKTRIANGLE_E
340
0
  0
BLOCK_RECORD
  5
E1
330
1
100
AcDbSymbolTableRecord
100
AcDbBlockTableRecord
  2
BLKF023
340
0
102
{BLKREFS
331
E5
102
}
  0
BLOCK_RECORD
  5
EE
330
1
100
AcDbSymbolTableRecord
100
AcDbBlockTableRecord
  2
BLKF024
340
0
102
{BLKREFS
331
F1
102
}
  0
BLOCK_RECORD
  5
F6
330
1
100
AcDbSymbolTableRecord
100
AcDbBlockTableRecord
  2
BLKF025
340
0
102
{BLKREFS
331
F9
102
}
  0
BLOCK_RECORD
  5
36F
330
1
100
AcDbSymbolTableRecord
100
AcDbBlockTableRecord
  2
BLKF026
340
0
102
{BLKREFS
331
372
102
}
  0
BLOCK_RECORD
  5
382
330
1
100
AcDbSymbolTableRecord
100
AcDbBlockTableRecord
  2
BLKF027
340
0
102
{BLKREFS
331
385
102
}
  0
ENDTAB
  0
ENDSEC
  0
SECTION
  2
BLOCKS
  0
BLOCK
  5
20
330
1F
100
AcDbEntity
  8
0
100
AcDbBlockBegin
  2
*Model_Space
 70
     0
 10
0.0
 20
0.0
 30
0.0
  3
*Model_Space
  1

  0
ENDBLK
  5
21
330
1F
100
AcDbEntity
  8
0
100
AcDbBlockEnd
  0
BLOCK
  5
1C
330
1B
100
AcDbEntity
 67
     1
  8
0
100
AcDbBlockBegin
  2
*Paper_Space
 70
     0
 10
0.0
 20
0.0
 30
0.0
  3
*Paper_Space
  1

  0
ENDBLK
  5
1D
330
1B
100
AcDbEntity
 67
     1
  8
0
100
AcDbBlockEnd
  0
BLOCK
  5
24
330
23
100
AcDbEntity
  8
0
100
AcDbBlockBegin
  2
*Paper_Space0
 70
     0
 10
0.0
 20
0.0
 30
0.0
  3
*Paper_Space0
  1

  0
ENDBLK
  5
25
330
23
100
AcDbEntity
  8
0
100
AcDbBlockEnd
  0
BLOCK
  5
76
330
75
100
AcDbEntity
  8
0
100
AcDbBlockBegin
  2
FXTIP_NONE
 70
     0
 10
0.0
 20
0.0
 30
0.0
  3
FXTIP_NONE
  1

  0
ENDBLK
  5
77
330
75
100
AcDbEntity
  8
0
100
AcDbBlockEnd
  0
BLOCK
  5
79
330
78
100
AcDbEntity
  8
0
100
AcDbBlockBegin
  2
FXTIP_ARROW_S
 70
     0
 10
0.0
 20
0.0
 30
0.0
  3
FXTIP_ARROW_S
  1

  0
LINE
  5
7B
330
78
100
AcDbEntity
  8
0
  6
Continuous
 62
     0
370
    -2
100
AcDbLine
 10
0.0
 20
0.0
 30
0.0
 11
-1.0
 21
0.0000000000000001
 31
0.0
  0
LINE
  5
7C
330
78
100
AcDbEntity
  8
0
  6
Continuous
 62
     0
370
    -2
100
AcDbLine
 10
0.0
 20
0.0
 30
0.0
 11
-0.9659258262890683
 21
-0.2588190451025206
 31
0.0
  0
LINE
  5
7D
330
78
100
AcDbEntity
  8
0
  6
Continuous
 62
     0
370
    -2
100
AcDbLine
 10
0.0
 20
0.0
 30
0.0
 11
-0.9659258262890683
 21
0.2588190451025209
 31
0.0
  0
ENDBLK
  5
7A
330
78
100
AcDbEntity
  8
0
100
AcDbBlockEnd
  0
BLOCK
  5
7F
330
7E
100
AcDbEntity
  8
0
100
AcDbBlockBegin
  2
FXTIP_ARROW_E
 70
     0
 10
0.0
 20
0.0
 30
0.0
  3
FXTIP_ARROW_E
  1

  0
LINE
  5
81
330
7E
100
AcDbEntity
  8
0
  6
Continuous
 62
     0
370
    -2
100
AcDbLine
 10
0.0
 20
0.0
 30
0.0
 11
-1.0
 21
0.0
 31
0.0
  0
LINE
  5
82
330
7E
100
AcDbEntity
  8
0
  6
Continuous
 62
     0
370
    -2
100
AcDbLine
 10
0.0
 20
0.0
 30
0.0
 11
-0.9659258262890683
 21
0.2588190451025207
 31
0.0
  0
LINE
  5
83
330
7E
100
AcDbEntity
  8
0
  6
Continuous
 62
     0
370
    -2
100
AcDbLine
 10
0.0
 20
0.0
 30
0.0
 11
-0.9659258262890683
 21
-0.2588190451025207
 31
0.0
  0
ENDBLK
  5
80
330
7E
100
AcDbEntity
  8
0
100
AcDbBlockEnd
  0
BLOCK
  5
85
330
84
100
AcDbEntity
  8
0
100
AcDbBlockBegin
  2
FXTIP_BLACKDOT_S
 70
     0
 10
0.0
 20
0.0
 30
0.0
  3
FXTIP_BLACKDOT_S
  1

  0
LINE
  5
87
330
84
100
AcDbEntity
  8
0
  6
Continuous
 62
     0
370
    -2
100
AcDbLine
 10
0.0
 20
0.0
 30
0.0
 11
-1.0
 21
0.0000000000000001
 31
0.0
  0
LWPOLYLINE
  5
88
330
84
100
AcDbEntity
  8
0
  6
Continuous
 62
     0
370
    -2
100
AcDbPolyline
 90
        2
 70
     1
 43
0.0625
 10
-0.03125
 20
0.0
 42
1.0
 10
0.03125
 20
0.0
 42
1.0
  0
CIRCLE
  5
89
330
84
100
AcDbEntity
  8
0
  6
Continuous
 62
     0
370
    -2
100
AcDbCircle
 10
0.0
 20
0.0
 30
0.0
 40
0.0625
  0
ENDBLK
  5
86
330
84
100
AcDbEntity
  8
0
100
AcDbBlockEnd
  0
BLOCK
  5
8B
330
8A
100
AcDbEntity
  8
0
100
AcDbBlockBegin
  2
FXTIP_BLACKDOT_E
 70
     0
 10
0.0
 20
0.0
 30
0.0
  3
FXTIP_BLACKDOT_E
  1

  0
LINE
  5
8D
330
8A
100
AcDbEntity
  8
0
  6
Continuous
 62
     0
370
    -2
100
AcDbLine
 10
0.0
 20
0.0
 30
0.0
 11
-1.0
 21
0.0
 31
0.0
  0
LWPOLYLINE
  5
8E
330
8A
100
AcDbEntity
  8
0
  6
Continuous
 62
     0
370
    -2
100
AcDbPolyline
 90
        2
 70
     1
 43
0.0625
 10
-0.03125
 20
0.0
 42
1.0
 10
0.03125
 20
0.0
 42
1.0
  0
CIRCLE
  5
8F
330
8A
100
AcDbEntity
  8
0
  6
Continuous
 62
     0
370
    -2
100
AcDbCircle
 10
0.0
 20
0.0
 30
0.0
 40
0.0625
  0
ENDBLK
  5
8C
330
8A
100
AcDbEntity
  8
0
100
AcDbBlockEnd
  0
BLOCK
  5
91
330
90
100
AcDbEntity
  8
0
100
AcDbBlockBegin
  2
FXTIP_TRIANGLE_S
 70
     0
 10
0.0
 20
0.0
 30
0.0
  3
FXTIP_TRIANGLE_S
  1

  0
LINE
  5
93
330
90
100
AcDbEntity
  8
0
  6
Continuous
 62
     0
370
    -2
100
AcDbLine
 10
0.0
 20
0.0
 30
0.0
 11
-1.0
 21
0.0000000000000001
 31
0.0
  0
LINE
  5
94
330
90
100
AcDbEntity
  8
0
  6
Continuous
 62
     0
370
    -2
100
AcDbLine
 10
0.0
 20
0.0
 30
0.0
 11
-0.9659258262890683
 21
-0.2588190451025206
 31
0.0
  0
LINE
  5
95
330
90
100
AcDbEntity
  8
0
  6
Continuous
 62
     0
370
    -2
100
AcDbLine
 10
0.0
 20
0.0
 30
0.0
 11
-0.9659258262890683
 21
0.2588190451025209
 31
0.0
  0
LINE
  5
96
330
90
100
AcDbEntity
  8
0
  6
Continuous
 62
     0
370
    -2
100
AcDbLine
 10
-0.9659258262890683
 20
-0.2588190451025206
 30
0.0
 11
-0.9659258262890683
 21
0.2588190451025209
 31
0.0
  0
ENDBLK
  5
92
330
90
100
AcDbEntity
  8
0
100
AcDbBlockEnd
  0
BLOCK
  5
98
330
97
100
AcDbEntity
  8
0
100
AcDbBlockBegin
  2
FXTIP_TRIANGLE_E
 70
     0
 10
0.0
 20
0.0
 30
0.0
  3
FXTIP_TRIANGLE_E
  1

  0
LINE
  5
9A
330
97
100
AcDbEntity
  8
0
  6
Continuous
 62
     0
370
    -2
100
AcDbLine
 10
0.0
 20
0.0
 30
0.0
 11
-1.0
 21
0.0
 31
0.0
  0
LINE
  5
9B
330
97
100
AcDbEntity
  8
0
  6
Continuous
 62
     0
370
    -2
100
AcDbLine
 10
0.0
 20
0.0
 30
0.0
 11
-0.9659258262890683
 21
0.2588190451025207
 31
0.0
  0
LINE
  5
9C
330
97
100
AcDbEntity
  8
0
  6
Continuous
 62
     0
370
    -2
100
AcDbLine
 10
0.0
 20
0.0
 30
0.0
 11
-0.9659258262890683
 21
-0.2588190451025207
 31
0.0
  0
LINE
  5
9D
330
97
100
AcDbEntity
  8
0
  6
Continuous
 62
     0
370
    -2
100
AcDbLine
 10
-0.9659258262890683
 20
0.2588190451025207
 30
0.0
 11
-0.9659258262890683
 21
-0.2588190451025207
 31
0.0
  0
ENDBLK
  5
99
330
97
100
AcDbEntity
  8
0
100
AcDbBlockEnd
  0
BLOCK
  5
9F
330
9E
100
AcDbEntity
  8
0
100
AcDbBlockBegin
  2
FXTIP_ARCHITECT_S
 70
     0
 10
0.0
 20
0.0
 30
0.0
  3
FXTIP_ARCHITECT_S
  1

  0
LINE
  5
A1
330
9E
100
AcDbEntity
  8
0
  6
Continuous
 62
     0
370
    -2
100
AcDbLine
 10
0.0
 20
0.0
 30
0.0
 11
-1.0
 21
0.0000000000000001
 31
0.0
  0
LINE
  5
A2
330
9E
100
AcDbEntity
  8
0
  6
Continuous
 62
     0
370
    -2
100
AcDbLine
 10
0.0
 20
0.0
 30
0.0
 11
-0.7071067811865476
 21
-0.7071067811865474
 31
0.0
  0
LINE
  5
A3
330
9E
100
AcDbEntity
  8
0
  6
Continuous
 62
     0
370
    -2
100
AcDbLine
 10
0.0
 20
0.0
 30
0.0
 11
0.7071067811865476
 21
0.7071067811865474
 31
0.0
  0
ENDBLK
  5
A0
330
9E
100
AcDbEntity
  8
0
100
AcDbBlockEnd
  0
BLOCK
  5
A5
330
A4
100
AcDbEntity
  8
0
100
AcDbBlockBegin
  2
FXTIP_ARCHITECT_E
 70
     0
 10
0.0
 20
0.0
 30
0.0
  3
FXTIP_ARCHITECT_E
  1

  0
LINE
  5
A7
330
A4
100
AcDbEntity
  8
0
  6
Continuous
 62
     0
370
    -2
100
AcDbLine
 10
0.0
 20
0.0
 30
0.0
 11
-1.0
 21
0.0
 31
0.0
  0
LINE
  5
A8
330
A4
100
AcDbEntity
  8
0
  6
Continuous
 62
     0
370
    -2
100
AcDbLine
 10
0.0
 20
0.0
 30
0.0
 11
0.7071067811865475
 21
0.7071067811865475
 31
0.0
  0
LINE
  5
A9
330
A4
100
AcDbEntity
  8
0
  6
Continuous
 62
     0
370
    -2
100
AcDbLine
 10
0.0
 20
0.0
 30
0.0
 11
-0.7071067811865475
 21
-0.7071067811865475
 31
0.0
  0
ENDBLK
  5
A6
330
A4
100
AcDbEntity
  8
0
100
AcDbBlockEnd
  0
BLOCK
  5
AB
330
AA
100
AcDbEntity
  8
0
100
AcDbBlockBegin
  2
FXTIP_CIVIL_S
 70
     0
 10
0.0
 20
0.0
 30
0.0
  3
FXTIP_CIVIL_S
  1

  0
LINE
  5
AD
330
AA
100
AcDbEntity
  8
0
  6
Continuous
 62
     0
370
    -2
100
AcDbLine
 10
0.0
 20
0.0
 30
0.0
 11
-1.0
 21
0.0000000000000001
 31
0.0
  0
LINE
  5
AE
330
AA
100
AcDbEntity
  8
0
  6
Continuous
 62
     0
370
    -2
100
AcDbLine
 10
0.0
 20
-0.0625
 30
0.0
 11
-1.0
 21
-0.0624999999999999
 31
0.0
  0
LINE
  5
AF
330
AA
100
AcDbEntity
  8
0
  6
Continuous
 62
     0
370
    -2
100
AcDbLine
 10
0.0
 20
-0.125
 30
0.0
 11
-1.0
 21
-0.1249999999999999
 31
0.0
  0
ENDBLK
  5
AC
330
AA
100
AcDbEntity
  8
0
100
AcDbBlockEnd
  0
BLOCK
  5
B1
330
B0
100
AcDbEntity
  8
0
100
AcDbBlockBegin
  2
FXTIP_CIVIL_E
 70
     0
 10
0.0
 20
0.0
 30
0.0
  3
FXTIP_CIVIL_E
  1

  0
LINE
  5
B3
330
B0
100
AcDbEntity
  8
0
  6
Continuous
 62
     0
370
    -2
100
AcDbLine
 10
0.0
 20
0.0
 30
0.0
 11
-1.0
 21
0.0
 31
0.0
  0
LINE
  5
B4
330
B0
100
AcDbEntity
  8
0
  6
Continuous
 62
     0
370
    -2
100
AcDbLine
 10
0.0
 20
0.0625
 30
0.0
 11
-1.0
 21
0.0625
 31
0.0
  0
LINE
  5
B5
330
B0
100
AcDbEntity
  8
0
  6
Continuous
 62
     0
370
    -2
100
AcDbLine
 10
0.0
 20
0.125
 30
0.0
 11
-1.0
 21
0.125
 31
0.0
  0
ENDBLK
  5
B2
330
B0
100
AcDbEntity
  8
0
100
AcDbBlockEnd
  0
BLOCK
  5
B7
330
B6
100
AcDbEntity
  8
0
100
AcDbBlockBegin
  2
FXTIP_WHITEDOT_S
 70
     0
 10
0.0
 20
0.0
 30
0.0
  3
FXTIP_WHITEDOT_S
  1

  0
LINE
  5
B9
330
B6
100
AcDbEntity
  8
0
  6
Continuous
 62
     0
370
    -2
100
AcDbLine
 10
0.0
 20
0.0
 30
0.0
 11
-1.0
 21
0.0000000000000001
 31
0.0
  0
CIRCLE
  5
BA
330
B6
100
AcDbEntity
  8
0
  6
Continuous
 62
     0
370
    -2
100
AcDbCircle
 10
0.0
 20
0.0
 30
0.0
 40
0.0625
  0
ENDBLK
  5
B8
330
B6
100
AcDbEntity
  8
0
100
AcDbBlockEnd
  0
BLOCK
  5
BC
330
BB
100
AcDbEntity
  8
0
100
AcDbBlockBegin
  2
FXTIP_WHITEDOT_E
 70
     0
 10
0.0
 20
0.0
 30
0.0
  3
FXTIP_WHITEDOT_E
  1

  0
LINE
  5
BE
330
BB
100
AcDbEntity
  8
0
  6
Continuous
 62
     0
370
    -2
100
AcDbLine
 10
0.0
 20
0.0
 30
0.0
 11
-1.0
 21
0.0
 31
0.0
  0
CIRCLE
  5
BF
330
BB
100
AcDbEntity
  8
0
  6
Continuous
 62
     0
370
    -2
100
AcDbCircle
 10
0.0
 20
0.0
 30
0.0
 40
0.0625
  0
ENDBLK
  5
BD
330
BB
100
AcDbEntity
  8
0
100
AcDbBlockEnd
  0
BLOCK
  5
C1
330
C0
100
AcDbEntity
  8
0
100
AcDbBlockBegin
  2
FXTIP_UPARROW_S
 70
     0
 10
0.0
 20
0.0
 30
0.0
  3
FXTIP_UPARROW_S
  1

  0
LINE
  5
C3
330
C0
100
AcDbEntity
  8
0
  6
Continuous
 62
     0
370
    -2
100
AcDbLine
 10
0.0
 20
0.0
 30
0.0
 11
-1.0
 21
0.0000000000000001
 31
0.0
  0
LINE
  5
C4
330
C0
100
AcDbEntity
  8
0
  6
Continuous
 62
     0
370
    -2
100
AcDbLine
 10
0.0
 20
0.0
 30
0.0
 11
-0.9659258262890683
 21
-0.2588190451025206
 31
0.0
  0
ENDBLK
  5
C2
330
C0
100
AcDbEntity
  8
0
100
AcDbBlockEnd
  0
BLOCK
  5
C6
330
C5
100
AcDbEntity
  8
0
100
AcDbBlockBegin
  2
FXTIP_UPARROW_E
 70
     0
 10
0.0
 20
0.0
 30
0.0
  3
FXTIP_UPARROW_E
  1

  0
LINE
  5
C8
330
C5
100
AcDbEntity
  8
0
  6
Continuous
 62
     0
370
    -2
100
AcDbLine
 10
0.0
 20
0.0
 30
0.0
 11
-1.0
 21
0.0
 31
0.0
  0
LINE
  5
C9
330
C5
100
AcDbEntity
  8
0
  6
Continuous
 62
     0
370
    -2
100
AcDbLine
 10
0.0
 20
0.0
 30
0.0
 11
-0.9659258262890683
 21
0.2588190451025207
 31
0.0
  0
ENDBLK
  5
C7
330
C5
100
AcDbEntity
  8
0
100
AcDbBlockEnd
  0
BLOCK
  5
CB
330
CA
100
AcDbEntity
  8
0
100
AcDbBlockBegin
  2
FXTIP_DOWNARROW_S
 70
     0
 10
0.0
 20
0.0
 30
0.0
  3
FXTIP_DOWNARROW_S
  1

  0
LINE
  5
CD
330
CA
100
AcDbEntity
  8
0
  6
Continuous
 62
     0
370
    -2
100
AcDbLine
 10
0.0
 20
0.0
 30
0.0
 11
-1.0
 21
0.0000000000000001
 31
0.0
  0
LINE
  5
CE
330
CA
100
AcDbEntity
  8
0
  6
Continuous
 62
     0
370
    -2
100
AcDbLine
 10
0.0
 20
0.0
 30
0.0
 11
-0.9659258262890683
 21
0.2588190451025209
 31
0.0
  0
ENDBLK
  5
CC
330
CA
100
AcDbEntity
  8
0
100
AcDbBlockEnd
  0
BLOCK
  5
D0
330
CF
100
AcDbEntity
  8
0
100
AcDbBlockBegin
  2
FXTIP_DOWNARROW_E
 70
     0
 10
0.0
 20
0.0
 30
0.0
  3
FXTIP_DOWNARROW_E
  1

  0
LINE
  5
D2
330
CF
100
AcDbEntity
  8
0
  6
Continuous
 62
     0
370
    -2
100
AcDbLine
 10
0.0
 20
0.0
 30
0.0
 11
-1.0
 21
0.0
 31
0.0
  0
LINE
  5
D3
330
CF
100
AcDbEntity
  8
0
  6
Continuous
 62
     0
370
    -2
100
AcDbLine
 10
0.0
 20
0.0
 30
0.0
 11
-0.9659258262890683
 21
-0.2588190451025207
 31
0.0
  0
ENDBLK
  5
D1
330
CF
100
AcDbEntity
  8
0
100
AcDbBlockEnd
  0
BLOCK
  5
D5
330
D4
100
AcDbEntity
  8
0
100
AcDbBlockBegin
  2
FXTIP_BLACKTRIANGLE_S
 70
     0
 10
0.0
 20
0.0
 30
0.0
  3
FXTIP_BLACKTRIANGLE_S
  1

  0
LINE
  5
D7
330
D4
100
AcDbEntity
  8
0
  6
Continuous
 62
     0
370
    -2
100
AcDbLine
 10
0.0
 20
0.0
 30
0.0
 11
-1.0
 21
0.0000000000000001
 31
0.0
  0
SOLID
  5
D8
330
D4
100
AcDbEntity
  8
0
  6
Continuous
 62
     0
370
    -2
100
AcDbTrace
 10
0.0
 20
0.0
 30
0.0
 11
-0.9659258262890683
 21
-0.2588190451025206
 31
0.0
 12
-0.9659258262890683
 22
0.2588190451025209
 32
0.0
 13
-0.9659258262890683
 23
0.2588190451025209
 33
0.0
  0
ENDBLK
  5
D6
330
D4
100
AcDbEntity
  8
0
100
AcDbBlockEnd
  0
BLOCK
  5
DA
330
D9
100
AcDbEntity
  8
0
100
AcDbBlockBegin
  2
FXTIP_BLACKTRIANGLE_E
 70
     0
 10
0.0
 20
0.0
 30
0.0
  3
FXTIP_BLACKTRIANGLE_E
  1

  0
LINE
  5
DC
330
D9
100
AcDbEntity
  8
0
  6
Continuous
 62
     0
370
    -2
100
AcDbLine
 10
0.0
 20
0.0
 30
0.0
 11
-1.0
 21
0.0
 31
0.0
  0
SOLID
  5
DD
330
D9
100
AcDbEntity
  8
0
  6
Continuous
 62
     0
370
    -2
100
AcDbTrace
 10
0.0
 20
0.0
 30
0.0
 11
-0.9659258262890683
 21
0.2588190451025207
 31
0.0
 12
-0.9659258262890683
 22
-0.2588190451025207
 32
0.0
 13
-0.9659258262890683
 23
-0.2588190451025207
 33
0.0
  0
ENDBLK
  5
DB
330
D9
100
AcDbEntity
  8
0
100
AcDbBlockEnd
  0
BLOCK
  5
E2
330
E1
100
AcDbEntity
  8
0
100
AcDbBlockBegin
  2
BLKF023
 70
     0
 10
0.0
 20
0.0
 30
0.0
  3
BLKF023
  1

  0
LINE
  5
E6
330
E1
100
AcDbEntity
  8
図面枠ﾚｲﾔ
  6
Continuous
 62
     7
370
    50
100
AcDbLine
 10
10.0
 20
10.0
 30
0.0
 11
584.0
 21
10.0
 31
0.0
  0
LINE
  5
E7
330
E1
100
AcDbEntity
  8
図面枠ﾚｲﾔ
  6
Continuous
 62
     7
370
    50
100
AcDbLine
 10
10.0
 20
10.0
 30
0.0
 11
10.0
 21
410.0
 31
0.0
  0
LINE
  5
E8
330
E1
100
AcDbEntity
  8
図面枠ﾚｲﾔ
  6
Continuous
 62
     7
370
    50
100
AcDbLine
 10
10.0
 20
410.0
 30
0.0
 11
584.0
 21
410.0
 31
0.0
  0
LINE
  5
E9
330
E1
100
AcDbEntity
  8
図面枠ﾚｲﾔ
  6
Continuous
 62
     7
370
    50
100
AcDbLine
 10
584.0
 20
410.0
 30
0.0
 11
584.0
 21
10.0
 31
0.0
  0
LINE
  5
EA
330
E1
100
AcDbEntity
  8
図面枠ﾚｲﾔ
  6
Continuous
 62
     7
370
    25
100
AcDbLine
 10
327.0
 20
9.999999999999998
 30
0.0
 11
327.0
 21
20.0
 31
0.0
  0
TEXT
  5
EB
330
E1
100
AcDbEntity
  8
図面枠ﾚｲﾔ
  6
Continuous
 62
     7
370
    25
100
AcDbText
 10
311.7388305664062
 20
11.59687900543213
 30
0.0
 40
6.648748874664307
  1
品名
 41
1.083413404130886
  7
FX_VECTOR
 72
     5
 11
323.05837059021
 21
11.59687900543213
 31
0.0
100
AcDbText
  0
LINE
  5
EC
330
E1
100
AcDbEntity
  8
図面枠ﾚｲﾔ
  6
Continuous
 62
     7
370
    50
100
AcDbLine
 10
407.0
 20
20.0
 30
0.0
 11
407.0
 21
10.0
 31
0.0
  0
LINE
  5
ED
330
E1
100
AcDbEntity
  8
図面枠ﾚｲﾔ
  6
Continuous
 62
     7
370
    50
100
AcDbLine
 10
307.0
 20
20.0
 30
0.0
 11
584.0
 21
20.0
 31
0.0
  0
INSERT
  5
F1
330
E1
100
AcDbEntity
  8
0
  6
Continuous
 62
     7
370
    25
100
AcDbBlockReference
  2
BLKF024
 10
0.0
 20
0.0
 30
0.0
  0
INSERT
  5
F9
330
E1
100
AcDbEntity
  8
0
  6
Continuous
 62
     7
370
    25
100
AcDbBlockReference
  2
BLKF025
 10
0.0
 20
0.0
 30
0.0
  0
HATCH
  5
10A
330
E1
100
AcDbEntity
  8
GR1
  6
Continuous
 62
     7
370
    25
100
AcDbHatch
 10
0.0
 20
0.0
 30
0.0
210
0.0
220
0.0
230
1.0
  2
_USER
 70
     0
 71
     0
 91
        2
 92
        0
 93
        4
 72
     1
 10
512.8018997861325
 20
17.91346152
 11
518.8018997861325
 21
17.91346152
 72
     1
 10
518.8018997861325
 20
17.91346152
 11
518.8018997861325
 21
11.91346152
 72
     1
 10
518.8018997861325
 20
11.91346152
 11
512.8018997861325
 21
11.91346152
 72
     1
 10
512.8018997861325
 20
11.91346152
 11
512.8018997861325
 21
17.91346152
 97
        0
 92
        0
 93
       15
 72
     1
 10
515.8018997861325
 20
17.76923076000002
 11
512.9461305461325
 21
14.91346152
 72
     1
 10
512.9461305461325
 20
14.91346152
 11
515.8018997861325
 21
12.05769228000001
 72
     1
 10
515.8018997861325
 20
12.05769228000001
 11
517.3595920661326
 21
13.61538462
 72
     1
 10
517.3595920661326
 20
13.61538462
 11
517.3595920661326
 21
12.98076924
 72
     1
 10
517.3595920661326
 20
12.98076924
 11
518.2249766861325
 21
12.98076924
 72
     1
 10
518.2249766861325
 20
12.98076924
 11
518.2249766861325
 21
15.00000000000001
 72
     1
 10
518.2249766861325
 20
15.00000000000001
 11
515.8018997861325
 21
15.00000000000001
 72
     1
 10
515.8018997861325
 20
15.00000000000001
 11
515.8018997861325
 21
14.13461538000001
 72
     1
 10
515.8018997861325
 20
14.13461538000001
 11
516.2461305461325
 21
14.13461538000001
 72
     1
 10
516.2461305461325
 20
14.13461538000001
 11
515.8018997861325
 21
13.69038462
 72
     1
 10
515.8018997861325
 20
13.69038462
 11
514.5788228861325
 21
14.91346152
 72
     1
 10
514.5788228861325
 20
14.91346152
 11
515.8018997861325
 21
16.13653842000003
 72
     1
 10
515.8018997861325
 20
16.13653842000003
 11
516.5922844061325
 21
15.3461538
 72
     1
 10
516.5922844061325
 20
15.3461538
 11
518.2249766861325
 21
15.3461538
 72
     1
 10
518.2249766861325
 20
15.3461538
 11
515.8018997861325
 21
17.76923076000002
 97
        0
 75
     0
 76
     0
 52
45.0
 41
0.05
 77
     0
 78
     1
 53
45.0
 43
0.0
 44
0.0
 45
-0.0353553390593274
 46
0.0353553390593274
 79
     0
 98
        0
  0
TEXT
  5
10B
330
E1
100
AcDbEntity
  8
図面枠ﾚｲﾔ
  6
Continuous
 62
     7
370
    25
100
AcDbText
 10
523.2257690429688
 20
11.46128463745117
 30
0.0
 40
7.170907974243164
  1
ＧＯＬＤ　ＣＡＳＴＥＲ
 41
0.702117011671778
  7
FX_VECTOR
 72
     5
 11
569.9776363372803
 21
11.46128463745117
 31
0.0
100
AcDbText
  0
LINE
  5
10C
330
E1
100
AcDbEntity
  8
図面枠ﾚｲﾔ
  6
Continuous
 62
     7
370
    25
100
AcDbLine
 10
427.0
 20
9.999999999999998
 30
0.0
 11
427.0
 21
20.0
 31
0.0
  0
TEXT
  5
10D
330
E1
100
AcDbEntity
  8
図面枠ﾚｲﾔ
  6
Continuous
 62
     7
370
    25
100
AcDbText
 10
411.7388305664062
 20
11.59687900543213
 30
0.0
 40
6.648748874664307
  1
図番
 41
1.083413404130886
  7
FX_VECTOR
 72
     5
 11
423.05837059021
 21
11.59687900543213
 31
0.0
100
AcDbText
  0
LINE
  5
10E
330
E1
100
AcDbEntity
  8
図面枠ﾚｲﾔ
  6
Continuous
 62
     7
370
    50
100
AcDbLine
 10
507.0
 20
20.0
 30
0.0
 11
507.0
 21
10.0
 31
0.0
  0
LINE
  5
10F
330
E1
100
AcDbEntity
  8
図面枠ﾚｲﾔ
  6
Continuous
 62
     7
370
    50
100
AcDbLine
 10
307.0
 20
20.0
 30
0.0
 11
307.0
 21
10.0
 31
0.0
  0
ENDBLK
  5
E3
330
E1
100
AcDbEntity
  8
0
100
AcDbBlockEnd
  0
BLOCK
  5
EF
330
EE
100
AcDbEntity
  8
0
100
AcDbBlockBegin
  2
BLKF024
 70
     0
 10
0.0
 20
0.0
 30
0.0
  3
BLKF024
  1

  0
LINE
  5
F2
330
EE
100
AcDbEntity
  8
0
  6
Continuous
 62
     7
370
    25
100
AcDbLine
 10
518.8018997861325
 20
17.91346152
 30
0.0
 11
512.8018997861325
 21
17.91346152
 31
0.0
  0
LINE
  5
F3
330
EE
100
AcDbEntity
  8
0
  6
Continuous
 62
     7
370
    25
100
AcDbLine
 10
512.8018997861325
 20
17.91346152
 30
0.0
 11
512.8018997861325
 21
11.91346152
 31
0.0
  0
LINE
  5
F4
330
EE
100
AcDbEntity
  8
0
  6
Continuous
 62
     7
370
    25
100
AcDbLine
 10
512.8018997861325
 20
11.91346152
 30
0.0
 11
518.8018997861325
 21
11.91346152
 31
0.0
  0
LINE
  5
F5
330
EE
100
AcDbEntity
  8
0
  6
Continuous
 62
     7
370
    25
100
AcDbLine
 10
518.8018997861325
 20
11.91346152
 30
0.0
 11
518.8018997861325
 21
17.91346152
 31
0.0
  0
ENDBLK
  5
F0
330
EE
100
AcDbEntity
  8
0
100
AcDbBlockEnd
  0
BLOCK
  5
F7
330
F6
100
AcDbEntity
  8
0
100
AcDbBlockBegin
  2
BLKF025
 70
     0
 10
0.0
 20
0.0
 30
0.0
  3
BLKF025
  1

  0
LINE
  5
FA
330
F6
100
AcDbEntity
  8
0
  6
Continuous
 62
     7
370
    25
100
AcDbLine
 10
518.2249766861325
 20
15.3461538
 30
0.0
 11
515.8018997861325
 21
17.76923076000002
 31
0.0
  0
LINE
  5
FB
330
F6
100
AcDbEntity
  8
0
  6
Continuous
 62
     7
370
    25
100
AcDbLine
 10
515.8018997861325
 20
17.76923076000002
 30
0.0
 11
512.9461305461325
 21
14.91346152
 31
0.0
  0
LINE
  5
FC
330
F6
100
AcDbEntity
  8
0
  6
Continuous
 62
     7
370
    25
100
AcDbLine
 10
512.9461305461325
 20
14.91346152
 30
0.0
 11
515.8018997861325
 21
12.05769228000001
 31
0.0
  0
LINE
  5
FD
330
F6
100
AcDbEntity
  8
0
  6
Continuous
 62
     7
370
    25
100
AcDbLine
 10
515.8018997861325
 20
12.05769228000001
 30
0.0
 11
517.3595920661326
 21
13.61538462
 31
0.0
  0
LINE
  5
FE
330
F6
100
AcDbEntity
  8
0
  6
Continuous
 62
     7
370
    25
100
AcDbLine
 10
517.3595920661326
 20
13.61538462
 30
0.0
 11
517.3595920661326
 21
12.98076924
 31
0.0
  0
LINE
  5
FF
330
F6
100
AcDbEntity
  8
0
  6
Continuous
 62
     7
370
    25
100
AcDbLine
 10
517.3595920661326
 20
12.98076924
 30
0.0
 11
518.2249766861325
 21
12.98076924
 31
0.0
  0
LINE
  5
100
330
F6
100
AcDbEntity
  8
0
  6
Continuous
 62
     7
370
    25
100
AcDbLine
 10
518.2249766861325
 20
12.98076924
 30
0.0
 11
518.2249766861325
 21
15.00000000000001
 31
0.0
  0
LINE
  5
101
330
F6
100
AcDbEntity
  8
0
  6
Continuous
 62
     7
370
    25
100
AcDbLine
 10
518.2249766861325
 20
15.00000000000001
 30
0.0
 11
515.8018997861325
 21
15.00000000000001
 31
0.0
  0
LINE
  5
102
330
F6
100
AcDbEntity
  8
0
  6
Continuous
 62
     7
370
    25
100
AcDbLine
 10
515.8018997861325
 20
15.00000000000001
 30
0.0
 11
515.8018997861325
 21
14.13461538000001
 31
0.0
  0
LINE
  5
103
330
F6
100
AcDbEntity
  8
0
  6
Continuous
 62
     7
370
    25
100
AcDbLine
 10
515.8018997861325
 20
14.13461538000001
 30
0.0
 11
516.2461305461325
 21
14.13461538000001
 31
0.0
  0
LINE
  5
104
330
F6
100
AcDbEntity
  8
0
  6
Continuous
 62
     7
370
    25
100
AcDbLine
 10
516.2461305461325
 20
14.13461538000001
 30
0.0
 11
515.8018997861325
 21
13.69038462
 31
0.0
  0
LINE
  5
105
330
F6
100
AcDbEntity
  8
0
  6
Continuous
 62
     7
370
    25
100
AcDbLine
 10
515.8018997861325
 20
13.69038462
 30
0.0
 11
514.5788228861325
 21
14.91346152
 31
0.0
  0
LINE
  5
106
330
F6
100
AcDbEntity
  8
0
  6
Continuous
 62
     7
370
    25
100
AcDbLine
 10
514.5788228861325
 20
14.91346152
 30
0.0
 11
515.8018997861325
 21
16.13653842000003
 31
0.0
  0
LINE
  5
107
330
F6
100
AcDbEntity
  8
0
  6
Continuous
 62
     7
370
    25
100
AcDbLine
 10
515.8018997861325
 20
16.13653842000003
 30
0.0
 11
516.5922844061325
 21
15.3461538
 31
0.0
  0
LINE
  5
108
330
F6
100
AcDbEntity
  8
0
  6
Continuous
 62
     7
370
    25
100
AcDbLine
 10
516.5922844061325
 20
15.3461538
 30
0.0
 11
518.2249766861325
 21
15.3461538
 31
0.0
  0
ENDBLK
  5
F8
330
F6
100
AcDbEntity
  8
0
100
AcDbBlockEnd
  0
BLOCK
  5
370
330
36F
100
AcDbEntity
  8
0
100
AcDbBlockBegin
  2
BLKF026
 70
     0
 10
0.0
 20
0.0
 30
0.0
  3
BLKF026
  1

  0
TEXT
  5
373
330
36F
100
AcDbEntity
  8
基準ﾚｲﾔｸﾞﾙｰﾌﾟ
  6
Continuous
 62
     7
370
    25
100
AcDbText
 10
311.38720703125
 20
106.8936462402344
 30
0.0
 40
6.0
  1
Ｃ
 50
90.0
 41
0.9333333333333333
  7
FX_VECTOR
 72
     5
 11
311.38720703125
 21
110.8936462402344
 31
0.0
100
AcDbText
  0
TEXT
  5
374
330
36F
100
AcDbEntity
  8
基準ﾚｲﾔｸﾞﾙｰﾌﾟ
  6
Continuous
 62
     7
370
    25
100
AcDbText
 10
311.6252217359435
 20
102.8995087355956
 30
0.0
 40
6.0
  1
　
 50
93.41100311279257
 41
0.9333333333333302
  7
FX_VECTOR
 72
     5
 11
311.3872294359315
 21
106.8924224167481
 31
0.0
100
AcDbText
  0
TEXT
  5
375
330
36F
100
AcDbEntity
  8
基準ﾚｲﾔｸﾞﾙｰﾌﾟ
  6
Continuous
 62
     7
370
    25
100
AcDbText
 10
312.1004554635966
 20
98.92666621886633
 30
0.0
 40
6.0
  1
Ｄ
 50
96.82201385498104
 41
0.9333333333333369
  7
FX_VECTOR
 72
     5
 11
311.6253135793721
 21
102.8983459881649
 31
0.0
100
AcDbText
  0
TEXT
  5
376
330
36F
100
AcDbEntity
  8
基準ﾚｲﾔｸﾞﾙｰﾌﾟ
  6
Continuous
 62
     7
370
    25
100
AcDbText
 10
312.8112363338394
 20
94.98911911093683
 30
0.0
 40
6.0
  1
Ｌ
 50
100.2330169677739
 41
0.9333333333333328
  7
FX_VECTOR
 72
     5
 11
312.1006289005356
 21
98.92549270546942
 31
0.0
100
AcDbText
  0
TEXT
  5
377
330
36F
100
AcDbEntity
  8
基準ﾚｲﾔｸﾞﾙｰﾌﾟ
  6
Continuous
 62
     7
370
    25
100
AcDbText
 10
313.7550417536357
 20
91.10084296588697
 30
0.0
 40
6.0
  1
Ｏ
 50
103.6440200805659
 41
0.9333333333333302
  7
FX_VECTOR
 72
     5
 11
312.8114865666768
 21
94.98796318645678
 31
0.0
100
AcDbText
  0
TEXT
  5
378
330
36F
100
AcDbEntity
  8
基準ﾚｲﾔｸﾞﾙｰﾌﾟ
  6
Continuous
 62
     7
370
    25
100
AcDbText
 10
314.9284988323934
 20
87.27560550790747
 30
0.0
 40
6.0
  1
Ｇ
 50
107.0550231933591
 41
0.9333333333333294
  7
FX_VECTOR
 72
     5
 11
313.7553390582316
 21
91.09969966787378
 31
0.0
100
AcDbText
  0
TEXT
  5
379
330
36F
100
AcDbEntity
  8
基準ﾚｲﾔｸﾞﾙｰﾌﾟ
  6
Continuous
 62
     7
370
    25
100
AcDbText
 10
311.3872291700872
 20
110.8948090444097
 30
0.0
 40
6.0
  1
Ａ
 50
86.58898925781217
 41
0.9333333333333362
  7
FX_VECTOR
 72
     5
 11
311.6252220017878
 21
114.8877226938716
 31
0.0
100
AcDbText
  0
TEXT
  5
37A
330
36F
100
AcDbEntity
  8
基準ﾚｲﾔｸﾞﾙｰﾌﾟ
  6
Continuous
 62
     7
370
    25
100
AcDbText
 10
311.6253133149416
 20
114.8888854887821
 30
0.0
 40
6.0
  1
Ｓ
 50
83.17797851562577
 41
0.9333333333333287
  7
FX_VECTOR
 72
     5
 11
312.1004557280272
 21
118.8605651948117
 31
0.0
100
AcDbText
  0
TEXT
  5
37B
330
36F
100
AcDbEntity
  8
基準ﾚｲﾔｸﾞﾙｰﾌﾟ
  6
Continuous
 62
     7
370
    25
100
AcDbText
 10
312.1006294246955
 20
118.86173864522
 30
0.0
 40
6.0
  1
Ｔ
 50
79.76699829101543
 41
0.9333333333333317
  7
FX_VECTOR
 72
     5
 11
312.8112358096795
 21
122.7981124289987
 31
0.0
100
AcDbText
  0
TEXT
  5
37C
330
36F
100
AcDbEntity
  8
基準ﾚｲﾔｸﾞﾙｰﾌﾟ
  6
Continuous
 62
     7
370
    25
100
AcDbText
 10
312.8114868254774
 20
122.7992681960347
 30
0.0
 40
6.0
  1
Ｅ
 50
76.35598754882739
 41
0.9333333333333373
  7
FX_VECTOR
 72
     5
 11
313.7550414948351
 21
126.6863885422465
 31
0.0
100
AcDbText
  0
TEXT
  5
37D
330
36F
100
AcDbEntity
  8
基準ﾚｲﾔｸﾞﾙｰﾌﾟ
  6
Continuous
 62
     7
370
    25
100
AcDbText
 10
313.7553390582316
 20
126.6875317774387
 30
0.0
 40
6.0
  1
Ｒ
 50
72.94497680664088
 41
0.9333333333333294
  7
FX_VECTOR
 72
     5
 11
314.9284988323934
 21
130.511625937405
 31
0.0
100
AcDbText
  0
ENDBLK
  5
371
330
36F
100
AcDbEntity
  8
0
100
AcDbBlockEnd
  0
BLOCK
  5
383
330
382
100
AcDbEntity
  8
0
100
AcDbBlockBegin
  2
BLKF027
 70
     0
 10
0.0
 20
0.0
 30
0.0
  3
BLKF027
  1

  0
TEXT
  5
386
330
382
100
AcDbEntity
  8
基準ﾚｲﾔｸﾞﾙｰﾌﾟ
  6
Continuous
 62
     7
370
    25
100
AcDbText
 10
426.5372771807955
 20
112.8924550743913
 30
0.0
 40
6.0
  1
０
 50
271.705505371094
 41
0.9333333333333333
  7
FX_VECTOR
 72
     5
 11
426.6563263348295
 21
108.894227054515
 31
0.0
100
AcDbText
  0
TEXT
  5
387
330
382
100
AcDbEntity
  8
基準ﾚｲﾔｸﾞﾙｰﾌﾟ
  6
Continuous
 62
     7
370
    25
100
AcDbText
 10
426.1805238937083
 20
116.8776814333837
 30
0.0
 40
6.0
  1
３
 50
275.1165161132814
 41
0.933333333333334
  7
FX_VECTOR
 72
     5
 11
426.5372495437917
 21
112.8936198361475
 31
0.0
100
AcDbText
  0
TEXT
  5
388
330
382
100
AcDbEntity
  8
基準ﾚｲﾔｸﾞﾙｰﾌﾟ
  6
Continuous
 62
     7
370
    25
100
AcDbText
 10
425.5872199601841
 20
120.8346094437404
 30
0.0
 40
6.0
  1
１
 50
278.5275268554693
 41
0.9333333333333319
  7
FX_VECTOR
 72
     5
 11
426.1803581648159
 21
116.8788304976659
 31
0.0
100
AcDbText
  0
TEXT
  5
389
330
382
100
AcDbEntity
  8
基準ﾚｲﾔｸﾞﾙｰﾌﾟ
  6
Continuous
 62
     7
370
    25
100
AcDbText
 10
426.6563263348295
 20
108.8930043907975
 30
0.0
 40
6.0
  1
Ｘ
 50
268.294494628906
 41
0.9333333333333333
  7
FX_VECTOR
 72
     5
 11
426.5372771807955
 21
104.8947763709212
 31
0.0
100
AcDbText
  0
TEXT
  5
38A
330
382
100
AcDbEntity
  8
基準ﾚｲﾔｸﾞﾙｰﾌﾟ
  6
Continuous
 62
     7
370
    25
100
AcDbText
 10
426.5372495437917
 20
104.893611609165
 30
0.0
 40
6.0
  1
３
 50
264.8834838867186
 41
0.933333333333334
  7
FX_VECTOR
 72
     5
 11
426.1805238937083
 21
100.9095500119288
 31
0.0
100
AcDbText
  0
TEXT
  5
38B
330
382
100
AcDbEntity
  8
基準ﾚｲﾔｸﾞﾙｰﾌﾟ
  6
Continuous
 62
     7
370
    25
100
AcDbText
 10
426.1803581648159
 20
100.9084009476466
 30
0.0
 40
6.0
  1
８
 50
261.4724731445307
 41
0.9333333333333319
  7
FX_VECTOR
 72
     5
 11
425.5872199601841
 21
96.95262200157214
 31
0.0
100
AcDbText
  0
ENDBLK
  5
384
330
382
100
AcDbEntity
  8
0
100
AcDbBlockEnd
  0
ENDSEC
  0
SECTION
  2
ENTITIES
  0
INSERT
  5
E5
330
1F
100
AcDbEntity
  8
図面枠ﾚｲﾔ
  6
Continuous
 62
     7
370
    50
100
AcDbBlockReference
  2
BLKF023
 10
0.0
 20
0.0
 30
0.0
  0
TEXT
  5
110
330
1F
100
AcDbEntity
  8
図面枠ﾚｲﾔ
  6
Continuous
 62
     7
370
    25
100
AcDbText
 10
329.0
 20
12.0
 30
0.0
 40
6.0
  1
ＷＪ－１３０　Ｎ　ＷＳＲ
 41
0.7887323943661974
  7
FX_VECTOR
 72
     5
 11
377.0
 21
12.0
 31
0.0
100
AcDbText
  0
TEXT
  5
111
330
1F
100
AcDbEntity
  8
図面枠ﾚｲﾔ
  6
Continuous
 62
     7
370
    25
100
AcDbText
 10
428.9999694824219
 20
12.0
 30
0.0
 40
6.0
  1
Ｗ３６Ａ２ＵＡＡ－Ｃ０１
 41
0.7887323943661974
  7
FX_VECTOR
 72
     5
 11
476.9999694824219
 21
12.0
 31
0.0
100
AcDbText
  0
LINE
  5
112
330
1F
100
AcDbEntity
  8
GR1
  6
Continuous
 62
     3
370
    50
100
AcDbLine
 10
195.3322458215986
 20
121.8918059360651
 30
0.0
 11
198.3322458215986
 21
121.8918059360651
 31
0.0
  0
LINE
  5
113
330
1F
100
AcDbEntity
  8
GR1
  6
Continuous
 62
     3
370
    50
100
AcDbLine
 10
198.3322458215986
 20
121.8918059360651
 30
0.0
 11
199.8322458215986
 21
118.8918059360651
 31
0.0
  0
LINE
  5
114
330
1F
100
AcDbEntity
  8
GR1
  6
Continuous
 62
     3
370
    50
100
AcDbLine
 10
199.8322458215986
 20
118.8918059360651
 30
0.0
 11
199.8322458215986
 21
98.89180593606511
 31
0.0
  0
LINE
  5
115
330
1F
100
AcDbEntity
  8
GR1
  6
Continuous
 62
     3
370
    50
100
AcDbLine
 10
199.8322458215986
 20
98.89180593606511
 30
0.0
 11
198.3322458215986
 21
95.89180593606511
 31
0.0
  0
LINE
  5
116
330
1F
100
AcDbEntity
  8
GR1
  6
Continuous
 62
     3
370
    50
100
AcDbLine
 10
198.3322458215986
 20
95.89180593606511
 30
0.0
 11
195.3322458215986
 21
95.89180593606511
 31
0.0
  0
LINE
  5
117
330
1F
100
AcDbEntity
  8
GR1
  6
Continuous
 62
     3
370
    50
100
AcDbLine
 10
192.1322458215986
 20
185.3936147443518
 30
0.0
 11
188.6822458215985
 21
185.3936147443518
 31
0.0
  0
LINE
  5
118
330
1F
100
AcDbEntity
  8
GR1
  6
Continuous
 62
     3
370
    50
100
AcDbLine
 10
182.6322458215986
 20
174.2936147443519
 30
0.0
 11
192.1322458215986
 21
174.2936147443519
 31
0.0
  0
LINE
  5
119
330
1F
100
AcDbEntity
  8
GR1
  6
Continuous
 62
     3
370
    50
100
AcDbLine
 10
195.3322458215986
 20
176.6201120524555
 30
0.0
 11
198.5969886996185
 21
176.6201120524555
 31
0.0
  0
ARC
  5
11A
330
1F
100
AcDbEntity
  8
GR1
  6
Continuous
 62
     3
370
    50
100
AcDbCircle
 10
197.5478793120373
 20
178.0634877254296
 30
0.0
 40
1.784366509561449
100
AcDbArc
 50
306.011315179096
 51
53.98868482090659
  0
ARC
  5
11B
330
1F
100
AcDbEntity
  8
GR1
  6
Continuous
 62
     3
370
    50
100
AcDbCircle
 10
193.297665466322
 20
182.3936147443518
 30
0.0
 40
6.0345803552766
100
AcDbArc
 50
331.4211192439801
 51
28.57888075602055
  0
ARC
  5
11C
330
1F
100
AcDbEntity
  8
GR1
  6
Continuous
 62
     3
370
    50
100
AcDbCircle
 10
197.5478793120373
 20
186.723741763274
 30
0.0
 40
1.784366509561449
100
AcDbArc
 50
306.0113151790934
 51
53.98868482090406
  0
LINE
  5
11D
330
1F
100
AcDbEntity
  8
GR1
  6
Continuous
 62
     3
370
    50
100
AcDbLine
 10
195.3322458215986
 20
88.86361474435182
 30
0.0
 11
192.1322458215986
 21
88.86361474435182
 31
0.0
  0
LINE
  5
11E
330
1F
100
AcDbEntity
  8
GR1
  6
Continuous
 62
     3
370
    50
100
AcDbLine
 10
130.8822458215986
 20
137.9126970072468
 30
0.0
 11
130.8822458215986
 21
177.8743565039952
 31
0.0
  0
LINE
  5
11F
330
1F
100
AcDbEntity
  8
GR1
  6
Continuous
 62
     3
370
    50
100
AcDbLine
 10
130.8322458215986
 20
178.1436147443519
 30
0.0
 11
130.8322458215986
 21
186.6436147443519
 31
0.0
  0
LINE
  5
120
330
1F
100
AcDbEntity
  8
GR1
  6
Continuous
 62
     3
370
    50
100
AcDbLine
 10
130.8822458215986
 20
186.9128729847085
 30
0.0
 11
130.8822458215986
 21
194.5636147443519
 31
0.0
  0
LINE
  5
121
330
1F
100
AcDbEntity
  8
GR1
  6
Continuous
 62
     3
370
    50
100
AcDbLine
 10
135.9322458215986
 20
192.4636147443518
 30
0.0
 11
135.9322458215986
 21
88.86361474435182
 31
0.0
  0
LINE
  5
122
330
1F
100
AcDbEntity
  8
GR1
  6
Continuous
 62
     3
370
    50
100
AcDbLine
 10
135.9322458215986
 20
88.86361474435182
 30
0.0
 11
139.1322458215986
 21
88.86361474435182
 31
0.0
  0
LINE
  5
123
330
1F
100
AcDbEntity
  8
GR1
  6
Continuous
 62
     3
370
    50
100
AcDbLine
 10
139.1322458215986
 20
88.86361474435182
 30
0.0
 11
139.1322458215986
 21
188.0221251872122
 31
0.0
  0
ARC
  5
124
330
1F
100
AcDbEntity
  8
GR1
  6
Continuous
 62
     3
370
    50
100
AcDbCircle
 10
152.8996170717568
 20
352.824419568743
 30
0.0
 40
165.3763488064616
100
AcDbArc
 50
264.6681759113179
 51
269.2144289404906
  0
ARC
  5
125
330
1F
100
AcDbEntity
  8
GR1
  6
Continuous
 62
     3
370
    50
100
AcDbCircle
 10
139.9322458215986
 20
192.4636147443518
 30
0.0
 40
4.0
100
AcDbArc
 50
90.0
 51
180.0
  0
LINE
  5
126
330
1F
100
AcDbEntity
  8
GR1
  6
Continuous
 62
     3
370
    50
100
AcDbLine
 10
135.4856638342133
 20
188.1671174362482
 30
0.0
 11
135.9322458215986
 21
187.3936147443519
 31
0.0
  0
LINE
  5
127
330
1F
100
AcDbEntity
  8
GR1
  6
Continuous
 62
     3
370
    50
100
AcDbLine
 10
135.4856638342134
 20
188.1671160903
 30
0.0
 11
132.7788278089838
 21
188.1671174362481
 31
0.0
  0
ARC
  5
128
330
1F
100
AcDbEntity
  8
GR1
  6
Continuous
 62
     3
370
    50
100
AcDbCircle
 10
134.8880685700212
 20
186.7237417632741
 30
0.0
 40
2.555822748422663
100
AcDbArc
 50
145.6157525319512
 51
214.3842474680497
  0
LINE
  5
129
330
1F
100
AcDbEntity
  8
GR1
  6
Continuous
 62
     3
370
    50
100
AcDbLine
 10
132.7788278089839
 20
185.2803660903
 30
0.0
 11
135.4856638342134
 21
185.2803660903
 31
0.0
  0
ARC
  5
12A
330
1F
100
AcDbEntity
  8
GR1
  6
Continuous
 62
     3
370
    50
100
AcDbCircle
 10
133.376423073176
 20
186.7237417632741
 30
0.0
 40
2.555822748422663
100
AcDbArc
 50
325.6157525319502
 51
34.38424746804883
  0
LINE
  5
12B
330
1F
100
AcDbEntity
  8
GR1
  6
Continuous
 62
     3
370
    50
100
AcDbLine
 10
132.778826887938
 20
188.1671160903
 30
0.0
 11
132.3322458215986
 21
187.3936147443519
 31
0.0
  0
LINE
  5
12C
330
1F
100
AcDbEntity
  8
GR1
  6
Continuous
 62
     3
370
    50
100
AcDbLine
 10
132.3322458215986
 20
187.3936147443519
 30
0.0
 11
131.5822458215986
 21
187.3936147443519
 31
0.0
  0
ARC
  5
12D
330
1F
100
AcDbEntity
  8
GR1
  6
Continuous
 62
     3
370
    50
100
AcDbCircle
 10
131.5822458215986
 20
186.6436147443519
 30
0.0
 40
0.75
100
AcDbArc
 50
90.0
 51
180.0
  0
LINE
  5
12E
330
1F
100
AcDbEntity
  8
GR1
  6
Continuous
 62
     3
370
    50
100
AcDbLine
 10
130.8322458215986
 20
185.3936147443518
 30
0.0
 11
130.3322458215986
 21
184.8521147443518
 31
0.0
  0
LINE
  5
12F
330
1F
100
AcDbEntity
  8
GR1
  6
Continuous
 62
     3
370
    50
100
AcDbLine
 10
130.3322458215986
 20
184.8521147443518
 30
0.0
 11
130.3322458215986
 21
179.9351147443518
 31
0.0
  0
LINE
  5
130
330
1F
100
AcDbEntity
  8
GR1
  6
Continuous
 62
     3
370
    50
100
AcDbLine
 10
130.3322458215986
 20
179.9351147443518
 30
0.0
 11
130.8322458215986
 21
179.3936147443518
 31
0.0
  0
ARC
  5
131
330
1F
100
AcDbEntity
  8
GR1
  6
Continuous
 62
     3
370
    50
100
AcDbCircle
 10
131.5822458215986
 20
178.1436147443519
 30
0.0
 40
0.75
100
AcDbArc
 50
180.0
 51
270.0
  0
LINE
  5
132
330
1F
100
AcDbEntity
  8
GR1
  6
Continuous
 62
     3
370
    50
100
AcDbLine
 10
131.5822458215986
 20
177.3936147443519
 30
0.0
 11
132.3322458215986
 21
177.3936147443519
 31
0.0
  0
LINE
  5
133
330
1F
100
AcDbEntity
  8
GR1
  6
Continuous
 62
     3
370
    50
100
AcDbLine
 10
132.3322458215986
 20
177.3936147443519
 30
0.0
 11
132.7788278089838
 21
176.6201120524556
 31
0.0
  0
LINE
  5
134
330
1F
100
AcDbEntity
  8
GR1
  6
Continuous
 62
     3
370
    50
100
AcDbLine
 10
132.7788278089838
 20
176.6201120524556
 30
0.0
 11
135.4856638342134
 21
176.6201120524556
 31
0.0
  0
ARC
  5
135
330
1F
100
AcDbEntity
  8
GR1
  6
Continuous
 62
     3
370
    50
100
AcDbCircle
 10
133.376423073176
 20
178.0634877254296
 30
0.0
 40
2.555822748422663
100
AcDbArc
 50
325.6157525319512
 51
34.38424746804974
  0
LINE
  5
136
330
1F
100
AcDbEntity
  8
GR1
  6
Continuous
 62
     3
370
    50
100
AcDbLine
 10
135.4856638342134
 20
179.5068633984037
 30
0.0
 11
132.7788278089838
 21
179.5068633984037
 31
0.0
  0
ARC
  5
137
330
1F
100
AcDbEntity
  8
GR1
  6
Continuous
 62
     3
370
    50
100
AcDbCircle
 10
134.8880685700212
 20
178.0634877254296
 30
0.0
 40
2.555822748422663
100
AcDbArc
 50
145.6157525319503
 51
214.3842474680489
  0
LINE
  5
138
330
1F
100
AcDbEntity
  8
GR1
  6
Continuous
 62
     3
370
    50
100
AcDbLine
 10
130.4356638342134
 20
176.4068633984036
 30
0.0
 11
127.7288278089838
 21
176.4068633984036
 31
0.0
  0
ARC
  5
139
330
1F
100
AcDbEntity
  8
GR1
  6
Continuous
 62
     3
370
    50
100
AcDbCircle
 10
129.8380685700212
 20
174.9634877254297
 30
0.0
 40
2.555822748422663
100
AcDbArc
 50
145.6157525319503
 51
214.3842474680489
  0
LINE
  5
13A
330
1F
100
AcDbEntity
  8
GR1
  6
Continuous
 62
     3
370
    50
100
AcDbLine
 10
127.7288278089838
 20
173.5201120524556
 30
0.0
 11
127.2822458215986
 21
174.2936147443519
 31
0.0
  0
LINE
  5
13B
330
1F
100
AcDbEntity
  8
GR1
  6
Continuous
 62
     3
370
    50
100
AcDbLine
 10
127.2822458215986
 20
174.2936147443519
 30
0.0
 11
126.5322458215986
 21
174.2936147443519
 31
0.0
  0
LINE
  5
13C
330
1F
100
AcDbEntity
  8
GR1
  6
Continuous
 62
     3
370
    50
100
AcDbLine
 10
125.7822458215986
 20
175.0436147443519
 30
0.0
 11
125.7822458215986
 21
183.5436147443519
 31
0.0
  0
LINE
  5
13D
330
1F
100
AcDbEntity
  8
GR1
  6
Continuous
 62
     3
370
    50
100
AcDbLine
 10
126.5322458215986
 20
184.2936147443519
 30
0.0
 11
127.2822458215986
 21
184.2936147443519
 31
0.0
  0
LINE
  5
13E
330
1F
100
AcDbEntity
  8
GR1
  6
Continuous
 62
     3
370
    50
100
AcDbLine
 10
127.2822458215986
 20
184.2936147443519
 30
0.0
 11
127.728826887938
 21
185.0671160903
 31
0.0
  0
LINE
  5
13F
330
1F
100
AcDbEntity
  8
GR1
  6
Continuous
 62
     3
370
    50
100
AcDbLine
 10
127.7288278089838
 20
185.0671174362481
 30
0.0
 11
130.4356638342134
 21
185.0671160903
 31
0.0
  0
LINE
  5
140
330
1F
100
AcDbEntity
  8
GR1
  6
Continuous
 62
     3
370
    50
100
AcDbLine
 10
130.4356638342133
 20
185.0671174362482
 30
0.0
 11
130.4715549882503
 21
185.0049521339138
 31
0.0
  0
ARC
  5
141
330
1F
100
AcDbEntity
  8
GR1
  6
Continuous
 62
     3
370
    50
100
AcDbCircle
 10
128.326423073176
 20
183.6237417632741
 30
0.0
 40
2.555822748422663
100
AcDbArc
 50
32.77185395322439
 51
34.38424746804884
  0
ARC
  5
142
330
1F
100
AcDbEntity
  8
GR1
  6
Continuous
 62
     3
370
    50
100
AcDbCircle
 10
141.8856638342131
 20
182.3936147443519
 30
0.0
 40
9.553418012614543
100
AcDbArc
 50
162.4120462260053
 51
197.5879537739948
  0
ARC
  5
143
330
1F
100
AcDbEntity
  8
GR1
  6
Continuous
 62
     3
370
    50
100
AcDbCircle
 10
126.3788278089841
 20
182.3936147443518
 30
0.0
 40
9.553418012614543
100
AcDbArc
 50
342.4120462260055
 51
17.58795377399449
  0
LINE
  5
144
330
1F
100
AcDbEntity
  8
GR1
  6
Continuous
 62
     3
370
    50
100
AcDbLine
 10
148.6322458215986
 20
174.2936147443518
 30
0.0
 11
139.1322458215986
 21
174.2936147443518
 31
0.0
  0
LINE
  5
145
330
1F
100
AcDbEntity
  8
GR1
  6
Continuous
 62
     3
370
    50
100
AcDbLine
 10
135.4856638342133
 20
176.6201120524555
 30
0.0
 11
135.9322458215986
 21
177.3936147443519
 31
0.0
  0
ARC
  5
146
330
1F
100
AcDbEntity
  8
GR1
  6
Continuous
 62
     3
370
    50
100
AcDbCircle
 10
121.328827808984
 20
179.2936147443518
 30
0.0
 40
9.553418012614543
100
AcDbArc
 50
342.4120462260055
 51
354.1354750408546
  0
LINE
  5
147
330
1F
100
AcDbEntity
  8
GR1
  6
Continuous
 62
     3
370
    50
100
AcDbLine
 10
130.3322458215986
 20
182.1803660903
 30
0.0
 11
127.7288278089839
 21
182.1803660903
 31
0.0
  0
ARC
  5
148
330
1F
100
AcDbEntity
  8
GR1
  6
Continuous
 62
     3
370
    50
100
AcDbCircle
 10
136.8356638342131
 20
179.2936147443519
 30
0.0
 40
9.553418012614543
100
AcDbArc
 50
162.4120462260053
 51
197.5879537739948
  0
LINE
  5
149
330
1F
100
AcDbEntity
  8
GR1
  6
Continuous
 62
     3
370
    50
100
AcDbLine
 10
125.7822458215986
 20
176.2936147443519
 30
0.0
 11
124.1322458215986
 21
176.2936147443519
 31
0.0
  0
LINE
  5
14A
330
1F
100
AcDbEntity
  8
GR1
  6
Continuous
 62
     3
370
    50
100
AcDbLine
 10
124.1322458215986
 20
176.2936147443519
 30
0.0
 11
123.6322458215986
 21
176.8351147443519
 31
0.0
  0
LINE
  5
14B
330
1F
100
AcDbEntity
  8
GR1
  6
Continuous
 62
     3
370
    50
100
AcDbLine
 10
123.6322458215986
 20
176.8351147443518
 30
0.0
 11
123.6322458215986
 21
181.7521147443518
 31
0.0
  0
LINE
  5
14C
330
1F
100
AcDbEntity
  8
GR1
  6
Continuous
 62
     3
370
    50
100
AcDbLine
 10
123.6322458215986
 20
181.7521147443518
 30
0.0
 11
124.1322458215986
 21
182.2936147443519
 31
0.0
  0
LINE
  5
14D
330
1F
100
AcDbEntity
  8
GR1
  6
Continuous
 62
     3
370
    50
100
AcDbLine
 10
124.1322458215986
 20
182.2936147443519
 30
0.0
 11
125.7822458215986
 21
182.2936147443519
 31
0.0
  0
ARC
  5
14E
330
1F
100
AcDbEntity
  8
GR1
  6
Continuous
 62
     3
370
    50
100
AcDbCircle
 10
126.5322458215986
 20
183.5436147443519
 30
0.0
 40
0.75
100
AcDbArc
 50
90.0
 51
180.0
  0
ARC
  5
14F
330
1F
100
AcDbEntity
  8
GR1
  6
Continuous
 62
     3
370
    50
100
AcDbCircle
 10
129.8380685700212
 20
183.6237417632741
 30
0.0
 40
2.555822748422663
100
AcDbArc
 50
145.6157525319512
 51
214.3842474680497
  0
ARC
  5
150
330
1F
100
AcDbEntity
  8
GR1
  6
Continuous
 62
     3
370
    50
100
AcDbCircle
 10
126.5322458215986
 20
175.0436147443519
 30
0.0
 40
0.75
100
AcDbArc
 50
180.0
 51
270.0
  0
LINE
  5
151
330
1F
100
AcDbEntity
  8
GR1
  6
Continuous
 62
     3
370
    50
100
AcDbLine
 10
127.7288278089838
 20
173.5201120524556
 30
0.0
 11
130.4356638342134
 21
173.5201120524556
 31
0.0
  0
ARC
  5
152
330
1F
100
AcDbEntity
  8
GR1
  6
Continuous
 62
     3
370
    50
100
AcDbCircle
 10
128.326423073176
 20
174.9634877254297
 30
0.0
 40
2.555822748422663
100
AcDbArc
 50
325.6157525319512
 51
34.38424746804974
  0
LINE
  5
153
330
1F
100
AcDbEntity
  8
GR1
  6
Continuous
 62
     3
370
    50
100
AcDbLine
 10
130.8822458215986
 20
174.2936147443519
 30
0.0
 11
130.4356638342133
 21
173.5201120524555
 31
0.0
  0
LINE
  5
154
330
1F
100
AcDbEntity
  8
GR1
  6
Continuous
 62
     3
370
    50
100
AcDbLine
 10
150.1322458215986
 20
186.5436147443518
 30
0.0
 11
181.1322458215986
 21
186.5436147443518
 31
0.0
  0
LINE
  5
155
330
1F
100
AcDbEntity
  8
GR1
  6
Continuous
 62
     3
370
    50
100
AcDbLine
 10
195.3322458215986
 20
185.2803660902999
 30
0.0
 11
198.5969886996185
 21
185.2803660902999
 31
0.0
  0
LINE
  5
156
330
1F
100
AcDbEntity
  8
GR1
  6
Continuous
 62
     3
370
    50
100
AcDbLine
 10
200.3822458215986
 20
184.2936147443519
 30
0.0
 11
223.1322458215986
 21
184.2936147443519
 31
0.0
  0
LINE
  5
157
330
1F
100
AcDbEntity
  8
GR1
  6
Continuous
 62
     3
370
    50
100
AcDbLine
 10
228.1274869295078
 20
179.5117116811786
 30
0.0
 11
228.5299577335918
 21
170.2936147443519
 31
0.0
  0
LINE
  5
158
330
1F
100
AcDbEntity
  8
GR1
  6
Continuous
 62
     3
370
    50
100
AcDbLine
 10
228.5299577335918
 20
170.2936147443519
 30
0.0
 11
239.1322458215985
 21
170.2936147443519
 31
0.0
  0
LINE
  5
159
330
1F
100
AcDbEntity
  8
GR1
  6
Continuous
 62
     3
370
    50
100
AcDbLine
 10
239.1322458215985
 20
170.2936147443519
 30
0.0
 11
239.6322458215985
 21
168.7936147443519
 31
0.0
  0
LINE
  5
15A
330
1F
100
AcDbEntity
  8
GR1
  6
Continuous
 62
     3
370
    50
100
AcDbLine
 10
239.6322458215985
 20
168.7936147443519
 30
0.0
 11
263.1322458215985
 21
168.7936147443519
 31
0.0
  0
LINE
  5
15B
330
1F
100
AcDbEntity
  8
GR1
  6
Continuous
 62
     3
370
    50
100
AcDbLine
 10
263.1322458215985
 20
161.7936147443519
 30
0.0
 11
239.6322458215985
 21
161.7936147443519
 31
0.0
  0
LINE
  5
15C
330
1F
100
AcDbEntity
  8
GR1
  6
Continuous
 62
     3
370
    50
100
AcDbLine
 10
239.6322458215985
 20
161.7936147443519
 30
0.0
 11
239.1322458215985
 21
160.2936147443519
 31
0.0
  0
LINE
  5
15D
330
1F
100
AcDbEntity
  8
GR1
  6
Continuous
 62
     3
370
    50
100
AcDbLine
 10
239.1322458215985
 20
160.2936147443519
 30
0.0
 11
223.7434990223178
 21
160.2936147443519
 31
0.0
  0
LINE
  5
15E
330
1F
100
AcDbEntity
  8
GR1
  6
Continuous
 62
     3
370
    50
100
AcDbLine
 10
218.7482579144085
 20
165.0755178075252
 30
0.0
 11
218.3875435896516
 21
173.3372341317172
 31
0.0
  0
ARC
  5
15F
330
1F
100
AcDbEntity
  8
GR1
  6
Continuous
 62
     3
370
    50
100
AcDbCircle
 10
217.3884953680697
 20
173.2936147443519
 30
0.0
 40
1.0
100
AcDbArc
 50
2.500000000000171
 51
90.0
  0
LINE
  5
160
330
1F
100
AcDbEntity
  8
GR1
  6
Continuous
 62
     3
370
    50
100
AcDbLine
 10
217.3884953680697
 20
174.2936147443519
 30
0.0
 11
200.3822458215986
 21
174.2936147443519
 31
0.0
  0
LINE
  5
161
330
1F
100
AcDbEntity
  8
GR1
  6
Continuous
 62
     3
370
    50
100
AcDbLine
 10
198.5969886996185
 20
179.5068633984037
 30
0.0
 11
195.3322458215986
 21
179.5068633984037
 31
0.0
  0
ARC
  5
162
330
1F
100
AcDbEntity
  8
GR1
  6
Continuous
 62
     3
370
    50
100
AcDbCircle
 10
116.3622955644113
 20
147.4923968169022
 30
0.0
 40
84.56431096900945
100
AcDbArc
 50
344.9792982947163
 51
353.4953983271786
  0
ARC
  5
163
330
1F
100
AcDbEntity
  8
GR1
  6
Continuous
 62
     3
370
    50
100
AcDbCircle
 10
290.7367430220881
 20
100.1665956943029
 30
0.0
 40
96.11887608963927
100
AcDbArc
 50
164.6714130781337
 51
166.9368767743127
  0
ARC
  5
164
330
1F
100
AcDbEntity
  8
GR1
  6
Continuous
 62
     3
370
    50
100
AcDbCircle
 10
223.7434990223178
 20
165.2936147443519
 30
0.0
 40
5.0
100
AcDbArc
 50
182.5
 51
270.0
  0
ARC
  5
165
330
1F
100
AcDbEntity
  8
GR1
  6
Continuous
 62
     3
370
    50
100
AcDbCircle
 10
223.1322458215986
 20
179.2936147443519
 30
0.0
 40
5.0
100
AcDbArc
 50
2.500000000000398
 51
90.0
  0
ARC
  5
166
330
1F
100
AcDbEntity
  8
GR1
  6
Continuous
 62
     3
370
    50
100
AcDbCircle
 10
137.3822458215986
 20
194.5636147443519
 30
0.0
 40
6.5
100
AcDbArc
 50
90.0
 51
180.0
  0
LINE
  5
167
330
1F
100
AcDbEntity
  8
GR1
  6
Continuous
 62
     3
370
    50
100
AcDbLine
 10
149.6727582455976
 20
175.8543833803504
 30
0.0
 11
148.6322458215986
 21
174.2936147443519
 31
0.0
  0
ARC
  5
168
330
1F
100
AcDbEntity
  8
GR1
  6
Continuous
 62
     3
370
    50
100
AcDbCircle
 10
214.9021960787858
 20
147.4923968169022
 30
0.0
 40
84.56431096900945
100
AcDbArc
 50
186.5046016728214
 51
195.0207017052837
  0
LINE
  5
169
330
1F
100
AcDbEntity
  8
GR1
  6
Continuous
 62
     3
370
    50
100
AcDbLine
 10
131.4497654493511
 20
121.5953206665233
 30
0.0
 11
125.4147261938458
 21
121.5953206665234
 31
0.0
  0
LINE
  5
16A
330
1F
100
AcDbEntity
  8
GR1
  6
Continuous
 62
     3
370
    50
100
AcDbLine
 10
125.4147261938459
 20
121.5953206665234
 30
0.0
 11
124.4322458215984
 21
119.8936147443518
 31
0.0
  0
LINE
  5
16B
330
1F
100
AcDbEntity
  8
GR1
  6
Continuous
 62
     3
370
    50
100
AcDbLine
 10
124.4322458215984
 20
119.8936147443519
 30
0.0
 11
124.4322458215984
 21
97.89361474435168
 31
0.0
  0
LINE
  5
16C
330
1F
100
AcDbEntity
  8
GR1
  6
Continuous
 62
     3
370
    50
100
AcDbLine
 10
124.4322458215984
 20
97.8936147443518
 30
0.0
 11
125.4147261938459
 21
96.19190882218027
 31
0.0
  0
LINE
  5
16D
330
1F
100
AcDbEntity
  8
GR1
  6
Continuous
 62
     3
370
    50
100
AcDbLine
 10
125.4147261938458
 20
96.19190882218027
 30
0.0
 11
131.4497654493511
 21
96.19190882218027
 31
0.0
  0
LINE
  5
16E
330
1F
100
AcDbEntity
  8
GR1
  6
Continuous
 62
     3
370
    50
100
AcDbLine
 10
131.449765449351
 20
96.19190882218027
 30
0.0
 11
132.4322458215985
 21
97.8936147443518
 31
0.0
  0
ARC
  5
16F
330
1F
100
AcDbEntity
  8
GR1
  6
Continuous
 62
     3
370
    50
100
AcDbCircle
 10
132.9322458215985
 20
97.3936147443518
 30
0.0
 40
0.5
100
AcDbArc
 50
180.0
 51
270.0
  0
LINE
  5
170
330
1F
100
AcDbEntity
  8
GR1
  6
Continuous
 62
     3
370
    50
100
AcDbLine
 10
132.9322458215985
 20
96.8936147443518
 30
0.0
 11
135.4322458215986
 21
96.8936147443518
 31
0.0
  0
ARC
  5
171
330
1F
100
AcDbEntity
  8
GR1
  6
Continuous
 62
     3
370
    50
100
AcDbCircle
 10
135.4322458215986
 20
97.3936147443518
 30
0.0
 40
0.5
100
AcDbArc
 50
270.0
 51
0.0
  0
LINE
  5
172
330
1F
100
AcDbEntity
  8
GR1
  6
Continuous
 62
     3
370
    50
100
AcDbLine
 10
132.4322458215985
 20
97.3936147443518
 30
0.0
 11
132.4322458215986
 21
120.3936147443518
 31
0.0
  0
LINE
  5
173
330
1F
100
AcDbEntity
  8
GR1
  6
Continuous
 62
     3
370
    50
100
AcDbLine
 10
132.4322458215985
 20
119.8936147443518
 30
0.0
 11
131.449765449351
 21
121.5953206665233
 31
0.0
  0
LINE
  5
174
330
1F
100
AcDbEntity
  8
GR1
  6
Continuous
 62
     3
370
    50
100
AcDbLine
 10
132.9322458215985
 20
120.8936147443518
 30
0.0
 11
135.4322458215985
 21
120.8936147443518
 31
0.0
  0
ARC
  5
175
330
1F
100
AcDbEntity
  8
GR1
  6
Continuous
 62
     3
370
    50
100
AcDbCircle
 10
135.4322458215985
 20
120.3936147443518
 30
0.0
 40
0.5
100
AcDbArc
 50
0.0
 51
90.0
  0
ARC
  5
176
330
1F
100
AcDbEntity
  8
GR1
  6
Continuous
 62
     3
370
    50
100
AcDbCircle
 10
40.52774862110903
 20
100.1665956943029
 30
0.0
 40
96.11887608963927
100
AcDbArc
 50
12.45304358348033
 51
15.32858692186627
  0
ARC
  5
177
330
1F
100
AcDbEntity
  8
GR1
  6
Continuous
 62
     3
370
    50
100
AcDbCircle
 10
132.9322458215985
 20
120.3936147443518
 30
0.0
 40
0.5
100
AcDbArc
 50
90.0
 51
180.0
  0
ARC
  5
178
330
1F
100
AcDbEntity
  8
GR1
  6
Continuous
 62
     3
370
    50
100
AcDbCircle
 10
126.8094357750692
 20
118.4198941859804
 30
0.0
 40
5.622810046529507
100
AcDbArc
 50
325.6157525319492
 51
34.38424746805187
  0
ARC
  5
179
330
1F
100
AcDbEntity
  8
GR1
  6
Continuous
 62
     3
370
    50
100
AcDbCircle
 10
130.0550558681276
 20
118.4198941859804
 30
0.0
 40
5.622810046529507
100
AcDbArc
 50
145.6157525319481
 51
214.3842474680508
  0
ARC
  5
17A
330
1F
100
AcDbEntity
  8
GR1
  6
Continuous
 62
     3
370
    50
100
AcDbCircle
 10
145.4497654493531
 20
108.8936147443518
 30
0.0
 40
21.01751962775467
100
AcDbArc
 50
162.4120462260082
 51
197.5879537739922
  0
LINE
  5
17B
330
1F
100
AcDbEntity
  8
GR1
  6
Continuous
 62
     3
370
    50
100
AcDbLine
 10
125.4147261938458
 20
102.5427617832659
 30
0.0
 11
131.4497654493511
 21
102.5427617832659
 31
0.0
  0
ARC
  5
17C
330
1F
100
AcDbEntity
  8
GR1
  6
Continuous
 62
     3
370
    50
100
AcDbCircle
 10
111.4147261938439
 20
108.8936147443518
 30
0.0
 40
21.01751962775467
100
AcDbArc
 50
342.4120462260076
 51
17.5879537739918
  0
LINE
  5
17D
330
1F
100
AcDbEntity
  8
GR1
  6
Continuous
 62
     3
370
    50
100
AcDbLine
 10
131.4497654493511
 20
115.2444677054375
 30
0.0
 11
125.4147261938458
 21
115.2444677054376
 31
0.0
  0
LINE
  5
17E
330
1F
100
AcDbEntity
  8
GR1
  6
Continuous
 62
     3
370
    50
100
AcDbLine
 10
124.4322458215984
 20
115.8899971277784
 30
0.0
 11
123.6322458215986
 21
115.8899971277784
 31
0.0
  0
LINE
  5
17F
330
1F
100
AcDbEntity
  8
GR1
  6
Continuous
 62
     3
370
    50
100
AcDbLine
 10
123.6322458215986
 20
115.8899971277784
 30
0.0
 11
122.6322458215986
 21
114.8899971277784
 31
0.0
  0
LINE
  5
180
330
1F
100
AcDbEntity
  8
GR1
  6
Continuous
 62
     3
370
    50
100
AcDbLine
 10
122.6322458215986
 20
114.8899971277784
 30
0.0
 11
122.6322458215986
 21
102.8899971277784
 31
0.0
  0
LINE
  5
181
330
1F
100
AcDbEntity
  8
GR1
  6
Continuous
 62
     3
370
    50
100
AcDbLine
 10
122.6322458215986
 20
102.8899971277784
 30
0.0
 11
123.6322458215986
 21
101.8899971277784
 31
0.0
  0
LINE
  5
182
330
1F
100
AcDbEntity
  8
GR1
  6
Continuous
 62
     3
370
    50
100
AcDbLine
 10
123.6322458215986
 20
101.8899971277784
 30
0.0
 11
124.4322458215984
 21
101.8899971277784
 31
0.0
  0
ARC
  5
183
330
1F
100
AcDbEntity
  8
GR1
  6
Continuous
 62
     3
370
    50
100
AcDbCircle
 10
130.0550558681276
 20
99.36733530272318
 30
0.0
 40
5.622810046529507
100
AcDbArc
 50
145.6157525319492
 51
214.3842474680519
  0
ARC
  5
184
330
1F
100
AcDbEntity
  8
GR1
  6
Continuous
 62
     3
370
    50
100
AcDbCircle
 10
126.8094357750692
 20
99.36733530272329
 30
0.0
 40
5.622810046529507
100
AcDbArc
 50
325.6157525319481
 51
34.38424746805076
  0
LINE
  5
185
330
1F
100
AcDbEntity
  8
GR1
  6
Continuous
 62
     3
370
    50
100
AcDbLine
 10
322.4068864894979
 20
237.6636147443519
 30
0.0
 11
322.4068864894979
 21
252.0769629255135
 31
0.0
  0
ARC
  5
186
330
1F
100
AcDbEntity
  8
GR1
  6
Continuous
 62
     3
370
    50
100
AcDbCircle
 10
318.0068864894979
 20
259.4958577219101
 30
0.0
 40
6.0
100
AcDbArc
 50
335.6593532713982
 51
0.0
  0
LINE
  5
187
330
1F
100
AcDbEntity
  8
GR1
  6
Continuous
 62
     3
370
    50
100
AcDbLine
 10
324.0068864894979
 20
259.4958577219101
 30
0.0
 11
324.0068864894979
 21
260.4968692039602
 31
0.0
  0
ARC
  5
188
330
1F
100
AcDbEntity
  8
GR1
  6
Continuous
 62
     3
370
    50
100
AcDbCircle
 10
334.4068864894979
 20
252.0769629255135
 30
0.0
 40
12.0
100
AcDbArc
 50
155.6593532713982
 51
180.0
  0
LINE
  5
189
330
1F
100
AcDbEntity
  8
GR1
  6
Continuous
 62
     3
370
    50
100
AcDbLine
 10
335.6068864894979
 20
252.0769629255135
 30
0.0
 11
335.6068864894979
 21
237.6636147443519
 31
0.0
  0
ARC
  5
18A
330
1F
100
AcDbEntity
  8
GR1
  6
Continuous
 62
     3
370
    50
100
AcDbCircle
 10
329.006886489498
 20
237.6636147443519
 30
0.0
 40
6.6
100
AcDbArc
 50
179.9999999999998
 51
359.9999999999998
  0
ARC
  5
18B
330
1F
100
AcDbEntity
  8
GR1
  6
Continuous
 62
     3
370
    50
100
AcDbCircle
 10
323.6068864894979
 20
252.0769629255135
 30
0.0
 40
12.0
100
AcDbArc
 50
0.0
 51
24.34064672860181
  0
LINE
  5
18C
330
1F
100
AcDbEntity
  8
GR1
  6
Continuous
 62
     3
370
    50
100
AcDbLine
 10
334.0068864894979
 20
259.4958577219101
 30
0.0
 11
334.0068864894979
 21
260.4968692039602
 31
0.0
  0
ARC
  5
18D
330
1F
100
AcDbEntity
  8
GR1
  6
Continuous
 62
     3
370
    50
100
AcDbCircle
 10
340.0068864894979
 20
259.4958577219101
 30
0.0
 40
6.0
100
AcDbArc
 50
180.0000000000002
 51
204.3406467286019
  0
ARC
  5
18E
330
1F
100
AcDbEntity
  8
GR1
  6
Continuous
 62
     3
370
    50
100
AcDbCircle
 10
340.0068864894979
 20
260.4968692039602
 30
0.0
 40
6.0
100
AcDbArc
 50
92.49999999999937
 51
180.0
  0
LINE
  5
18F
330
1F
100
AcDbEntity
  8
GR1
  6
Continuous
 62
     3
370
    50
100
AcDbLine
 10
339.7451701653059
 20
266.4911585334513
 30
0.0
 11
399.7047966873431
 21
269.1090523638451
 31
0.0
  0
ARC
  5
190
330
1F
100
AcDbEntity
  8
GR1
  6
Continuous
 62
     3
370
    50
100
AcDbCircle
 10
399.0068864894979
 20
285.0938239091548
 30
0.0
 40
16.0
100
AcDbArc
 50
272.4999999999994
 51
333.935155704879
  0
LINE
  5
191
330
1F
100
AcDbEntity
  8
GR1
  6
Continuous
 62
     3
370
    50
100
AcDbLine
 10
444.617799192972
 20
288.6745274478259
 30
0.0
 11
446.117799192972
 21
287.1745274478259
 31
0.0
  0
ARC
  5
192
330
1F
100
AcDbEntity
  8
GR1
  6
Continuous
 62
     3
370
    50
100
AcDbCircle
 10
450.006886489498
 20
291.0636147443519
 30
0.0
 40
5.5
100
AcDbArc
 50
224.999999999999
 51
45.00000000000127
  0
LINE
  5
193
330
1F
100
AcDbEntity
  8
GR1
  6
Continuous
 62
     3
370
    50
100
AcDbLine
 10
453.8959737860239
 20
294.9527020408779
 30
0.0
 11
452.3959737860239
 21
296.4527020408779
 31
0.0
  0
ARC
  5
194
330
1F
100
AcDbEntity
  8
GR1
  6
Continuous
 62
     3
370
    50
100
AcDbCircle
 10
448.506886489498
 20
292.5636147443519
 30
0.0
 40
5.5
100
AcDbArc
 50
45.00000000000126
 51
224.9999999999987
  0
ARC
  5
195
330
1F
100
AcDbEntity
  8
GR1
  6
Continuous
 62
     3
370
    50
100
AcDbCircle
 10
449.006886489498
 20
292.0636147443519
 30
0.0
 40
14.0
100
AcDbArc
 50
270.0
 51
0.0
  0
LINE
  5
196
330
1F
100
AcDbEntity
  8
GR1
  6
Continuous
 62
     3
370
    50
100
AcDbLine
 10
463.006886489498
 20
292.0636147443519
 30
0.0
 11
463.006886489498
 21
372.0636147443519
 31
0.0
  0
ARC
  5
197
330
1F
100
AcDbEntity
  8
GR1
  6
Continuous
 62
     3
370
    50
100
AcDbCircle
 10
449.006886489498
 20
372.0636147443519
 30
0.0
 40
14.0
100
AcDbArc
 50
0.0
 51
90.0
  0
LINE
  5
198
330
1F
100
AcDbEntity
  8
GR1
  6
Continuous
 62
     3
370
    50
100
AcDbLine
 10
449.006886489498
 20
386.0636147443519
 30
0.0
 11
369.006886489498
 21
386.0636147443519
 31
0.0
  0
ARC
  5
199
330
1F
100
AcDbEntity
  8
GR1
  6
Continuous
 62
     3
370
    50
100
AcDbCircle
 10
369.006886489498
 20
372.0636147443519
 30
0.0
 40
14.0
100
AcDbArc
 50
90.0
 51
180.0
  0
LINE
  5
19A
330
1F
100
AcDbEntity
  8
GR1
  6
Continuous
 62
     3
370
    50
100
AcDbLine
 10
355.006886489498
 20
372.0636147443519
 30
0.0
 11
355.006886489498
 21
292.0636147443519
 31
0.0
  0
ARC
  5
19B
330
1F
100
AcDbEntity
  8
GR1
  6
Continuous
 62
     3
370
    50
100
AcDbCircle
 10
369.006886489498
 20
292.0636147443519
 30
0.0
 40
14.0
100
AcDbArc
 50
180.0
 51
270.0
  0
LINE
  5
19C
330
1F
100
AcDbEntity
  8
GR1
  6
Continuous
 62
     3
370
    50
100
AcDbLine
 10
369.006886489498
 20
278.0636147443519
 30
0.0
 11
449.006886489498
 21
278.0636147443519
 31
0.0
  0
CIRCLE
  5
19D
330
1F
100
AcDbEntity
  8
GR1
  6
Continuous
 62
     3
370
    50
100
AcDbCircle
 10
409.0068864894979
 20
332.0636147443518
 30
0.0
 40
20.2
  0
CIRCLE
  5
19E
330
1F
100
AcDbEntity
  8
GR1
  6
Continuous
 62
     3
370
    50
100
AcDbCircle
 10
409.006886489498
 20
332.0636147443519
 30
0.0
 40
12.9
  0
LINE
  5
19F
330
1F
100
AcDbEntity
  8
GR1
  6
Continuous
 62
     3
370
    50
100
AcDbLine
 10
452.3959737860239
 20
367.6745274478259
 30
0.0
 11
453.8959737860239
 21
369.1745274478259
 31
0.0
  0
ARC
  5
1A0
330
1F
100
AcDbEntity
  8
GR1
  6
Continuous
 62
     3
370
    50
100
AcDbCircle
 10
450.006886489498
 20
373.0636147443519
 30
0.0
 40
5.5
100
AcDbArc
 50
314.9999999999989
 51
135.0000000000008
  0
LINE
  5
1A1
330
1F
100
AcDbEntity
  8
GR1
  6
Continuous
 62
     3
370
    50
100
AcDbLine
 10
446.117799192972
 20
376.9527020408779
 30
0.0
 11
444.617799192972
 21
375.4527020408779
 31
0.0
  0
ARC
  5
1A2
330
1F
100
AcDbEntity
  8
GR1
  6
Continuous
 62
     3
370
    50
100
AcDbCircle
 10
448.506886489498
 20
371.5636147443519
 30
0.0
 40
5.5
100
AcDbArc
 50
135.0000000000008
 51
314.9999999999989
  0
LINE
  5
1A3
330
1F
100
AcDbEntity
  8
GR1
  6
Continuous
 62
     3
370
    50
100
AcDbLine
 10
346.9335679195536
 20
116.7574836079197
 30
0.0
 11
358.1296503924367
 21
165.2530447257087
 31
0.0
  0
LINE
  5
1A4
330
1F
100
AcDbEntity
  8
GR1
  6
Continuous
 62
     3
370
    50
100
AcDbLine
 10
420.9348860703012
 20
165.1636147443518
 30
0.0
 11
390.7107066006855
 21
103.1948634692166
 31
0.0
  0
CIRCLE
  5
1A5
330
1F
100
AcDbEntity
  8
GR1
  6
Continuous
 62
     3
370
    50
100
AcDbCircle
 10
369.006886489498
 20
108.8936147443519
 30
0.0
 40
13.0
  0
ARC
  5
1A6
330
1F
100
AcDbEntity
  8
GR1
  6
Continuous
 62
     3
370
    50
100
AcDbCircle
 10
369.4068864894979
 20
111.8636147443518
 30
0.0
 40
23.0
100
AcDbArc
 50
166.2851359280893
 51
337.8580688848158
  0
LINE
  5
1A7
330
1F
100
AcDbEntity
  8
GR1
  6
Continuous
 62
     3
370
    50
100
AcDbLine
 10
411.7568864894979
 20
171.3849170007279
 30
0.0
 11
411.7568864894979
 21
174.3969321938896
 31
0.0
  0
ARC
  5
1A8
330
1F
100
AcDbEntity
  8
GR1
  6
Continuous
 62
     3
370
    50
100
AcDbCircle
 10
410.0068864894979
 20
179.2936147443518
 30
0.0
 40
5.2
100
AcDbArc
 50
289.6661181791076
 51
323.0739737919554
  0
LINE
  5
1A9
330
1F
100
AcDbEntity
  8
GR1
  6
Continuous
 62
     3
370
    50
100
AcDbLine
 10
413.0251257638023
 20
175.3073593984105
 30
0.0
 11
416.5068864894978
 21
177.9436147443519
 31
0.0
  0
LINE
  5
1AA
330
1F
100
AcDbEntity
  8
GR1
  6
Continuous
 62
     3
370
    50
100
AcDbLine
 10
416.5068864894978
 20
177.9436147443519
 30
0.0
 11
417.2030390704693
 21
177.9436147443519
 31
0.0
  0
ARC
  5
1AB
330
1F
100
AcDbEntity
  8
GR1
  6
Continuous
 62
     3
370
    50
100
AcDbCircle
 10
411.3568864894978
 20
179.2936147443519
 30
0.0
 40
6.0
100
AcDbArc
 50
346.9971218370848
 51
13.00287816291258
  0
LINE
  5
1AC
330
1F
100
AcDbEntity
  8
GR1
  6
Continuous
 62
     3
370
    50
100
AcDbLine
 10
417.2030390704693
 20
180.6436147443518
 30
0.0
 11
416.5068864894978
 21
180.6436147443518
 31
0.0
  0
LINE
  5
1AD
330
1F
100
AcDbEntity
  8
GR1
  6
Continuous
 62
     3
370
    50
100
AcDbLine
 10
416.5068864894978
 20
180.6436147443518
 30
0.0
 11
413.0251257638023
 21
183.2798700902932
 31
0.0
  0
LINE
  5
1AE
330
1F
100
AcDbEntity
  8
GR1
  6
Continuous
 62
     3
370
    50
100
AcDbLine
 10
414.6578755340613
 20
182.0436147443518
 30
0.0
 11
416.5688382016916
 21
182.0436147443518
 31
0.0
  0
LINE
  5
1AF
330
1F
100
AcDbEntity
  8
GR1
  6
Continuous
 62
     3
370
    50
100
AcDbLine
 10
417.0380153636471
 20
181.2936147443518
 30
0.0
 11
417.8637407389903
 21
181.2936147443518
 31
0.0
  0
LINE
  5
1B0
330
1F
100
AcDbEntity
  8
GR1
  6
Continuous
 62
     3
370
    50
100
AcDbLine
 10
417.9155842331216
 20
177.5436147443518
 30
0.0
 11
415.9785976450872
 21
177.5436147443518
 31
0.0
  0
ARC
  5
1B1
330
1F
100
AcDbEntity
  8
GR1
  6
Continuous
 62
     3
370
    50
100
AcDbCircle
 10
413.0068864894979
 20
179.2936147443518
 30
0.0
 40
4.5
100
AcDbArc
 50
337.1146195238401
 51
37.66988696433004
  0
ARC
  5
1B2
330
1F
100
AcDbEntity
  8
GR1
  6
Continuous
 62
     3
370
    50
100
AcDbCircle
 10
410.0068864894979
 20
179.2936147443518
 30
0.0
 40
8.1
100
AcDbArc
 50
347.5229004440764
 51
102.4770995559234
  0
LINE
  5
1B3
330
1F
100
AcDbEntity
  8
GR1
  6
Continuous
 62
     3
370
    50
100
AcDbLine
 10
408.2568864894979
 20
187.2023124879756
 30
0.0
 11
408.2568864894979
 21
184.1902972948139
 31
0.0
  0
ARC
  5
1B4
330
1F
100
AcDbEntity
  8
GR1
  6
Continuous
 62
     3
370
    50
100
AcDbCircle
 10
410.0068864894979
 20
179.2936147443518
 30
0.0
 40
5.2
100
AcDbArc
 50
109.6661181791073
 51
115.748461365523
  0
LINE
  5
1B5
330
1F
100
AcDbEntity
  8
GR1
  6
Continuous
 62
     3
370
    50
100
AcDbLine
 10
409.1553150634038
 20
184.2205637096101
 30
0.0
 11
328.1553150634038
 21
170.2205637096101
 31
0.0
  0
LINE
  5
1B6
330
1F
100
AcDbEntity
  8
GR1
  6
Continuous
 62
     3
370
    50
100
AcDbLine
 10
324.0784593647517
 20
168.7936147443518
 30
0.0
 11
333.935313614244
 21
168.7936147443518
 31
0.0
  0
ARC
  5
1B7
330
1F
100
AcDbEntity
  8
GR1
  6
Continuous
 62
     3
370
    50
100
AcDbCircle
 10
329.0068864894978
 20
165.2936147443518
 30
0.0
 40
5.0
100
AcDbArc
 50
44.42700400080575
 51
135.5729959991946
  0
ARC
  5
1B8
330
1F
100
AcDbEntity
  8
GR1
  6
Continuous
 62
     3
370
    50
100
AcDbCircle
 10
326.9068864894979
 20
165.2936147443519
 30
0.0
 40
4.5
100
AcDbArc
 50
128.9424412689822
 51
231.0575587310191
  0
LINE
  5
1B9
330
1F
100
AcDbEntity
  8
GR1
  6
Continuous
 62
     3
370
    50
100
AcDbLine
 10
324.0784593647517
 20
161.7936147443518
 30
0.0
 11
333.935313614244
 21
161.7936147443518
 31
0.0
  0
ARC
  5
1BA
330
1F
100
AcDbEntity
  8
GR1
  6
Continuous
 62
     3
370
    50
100
AcDbCircle
 10
331.1068864894978
 20
165.2936147443519
 30
0.0
 40
4.5
100
AcDbArc
 50
308.9424412689808
 51
51.05755873101776
  0
LINE
  5
1BB
330
1F
100
AcDbEntity
  8
GR1
  6
Continuous
 62
     3
370
    50
100
AcDbLine
 10
329.8584579155919
 20
160.3666657790935
 30
0.0
 11
410.8584579155918
 21
174.3666657790935
 31
0.0
  0
ARC
  5
1BC
330
1F
100
AcDbEntity
  8
GR1
  6
Continuous
 62
     3
370
    50
100
AcDbCircle
 10
410.0068864894978
 20
179.2936147443518
 30
0.0
 40
5.0
100
AcDbArc
 50
279.8060927598965
 51
99.80609275989718
  0
ARC
  5
1BD
330
1F
100
AcDbEntity
  8
GR1
  6
Continuous
 62
     3
370
    50
100
AcDbCircle
 10
410.0068864894979
 20
179.2936147443518
 30
0.0
 40
8.1
100
AcDbArc
 50
228.1180643061501
 51
282.4770995559232
  0
ARC
  5
1BE
330
1F
100
AcDbEntity
  8
GR1
  6
Continuous
 62
     3
370
    50
100
AcDbCircle
 10
492.7506914885959
 20
135.5355031871189
 30
0.0
 40
77.68741791516945
100
AcDbArc
 50
140.9640848897662
 51
157.5810627611254
  0
LINE
  5
1BF
330
1F
100
AcDbEntity
  8
GR1
  6
Continuous
 62
     3
370
    50
100
AcDbLine
 10
444.9068864894979
 20
191.9636147443518
 30
0.0
 11
444.9068864894979
 21
194.5636147443519
 31
0.0
  0
ARC
  5
1C0
330
1F
100
AcDbEntity
  8
GR1
  6
Continuous
 62
     3
370
    50
100
AcDbCircle
 10
438.4068864894979
 20
194.5636147443519
 30
0.0
 40
6.5
100
AcDbArc
 50
0.0
 51
90.0
  0
ARC
  5
1C1
330
1F
100
AcDbEntity
  8
GR1
  6
Continuous
 62
     3
370
    50
100
AcDbCircle
 10
444.5633033337053
 20
205.0636147443519
 30
0.0
 40
4.0
100
AcDbArc
 50
270.0
 51
354.7740725910334
  0
LINE
  5
1C2
330
1F
100
AcDbEntity
  8
GR1
  6
Continuous
 62
     3
370
    50
100
AcDbLine
 10
448.5466764685817
 20
204.6992818356742
 30
0.0
 11
449.2068864894979
 21
212.0636147443519
 31
0.0
  0
LINE
  5
1C3
330
1F
100
AcDbEntity
  8
GR1
  6
Continuous
 62
     3
370
    50
100
AcDbLine
 10
449.2068864894979
 20
212.0636147443519
 30
0.0
 11
368.806886489498
 21
212.0636147443519
 31
0.0
  0
LINE
  5
1C4
330
1F
100
AcDbEntity
  8
GR1
  6
Continuous
 62
     3
370
    50
100
AcDbLine
 10
368.8068864894979
 20
212.0636147443519
 30
0.0
 11
369.4670965104142
 21
204.6992818356742
 31
0.0
  0
ARC
  5
1C5
330
1F
100
AcDbEntity
  8
GR1
  6
Continuous
 62
     3
370
    50
100
AcDbCircle
 10
373.4504696452905
 20
205.0636147443519
 30
0.0
 40
4.0
100
AcDbArc
 50
185.2259274089668
 51
270.0
  0
LINE
  5
1C6
330
1F
100
AcDbEntity
  8
GR1
  6
Continuous
 62
     3
370
    50
100
AcDbLine
 10
373.4504696452905
 20
201.0636147443519
 30
0.0
 11
444.5633033337053
 21
201.0636147443519
 31
0.0
  0
ARC
  5
1C7
330
1F
100
AcDbEntity
  8
GR1
  6
Continuous
 62
     3
370
    50
100
AcDbCircle
 10
462.6338044852962
 20
148.2520847513546
 30
0.0
 40
47.16928530260403
100
AcDbArc
 50
112.0746846444443
 51
129.8528284197026
  0
LINE
  5
1C8
330
1F
100
AcDbEntity
  8
GR1
  6
Continuous
 62
     3
370
    50
100
AcDbLine
 10
445.9363493164492
 20
213.3886147443518
 30
0.0
 11
372.0774236625467
 21
213.3886147443518
 31
0.0
  0
ARC
  5
1C9
330
1F
100
AcDbEntity
  8
GR1
  6
Continuous
 62
     3
370
    50
100
AcDbCircle
 10
372.0774236625467
 20
225.3886147443518
 30
0.0
 40
12.0
100
AcDbArc
 50
225.0994720393112
 51
270.0
  0
LINE
  5
1CA
330
1F
100
AcDbEntity
  8
GR1
  6
Continuous
 62
     3
370
    50
100
AcDbLine
 10
376.9122408593113
 20
200.1863917991161
 30
0.0
 11
370.806886489498
 21
196.4636147443518
 31
0.0
  0
LINE
  5
1CB
330
1F
100
AcDbEntity
  8
GR1
  6
Continuous
 62
     3
370
    50
100
AcDbLine
 10
370.806886489498
 20
196.4636147443518
 30
0.0
 11
360.0068864894979
 21
196.4636147443518
 31
0.0
  0
ARC
  5
1CC
330
1F
100
AcDbEntity
  8
GR1
  6
Continuous
 62
     3
370
    50
100
AcDbCircle
 10
360.0068864894979
 20
192.9636147443518
 30
0.0
 40
3.5
100
AcDbArc
 50
90.0
 51
180.0
  0
LINE
  5
1CD
330
1F
100
AcDbEntity
  8
GR1
  6
Continuous
 62
     3
370
    50
100
AcDbLine
 10
356.5068864894979
 20
192.9636147443518
 30
0.0
 11
356.5068864894979
 21
187.4636147443518
 31
0.0
  0
LINE
  5
1CE
330
1F
100
AcDbEntity
  8
GR1
  6
Continuous
 62
     3
370
    50
100
AcDbLine
 10
361.8771802998477
 20
181.4853801078177
 30
0.0
 11
360.5699378813473
 21
175.8230911102423
 31
0.0
  0
ARC
  5
1CF
330
1F
100
AcDbEntity
  8
GR1
  6
Continuous
 62
     3
370
    50
100
AcDbCircle
 10
356.9766081504782
 20
182.4857274855636
 30
0.0
 40
5.0
100
AcDbArc
 50
347.0
 51
95.39056276407595
  0
LINE
  5
1D0
330
1F
100
AcDbEntity
  8
GR1
  6
Continuous
 62
     3
370
    50
100
AcDbLine
 10
370.306886489498
 20
185.2803660902999
 30
0.0
 11
375.306886489498
 21
188.1671174362481
 31
0.0
  0
LINE
  5
1D1
330
1F
100
AcDbEntity
  8
GR1
  6
Continuous
 62
     3
370
    50
100
AcDbLine
 10
375.306886489498
 20
188.1671174362481
 30
0.0
 11
380.306886489498
 21
185.2803660902999
 31
0.0
  0
LINE
  5
1D2
330
1F
100
AcDbEntity
  8
GR1
  6
Continuous
 62
     3
370
    50
100
AcDbLine
 10
380.306886489498
 20
185.2803660902999
 30
0.0
 11
380.306886489498
 21
179.5068633984037
 31
0.0
  0
LINE
  5
1D3
330
1F
100
AcDbEntity
  8
GR1
  6
Continuous
 62
     3
370
    50
100
AcDbLine
 10
380.306886489498
 20
179.5068633984037
 30
0.0
 11
379.6333621675789
 21
179.1180039498379
 31
0.0
  0
LINE
  5
1D4
330
1F
100
AcDbEntity
  8
GR1
  6
Continuous
 62
     3
370
    50
100
AcDbLine
 10
372.9740021511737
 20
177.9670034531754
 30
0.0
 11
370.306886489498
 21
179.5068633984037
 31
0.0
  0
LINE
  5
1D5
330
1F
100
AcDbEntity
  8
GR1
  6
Continuous
 62
     3
370
    50
100
AcDbLine
 10
370.306886489498
 20
179.5068633984037
 30
0.0
 11
370.306886489498
 21
185.2803660902999
 31
0.0
  0
ARC
  5
1D6
330
1F
100
AcDbEntity
  8
GR1
  6
Continuous
 62
     3
370
    50
100
AcDbCircle
 10
380.0358854048992
 20
195.0636147443519
 30
0.0
 40
6.0
100
AcDbArc
 50
90.0
 51
121.3730051401083
  0
LINE
  5
1D7
330
1F
100
AcDbEntity
  8
GR1
  6
Continuous
 62
     3
370
    50
100
AcDbLine
 10
355.006886489498
 20
216.8886147443518
 30
0.0
 11
463.0068864894979
 21
216.8886147443518
 31
0.0
  0
LINE
  5
1D8
330
1F
100
AcDbEntity
  8
GR1
  6
Continuous
 62
     3
370
    50
100
AcDbLine
 10
463.0068864894979
 20
216.8886147443518
 30
0.0
 11
463.0068864894979
 21
220.8886147443518
 31
0.0
  0
LINE
  5
1D9
330
1F
100
AcDbEntity
  8
GR1
  6
Continuous
 62
     3
370
    50
100
AcDbLine
 10
463.0068864894979
 20
220.8886147443518
 30
0.0
 11
355.006886489498
 21
220.8886147443518
 31
0.0
  0
LINE
  5
1DA
330
1F
100
AcDbEntity
  8
GR1
  6
Continuous
 62
     3
370
    50
100
AcDbLine
 10
355.006886489498
 20
220.8886147443518
 30
0.0
 11
355.006886489498
 21
216.8886147443518
 31
0.0
  0
ARC
  5
1DB
330
1F
100
AcDbEntity
  8
GR1
  6
Continuous
 62
     3
370
    50
100
AcDbCircle
 10
340.0068864894979
 20
260.4968692039602
 30
0.0
 40
16.0
100
AcDbArc
 50
92.49999999999949
 51
180.0
  0
LINE
  5
1DC
330
1F
100
AcDbEntity
  8
GR1
  6
Continuous
 62
     3
370
    50
100
AcDbLine
 10
339.3089762916527
 20
276.4816407492699
 30
0.0
 11
375.5421377787336
 21
278.0636147443519
 31
0.0
  0
LINE
  5
1DD
330
1F
100
AcDbEntity
  8
GR1
  6
Continuous
 62
     3
370
    50
100
AcDbLine
 10
371.895973786024
 20
287.1745274478259
 30
0.0
 11
373.395973786024
 21
288.6745274478259
 31
0.0
  0
ARC
  5
1DE
330
1F
100
AcDbEntity
  8
GR1
  6
Continuous
 62
     3
370
    50
100
AcDbCircle
 10
369.506886489498
 20
292.5636147443519
 30
0.0
 40
5.5
100
AcDbArc
 50
315.0
 51
134.9999999999999
  0
LINE
  5
1DF
330
1F
100
AcDbEntity
  8
GR1
  6
Continuous
 62
     3
370
    50
100
AcDbLine
 10
365.617799192972
 20
296.4527020408779
 30
0.0
 11
364.117799192972
 21
294.9527020408779
 31
0.0
  0
ARC
  5
1E0
330
1F
100
AcDbEntity
  8
GR1
  6
Continuous
 62
     3
370
    50
100
AcDbCircle
 10
368.006886489498
 20
291.0636147443519
 30
0.0
 40
5.5
100
AcDbArc
 50
135.0
 51
315.0
  0
LINE
  5
1E1
330
1F
100
AcDbEntity
  8
GR1
  6
Continuous
 62
     3
370
    50
100
AcDbLine
 10
355.006886489498
 20
302.3636147443519
 30
0.0
 11
346.4068864894979
 21
302.3636147443519
 31
0.0
  0
LINE
  5
1E2
330
1F
100
AcDbEntity
  8
GR1
  6
Continuous
 62
     3
370
    50
100
AcDbLine
 10
346.4068864894979
 20
302.3636147443519
 30
0.0
 11
346.4068864894979
 21
305.5636147443519
 31
0.0
  0
LINE
  5
1E3
330
1F
100
AcDbEntity
  8
GR1
  6
Continuous
 62
     3
370
    50
100
AcDbLine
 10
346.4068864894979
 20
305.5636147443519
 30
0.0
 11
355.006886489498
 21
305.5636147443519
 31
0.0
  0
LINE
  5
1E4
330
1F
100
AcDbEntity
  8
GR1
  6
Continuous
 62
     3
370
    50
100
AcDbLine
 10
346.4068864894979
 20
358.5636147443519
 30
0.0
 11
355.006886489498
 21
358.5636147443519
 31
0.0
  0
LINE
  5
1E5
330
1F
100
AcDbEntity
  8
GR1
  6
Continuous
 62
     3
370
    50
100
AcDbLine
 10
355.006886489498
 20
361.7636147443519
 30
0.0
 11
346.4068864894979
 21
361.7636147443519
 31
0.0
  0
LINE
  5
1E6
330
1F
100
AcDbEntity
  8
GR1
  6
Continuous
 62
     3
370
    50
100
AcDbLine
 10
346.4068864894979
 20
361.7636147443519
 30
0.0
 11
346.4068864894979
 21
358.5636147443519
 31
0.0
  0
LINE
  5
1E7
330
1F
100
AcDbEntity
  8
GR1
  6
Continuous
 62
     3
370
    50
100
AcDbLine
 10
364.117799192972
 20
369.1745274478259
 30
0.0
 11
365.617799192972
 21
367.6745274478259
 31
0.0
  0
ARC
  5
1E8
330
1F
100
AcDbEntity
  8
GR1
  6
Continuous
 62
     3
370
    50
100
AcDbCircle
 10
369.506886489498
 20
371.5636147443519
 30
0.0
 40
5.5
100
AcDbArc
 50
225.0
 51
45.0
  0
LINE
  5
1E9
330
1F
100
AcDbEntity
  8
GR1
  6
Continuous
 62
     3
370
    50
100
AcDbLine
 10
373.395973786024
 20
375.4527020408779
 30
0.0
 11
371.895973786024
 21
376.9527020408779
 31
0.0
  0
ARC
  5
1EA
330
1F
100
AcDbEntity
  8
GR1
  6
Continuous
 62
     3
370
    50
100
AcDbCircle
 10
368.006886489498
 20
373.0636147443519
 30
0.0
 40
5.5
100
AcDbArc
 50
45.0
 51
225.0
  0
ARC
  5
1EB
330
1F
100
AcDbEntity
  8
GR1
  6
Continuous
 62
     3
370
    50
100
AcDbCircle
 10
329.0068864894978
 20
165.2936147443518
 30
0.0
 40
5.0
100
AcDbArc
 50
224.4270040008055
 51
315.5729959991942
  0
ARC
  5
1EC
330
1F
100
AcDbEntity
  8
GR1
  6
Continuous
 62
     3
370
    50
100
AcDbCircle
 10
445.9363493164492
 20
225.3886147443518
 30
0.0
 40
12.0
100
AcDbArc
 50
270.0
 51
314.9005279606888
  0
TEXT
  5
1ED
330
1F
100
AcDbEntity
  8
GR1
  6
Continuous
 62
     7
370
    25
100
AcDbText
 10
362.6525268554688
 20
164.1203918457031
 30
0.0
 40
9.37198543548584
  1
Ｊ－１３０
 50
257.0
 41
0.8856276311740995
  7
FX_VECTOR
 72
     5
 11
354.9173409869739
 21
130.6156208732139
 31
0.0
100
AcDbText
  0
ARC
  5
1EE
330
1F
100
AcDbEntity
  8
GR1
  6
Continuous
 62
     7
370
    25
100
AcDbCircle
 10
409.0068864894979
 20
332.0636147443519
 30
0.0
 40
130.3388394492375
100
AcDbArc
 50
207.855721295051
 51
236.6323426638765
  0
LINE
  5
1EF
330
1F
100
AcDbEntity
  8
GR1
  6
Continuous
 62
     3
370
    50
100
AcDbLine
 10
132.3322458215986
 20
187.3936147443519
 30
0.0
 11
132.3322458215986
 21
177.3936147443519
 31
0.0
  0
LINE
  5
1F0
330
1F
100
AcDbEntity
  8
GR1
  6
Continuous
 62
     6
370
    25
100
AcDbLine
 10
130.8322458215986
 20
179.9351147443518
 30
0.0
 11
130.3322458215986
 21
179.9351147443518
 31
0.0
  0
LINE
  5
1F1
330
1F
100
AcDbEntity
  8
GR1
  6
DASHDOT
 62
     6
370
    25
100
AcDbLine
 10
128.6244729886514
 20
182.3936147443518
 30
0.0
 11
201.923247955408
 21
182.3936147443518
 31
0.0
  0
LINE
  5
1F2
330
1F
100
AcDbEntity
  8
GR1
  6
Continuous
 62
     6
370
    25
100
AcDbLine
 10
202.1322458215986
 20
180.6436147443519
 30
0.0
 11
204.1322458215986
 21
183.5936147443518
 31
0.0
  0
LINE
  5
1F3
330
1F
100
AcDbEntity
  8
GR1
  6
Continuous
 62
     6
370
    25
100
AcDbLine
 10
204.1322458215986
 20
183.5936147443518
 30
0.0
 11
200.3822458215986
 21
183.5936147443518
 31
0.0
  0
LINE
  5
1F4
330
1F
100
AcDbEntity
  8
GR1
  6
Continuous
 62
     6
370
    25
100
AcDbLine
 10
200.3822458215986
 20
180.6436147443519
 30
0.0
 11
202.1322458215986
 21
180.6436147443519
 31
0.0
  0
LINE
  5
1F5
330
1F
100
AcDbEntity
  8
GR1
  6
Continuous
 62
     6
370
    25
100
AcDbLine
 10
202.1322458215986
 20
177.9436147443519
 30
0.0
 11
204.1322458215986
 21
174.9936147443519
 31
0.0
  0
LINE
  5
1F6
330
1F
100
AcDbEntity
  8
GR1
  6
Continuous
 62
     6
370
    25
100
AcDbLine
 10
204.1322458215986
 20
174.9936147443519
 30
0.0
 11
200.3822458215986
 21
174.9936147443519
 31
0.0
  0
LINE
  5
1F7
330
1F
100
AcDbEntity
  8
GR1
  6
Continuous
 62
     6
370
    25
100
AcDbLine
 10
200.3822458215986
 20
177.9436147443519
 30
0.0
 11
202.1322458215986
 21
177.9436147443519
 31
0.0
  0
LINE
  5
1F8
330
1F
100
AcDbEntity
  8
GR1
  6
DASHDOT
 62
     6
370
    25
100
AcDbLine
 10
218.3457871103245
 20
179.2936147443518
 30
0.0
 11
120.3841765720169
 21
179.2936147443519
 31
0.0
  0
LINE
  5
1F9
330
1F
100
AcDbEntity
  8
GR1
  6
Continuous
 62
     6
370
    25
100
AcDbLine
 10
123.6322458215986
 20
176.8351147443519
 30
0.0
 11
125.7822458215986
 21
176.8351147443519
 31
0.0
  0
LINE
  5
1FA
330
1F
100
AcDbEntity
  8
GR1
  6
Continuous
 62
     6
370
    25
100
AcDbLine
 10
124.1322458215986
 20
176.2936147443519
 30
0.0
 11
124.1322458215986
 21
182.2936147443519
 31
0.0
  0
LINE
  5
1FB
330
1F
100
AcDbEntity
  8
GR1
  6
Continuous
 62
     6
370
    25
100
AcDbLine
 10
123.6322458215986
 20
181.7521147443518
 30
0.0
 11
125.7822458215986
 21
181.7521147443518
 31
0.0
  0
LINE
  5
1FC
330
1F
100
AcDbEntity
  8
GR1
  6
Continuous
 62
     3
370
    50
100
AcDbLine
 10
127.2822458215986
 20
184.2936147443519
 30
0.0
 11
127.2822458215986
 21
174.2936147443519
 31
0.0
  0
LINE
  5
1FD
330
1F
100
AcDbEntity
  8
GR1
  6
Continuous
 62
     6
370
    25
100
AcDbLine
 10
130.3322458215986
 20
184.8521147443518
 30
0.0
 11
130.8322458215986
 21
184.8521147443518
 31
0.0
  0
LINE
  5
1FE
330
1F
100
AcDbEntity
  8
GR1
  6
Continuous
 62
     6
370
    25
100
AcDbLine
 10
198.3322458215986
 20
121.8918059360651
 30
0.0
 11
198.3322458215986
 21
95.89180593606511
 31
0.0
  0
LINE
  5
1FF
330
1F
100
AcDbEntity
  8
GR1
  6
DASHDOT
 62
     6
370
    25
100
AcDbLine
 10
201.9740496167087
 20
108.8936147443518
 30
0.0
 11
119.2599353099498
 21
108.8936147443518
 31
0.0
  0
LINE
  5
200
330
1F
100
AcDbEntity
  8
GR1
  6
Continuous
 62
     6
370
    25
100
AcDbLine
 10
122.823863438172
 20
102.7056147443518
 30
0.0
 11
124.4322458215984
 21
102.7056147443518
 31
0.0
  0
LINE
  5
201
330
1F
100
AcDbEntity
  8
GR1
  6
Continuous
 62
     6
370
    25
100
AcDbLine
 10
123.6322458215986
 20
101.8899971277784
 30
0.0
 11
123.6322458215986
 21
115.8899971277784
 31
0.0
  0
LINE
  5
202
330
1F
100
AcDbEntity
  8
GR1
  6
Continuous
 62
     6
370
    25
100
AcDbLine
 10
124.4322458215984
 20
115.0816147443518
 30
0.0
 11
122.823863438172
 21
115.0816147443518
 31
0.0
  0
LINE
  5
203
330
1F
100
AcDbEntity
  8
GR1
  6
DASHDOT
 62
     6
370
    25
100
AcDbLine
 10
165.6322458215986
 20
40.13903001719063
 30
0.0
 11
165.6322458215986
 21
225.9645435369215
 31
0.0
  0
LINE
  5
204
330
1F
100
AcDbEntity
  8
GR1
  6
DASHDOT
 62
     6
370
    25
100
AcDbLine
 10
223.3410282182338
 20
174.5117116811786
 30
0.0
 11
223.5347166256825
 21
170.0755178075252
 31
0.0
  0
ARC
  5
205
330
1F
100
AcDbEntity
  8
GR1
  6
DASHDOT
 62
     6
370
    25
100
AcDbCircle
 10
228.5299577335918
 20
170.2936147443519
 30
0.0
 40
5.0
100
AcDbArc
 50
182.5
 51
270.0
  0
LINE
  5
206
330
1F
100
AcDbEntity
  8
GR1
  6
DASHDOT
 62
     6
370
    25
100
AcDbLine
 10
228.5299577335918
 20
165.2936147443518
 30
0.0
 11
269.3842538922213
 21
165.2936147443519
 31
0.0
  0
LINE
  5
207
330
1F
100
AcDbEntity
  8
GR1
  6
DASHDOT
 62
     6
370
    25
100
AcDbLine
 10
320.4421609577664
 20
165.2936147443518
 30
0.0
 11
329.0068864894977
 21
165.2936147443518
 31
0.0
  0
LINE
  5
208
330
1F
100
AcDbEntity
  8
GR1
  6
DASHDOT
 62
     6
370
    25
100
AcDbLine
 10
329.0068864894978
 20
165.2936147443518
 30
0.0
 11
410.0068864894978
 21
179.2936147443518
 31
0.0
  0
LINE
  5
209
330
1F
100
AcDbEntity
  8
GR1
  6
DASHDOT
 62
     6
370
    25
100
AcDbLine
 10
410.0068864894979
 20
179.2936147443518
 30
0.0
 11
421.2100031271468
 21
179.2936147443518
 31
0.0
  0
LINE
  5
20A
330
1F
100
AcDbEntity
  8
GR1
  6
Continuous
 62
     6
370
    25
100
AcDbLine
 10
391.9068864894979
 20
109.4636147443518
 30
0.0
 11
391.9068864894979
 21
171.0249633340999
 31
0.0
  0
LINE
  5
20B
330
1F
100
AcDbEntity
  8
GR1
  6
Continuous
 62
     6
370
    25
100
AcDbLine
 10
391.9068864894979
 20
181.1792294529573
 30
0.0
 11
391.9068864894979
 21
192.0636147443519
 31
0.0
  0
LINE
  5
20C
330
1F
100
AcDbEntity
  8
GR1
  6
DASHDOT
 62
     6
370
    25
100
AcDbLine
 10
382.1941828292016
 20
182.3936147443518
 30
0.0
 11
368.1952261118838
 21
182.3936147443518
 31
0.0
  0
LINE
  5
20D
330
1F
100
AcDbEntity
  8
GR1
  6
DASHDOT
 62
     6
370
    25
100
AcDbLine
 10
375.306886489498
 20
175.149902351644
 30
0.0
 11
375.306886489498
 21
190.0024539907495
 31
0.0
  0
ARC
  5
20E
330
1F
100
AcDbEntity
  8
GR1
  6
Continuous
 62
     6
370
    25
100
AcDbCircle
 10
375.306886489498
 20
182.3936147443518
 30
0.0
 40
4.5
100
AcDbArc
 50
308.0397940873131
 51
251.5723914324805
  0
LINE
  5
20F
330
1F
100
AcDbEntity
  8
GR1
  6
DASHDOT
 62
     6
370
    25
100
AcDbLine
 10
409.0068864894979
 20
135.8988858578485
 30
0.0
 11
409.0068864894979
 21
225.0466779386699
 31
0.0
  0
LINE
  5
210
330
1F
100
AcDbEntity
  8
GR1
  6
DASHDOT
 62
     6
370
    25
100
AcDbLine
 10
410.0068864894979
 20
190.2286885242586
 30
0.0
 11
410.0068864894979
 21
169.4267611135701
 31
0.0
  0
LINE
  5
211
330
1F
100
AcDbEntity
  8
GR1
  6
DASHDOT
 62
     6
370
    25
100
AcDbLine
 10
438.0666876952988
 20
108.8936147443518
 30
0.0
 11
300.0969956633614
 21
108.8936147443518
 31
0.0
  0
LINE
  5
212
330
1F
100
AcDbEntity
  8
GR1
  6
DASHDOT
 62
     6
370
    25
100
AcDbLine
 10
329.0068864894978
 20
157.2480511467654
 30
0.0
 11
329.0068864894978
 21
175.3101806628584
 31
0.0
  0
CIRCLE
  5
213
330
1F
100
AcDbEntity
  8
GR1
  6
Continuous
 62
     6
370
    25
100
AcDbCircle
 10
369.0068864894979
 20
108.8936147443519
 30
0.0
 40
10.0
  0
LINE
  5
214
330
1F
100
AcDbEntity
  8
GR1
  6
DASHDOT
 62
     6
370
    25
100
AcDbLine
 10
300.6787131148849
 20
332.0636147443519
 30
0.0
 11
467.9635428362471
 21
332.0636147443519
 31
0.0
  0
CIRCLE
  5
215
330
1F
100
AcDbEntity
  8
GR1
  6
Continuous
 62
     6
370
    25
100
AcDbCircle
 10
409.0068864894979
 20
332.0636147443519
 30
0.0
 40
36.25
  0
CIRCLE
  5
216
330
1F
100
AcDbEntity
  8
GR1
  6
Continuous
 62
     6
370
    25
100
AcDbCircle
 10
409.006886489498
 20
332.0636147443519
 30
0.0
 40
26.7
  0
CIRCLE
  5
217
330
1F
100
AcDbEntity
  8
GR1
  6
Continuous
 62
     6
370
    25
100
AcDbCircle
 10
409.006886489498
 20
332.0636147443519
 30
0.0
 40
25.0
  0
LINE
  5
218
330
1F
100
AcDbEntity
  8
GR1
  6
DASHDOT
 62
     6
370
    25
100
AcDbLine
 10
409.006886489498
 20
274.1348221746924
 30
0.0
 11
409.006886489498
 21
390.9119119579742
 31
0.0
  0
ARC
  5
219
330
1F
100
AcDbEntity
  8
GR1
  6
DASHDOT
 62
     6
370
    25
100
AcDbCircle
 10
340.0068864894979
 20
260.4968692039602
 30
0.0
 40
11.0
100
AcDbArc
 50
92.49999999999945
 51
180.0
  0
LINE
  5
21A
330
1F
100
AcDbEntity
  8
GR1
  6
DASHDOT
 62
     6
370
    25
100
AcDbLine
 10
329.0068864894979
 20
260.4968692039602
 30
0.0
 11
329.0068864894979
 21
226.111204765821
 31
0.0
  0
LINE
  5
21B
330
1F
100
AcDbEntity
  8
GR1
  6
Continuous
 62
     6
370
    25
100
AcDbLine
 10
329.0068864894979
 20
231.8636147443519
 30
0.0
 11
330.1615870278771
 21
233.8636147443519
 31
0.0
  0
LINE
  5
21C
330
1F
100
AcDbEntity
  8
GR1
  6
Continuous
 62
     6
370
    25
100
AcDbLine
 10
330.1615870278771
 20
233.8636147443518
 30
0.0
 11
329.0068864894979
 21
235.8636147443518
 31
0.0
  0
LINE
  5
21D
330
1F
100
AcDbEntity
  8
GR1
  6
Continuous
 62
     6
370
    25
100
AcDbLine
 10
329.0068864894979
 20
235.8636147443518
 30
0.0
 11
327.8521859511186
 21
233.8636147443518
 31
0.0
  0
LINE
  5
21E
330
1F
100
AcDbEntity
  8
GR1
  6
Continuous
 62
     6
370
    25
100
AcDbLine
 10
327.8521859511186
 20
233.8636147443519
 30
0.0
 11
329.0068864894979
 21
231.8636147443519
 31
0.0
  0
LINE
  5
21F
330
1F
100
AcDbEntity
  8
GR1
  6
Continuous
 62
     6
370
    25
100
AcDbLine
 10
327.5074014836583
 20
232.0607989596538
 30
0.0
 11
327.1593656280911
 21
232.6636147443519
 31
0.0
  0
LINE
  5
220
330
1F
100
AcDbEntity
  8
GR1
  6
Continuous
 62
     6
370
    25
100
AcDbLine
 10
327.1593656280911
 20
232.6636147443519
 30
0.0
 11
326.9214358827486
 21
232.2515083367867
 31
0.0
  0
LINE
  5
221
330
1F
100
AcDbEntity
  8
GR1
  6
Continuous
 62
     6
370
    25
100
AcDbLine
 10
325.8509607768476
 20
232.7973910651286
 30
0.0
 11
326.4665453050635
 21
233.8636147443519
 31
0.0
  0
LINE
  5
222
330
1F
100
AcDbEntity
  8
GR1
  6
Continuous
 62
     6
370
    25
100
AcDbLine
 10
326.4665453050635
 20
233.8636147443518
 30
0.0
 11
325.3118447666843
 21
235.8636147443518
 31
0.0
  0
LINE
  5
223
330
1F
100
AcDbEntity
  8
GR1
  6
Continuous
 62
     6
370
    25
100
AcDbLine
 10
325.3118447666843
 20
235.8636147443518
 30
0.0
 11
324.3527921583989
 21
234.20248689967
 31
0.0
  0
LINE
  5
224
330
1F
100
AcDbEntity
  8
GR1
  6
Continuous
 62
     6
370
    25
100
AcDbLine
 10
323.6633313602829
 20
235.4083057675062
 30
0.0
 11
324.6190244436567
 21
237.0636147443519
 31
0.0
  0
LINE
  5
225
330
1F
100
AcDbEntity
  8
GR1
  6
Continuous
 62
     6
370
    25
100
AcDbLine
 10
324.6190244436567
 20
237.0636147443519
 30
0.0
 11
323.4643239052775
 21
239.0636147443519
 31
0.0
  0
LINE
  5
226
330
1F
100
AcDbEntity
  8
GR1
  6
Continuous
 62
     6
370
    25
100
AcDbLine
 10
323.4643239052775
 20
239.0636147443519
 30
0.0
 11
323.2068864894978
 21
238.6177200604524
 31
0.0
  0
ARC
  5
227
330
1F
100
AcDbEntity
  8
GR1
  6
Continuous
 62
     6
370
    25
100
AcDbCircle
 10
329.0068864894979
 20
237.6636147443519
 30
0.0
 40
5.8
100
AcDbArc
 50
180.0
 51
359.9999999999997
  0
LINE
  5
228
330
1F
100
AcDbEntity
  8
GR1
  6
Continuous
 62
     6
370
    25
100
AcDbLine
 10
334.8068864894979
 20
237.6636147443518
 30
0.0
 11
334.806886489498
 21
252.6313040021354
 31
0.0
  0
ARC
  5
229
330
1F
100
AcDbEntity
  8
GR1
  6
Continuous
 62
     6
370
    25
100
AcDbCircle
 10
322.8068864894979
 20
252.6313040021354
 30
0.0
 40
12.0
100
AcDbArc
 50
0.0
 51
26.91656760161823
  0
LINE
  5
22A
330
1F
100
AcDbEntity
  8
GR1
  6
Continuous
 62
     6
370
    25
100
AcDbLine
 10
333.5068864894978
 20
258.0636147443519
 30
0.0
 11
324.5068864894979
 21
258.0636147443519
 31
0.0
  0
ARC
  5
22B
330
1F
100
AcDbEntity
  8
GR1
  6
Continuous
 62
     6
370
    25
100
AcDbCircle
 10
335.2068864894978
 20
252.6313040021354
 30
0.0
 40
12.0
100
AcDbArc
 50
153.0834323983817
 51
180.0
  0
LINE
  5
22C
330
1F
100
AcDbEntity
  8
GR1
  6
Continuous
 62
     6
370
    25
100
AcDbLine
 10
323.2068864894979
 20
252.6313040021354
 30
0.0
 11
323.2068864894978
 21
237.6636147443519
 31
0.0
  0
LINE
  5
22D
330
1F
100
AcDbEntity
  8
GR1
  6
Continuous
 62
     6
370
    25
100
AcDbLine
 10
325.3118447666842
 20
238.2636147443518
 30
0.0
 11
324.157144228305
 21
240.2636147443518
 31
0.0
  0
LINE
  5
22E
330
1F
100
AcDbEntity
  8
GR1
  6
Continuous
 62
     6
370
    25
100
AcDbLine
 10
324.157144228305
 20
240.2636147443518
 30
0.0
 11
325.3118447666842
 21
242.2636147443518
 31
0.0
  0
LINE
  5
22F
330
1F
100
AcDbEntity
  8
GR1
  6
Continuous
 62
     6
370
    25
100
AcDbLine
 10
325.3118447666842
 20
242.2636147443518
 30
0.0
 11
326.4665453050635
 21
240.2636147443518
 31
0.0
  0
LINE
  5
230
330
1F
100
AcDbEntity
  8
GR1
  6
Continuous
 62
     6
370
    25
100
AcDbLine
 10
326.4665453050635
 20
240.2636147443518
 30
0.0
 11
325.3118447666843
 21
238.2636147443518
 31
0.0
  0
LINE
  5
231
330
1F
100
AcDbEntity
  8
GR1
  6
Continuous
 62
     6
370
    25
100
AcDbLine
 10
326.0046650897118
 20
237.0636147443519
 30
0.0
 11
327.1593656280911
 21
235.0636147443518
 31
0.0
  0
LINE
  5
232
330
1F
100
AcDbEntity
  8
GR1
  6
Continuous
 62
     6
370
    25
100
AcDbLine
 10
327.1593656280911
 20
235.0636147443518
 30
0.0
 11
328.3140661664703
 21
237.0636147443518
 31
0.0
  0
LINE
  5
233
330
1F
100
AcDbEntity
  8
GR1
  6
Continuous
 62
     6
370
    25
100
AcDbLine
 10
328.3140661664703
 20
237.0636147443518
 30
0.0
 11
327.1593656280911
 21
239.0636147443519
 31
0.0
  0
LINE
  5
234
330
1F
100
AcDbEntity
  8
GR1
  6
Continuous
 62
     6
370
    25
100
AcDbLine
 10
327.1593656280911
 20
239.0636147443519
 30
0.0
 11
326.0046650897118
 21
237.0636147443518
 31
0.0
  0
LINE
  5
235
330
1F
100
AcDbEntity
  8
GR1
  6
Continuous
 62
     6
370
    25
100
AcDbLine
 10
329.0068864894979
 20
238.2636147443518
 30
0.0
 11
330.1615870278772
 21
240.2636147443518
 31
0.0
  0
LINE
  5
236
330
1F
100
AcDbEntity
  8
GR1
  6
Continuous
 62
     6
370
    25
100
AcDbLine
 10
330.1615870278772
 20
240.2636147443518
 30
0.0
 11
329.0068864894979
 21
242.2636147443519
 31
0.0
  0
LINE
  5
237
330
1F
100
AcDbEntity
  8
GR1
  6
Continuous
 62
     6
370
    25
100
AcDbLine
 10
329.0068864894979
 20
242.2636147443519
 30
0.0
 11
327.8521859511186
 21
240.2636147443518
 31
0.0
  0
LINE
  5
238
330
1F
100
AcDbEntity
  8
GR1
  6
Continuous
 62
     6
370
    25
100
AcDbLine
 10
327.8521859511186
 20
240.2636147443518
 30
0.0
 11
329.0068864894979
 21
238.2636147443518
 31
0.0
  0
LINE
  5
239
330
1F
100
AcDbEntity
  8
GR1
  6
Continuous
 62
     6
370
    25
100
AcDbLine
 10
329.6997068125254
 20
237.0636147443518
 30
0.0
 11
330.8544073509047
 21
239.0636147443519
 31
0.0
  0
LINE
  5
23A
330
1F
100
AcDbEntity
  8
GR1
  6
Continuous
 62
     6
370
    25
100
AcDbLine
 10
330.8544073509047
 20
239.0636147443519
 30
0.0
 11
332.009107889284
 21
237.0636147443518
 31
0.0
  0
LINE
  5
23B
330
1F
100
AcDbEntity
  8
GR1
  6
Continuous
 62
     6
370
    25
100
AcDbLine
 10
332.009107889284
 20
237.0636147443519
 30
0.0
 11
330.8544073509047
 21
235.0636147443518
 31
0.0
  0
LINE
  5
23C
330
1F
100
AcDbEntity
  8
GR1
  6
Continuous
 62
     6
370
    25
100
AcDbLine
 10
330.8544073509047
 20
235.0636147443518
 30
0.0
 11
329.6997068125254
 21
237.0636147443518
 31
0.0
  0
LINE
  5
23D
330
1F
100
AcDbEntity
  8
GR1
  6
Continuous
 62
     6
370
    25
100
AcDbLine
 10
332.7019282123115
 20
235.8636147443518
 30
0.0
 11
331.5472276739322
 21
233.8636147443518
 31
0.0
  0
LINE
  5
23E
330
1F
100
AcDbEntity
  8
GR1
  6
Continuous
 62
     6
370
    25
100
AcDbLine
 10
331.5472276739322
 20
233.8636147443519
 30
0.0
 11
332.1628122021481
 21
232.7973910651286
 31
0.0
  0
LINE
  5
23F
330
1F
100
AcDbEntity
  8
GR1
  6
Continuous
 62
     6
370
    25
100
AcDbLine
 10
331.0923370962472
 20
232.2515083367867
 30
0.0
 11
330.8544073509047
 21
232.6636147443519
 31
0.0
  0
LINE
  5
240
330
1F
100
AcDbEntity
  8
GR1
  6
Continuous
 62
     6
370
    25
100
AcDbLine
 10
330.8544073509047
 20
232.6636147443519
 30
0.0
 11
330.5063714953375
 21
232.0607989596538
 31
0.0
  0
LINE
  5
241
330
1F
100
AcDbEntity
  8
GR1
  6
Continuous
 62
     6
370
    25
100
AcDbLine
 10
333.6609808205969
 20
234.20248689967
 30
0.0
 11
332.7019282123115
 21
235.8636147443518
 31
0.0
  0
LINE
  5
242
330
1F
100
AcDbEntity
  8
GR1
  6
Continuous
 62
     6
370
    25
100
AcDbLine
 10
333.3947485353391
 20
237.0636147443519
 30
0.0
 11
334.5494490737183
 21
239.0636147443519
 31
0.0
  0
LINE
  5
243
330
1F
100
AcDbEntity
  8
GR1
  6
Continuous
 62
     6
370
    25
100
AcDbLine
 10
334.5494490737183
 20
239.0636147443519
 30
0.0
 11
334.8068864894979
 21
238.6177200604524
 31
0.0
  0
LINE
  5
244
330
1F
100
AcDbEntity
  8
GR1
  6
Continuous
 62
     6
370
    25
100
AcDbLine
 10
333.8566287506908
 20
240.2636147443518
 30
0.0
 11
332.7019282123115
 21
238.2636147443518
 31
0.0
  0
LINE
  5
245
330
1F
100
AcDbEntity
  8
GR1
  6
Continuous
 62
     6
370
    25
100
AcDbLine
 10
332.7019282123115
 20
238.2636147443518
 30
0.0
 11
331.5472276739323
 21
240.2636147443518
 31
0.0
  0
LINE
  5
246
330
1F
100
AcDbEntity
  8
GR1
  6
Continuous
 62
     6
370
    25
100
AcDbLine
 10
331.5472276739322
 20
240.2636147443519
 30
0.0
 11
332.7019282123115
 21
242.2636147443519
 31
0.0
  0
LINE
  5
247
330
1F
100
AcDbEntity
  8
GR1
  6
Continuous
 62
     6
370
    25
100
AcDbLine
 10
332.7019282123115
 20
242.2636147443518
 30
0.0
 11
333.8566287506908
 21
240.2636147443518
 31
0.0
  0
LINE
  5
248
330
1F
100
AcDbEntity
  8
GR1
  6
Continuous
 62
     6
370
    25
100
AcDbLine
 10
334.5494490737183
 20
241.4636147443518
 30
0.0
 11
333.3947485353391
 21
243.4636147443518
 31
0.0
  0
LINE
  5
249
330
1F
100
AcDbEntity
  8
GR1
  6
Continuous
 62
     6
370
    25
100
AcDbLine
 10
333.3947485353391
 20
243.4636147443518
 30
0.0
 11
334.5494490737183
 21
245.4636147443518
 31
0.0
  0
LINE
  5
24A
330
1F
100
AcDbEntity
  8
GR1
  6
Continuous
 62
     6
370
    25
100
AcDbLine
 10
334.5494490737183
 20
245.4636147443518
 30
0.0
 11
334.8068864894979
 21
245.0177200604523
 31
0.0
  0
LINE
  5
24B
330
1F
100
AcDbEntity
  8
GR1
  6
Continuous
 62
     6
370
    25
100
AcDbLine
 10
333.8566287506908
 20
246.6636147443518
 30
0.0
 11
332.7019282123115
 21
244.6636147443518
 31
0.0
  0
LINE
  5
24C
330
1F
100
AcDbEntity
  8
GR1
  6
Continuous
 62
     6
370
    25
100
AcDbLine
 10
332.7019282123115
 20
244.6636147443518
 30
0.0
 11
331.5472276739323
 21
246.6636147443518
 31
0.0
  0
LINE
  5
24D
330
1F
100
AcDbEntity
  8
GR1
  6
Continuous
 62
     6
370
    25
100
AcDbLine
 10
331.5472276739323
 20
246.6636147443518
 30
0.0
 11
332.7019282123115
 21
248.6636147443518
 31
0.0
  0
LINE
  5
24E
330
1F
100
AcDbEntity
  8
GR1
  6
Continuous
 62
     6
370
    25
100
AcDbLine
 10
332.7019282123115
 20
248.6636147443518
 30
0.0
 11
333.8566287506908
 21
246.6636147443518
 31
0.0
  0
LINE
  5
24F
330
1F
100
AcDbEntity
  8
GR1
  6
Continuous
 62
     6
370
    25
100
AcDbLine
 10
334.5494490737183
 20
247.8636147443518
 30
0.0
 11
333.394748535339
 21
249.8636147443518
 31
0.0
  0
LINE
  5
250
330
1F
100
AcDbEntity
  8
GR1
  6
Continuous
 62
     6
370
    25
100
AcDbLine
 10
333.394748535339
 20
249.8636147443518
 30
0.0
 11
334.5494490737183
 21
251.8636147443518
 31
0.0
  0
LINE
  5
251
330
1F
100
AcDbEntity
  8
GR1
  6
Continuous
 62
     6
370
    25
100
AcDbLine
 10
334.5494490737183
 20
251.8636147443518
 30
0.0
 11
334.7350817065161
 21
251.5420895928031
 31
0.0
  0
LINE
  5
252
330
1F
100
AcDbEntity
  8
GR1
  6
Continuous
 62
     6
370
    25
100
AcDbLine
 10
333.8566287506907
 20
253.0636147443518
 30
0.0
 11
332.7019282123115
 21
255.0636147443517
 31
0.0
  0
LINE
  5
253
330
1F
100
AcDbEntity
  8
GR1
  6
Continuous
 62
     6
370
    25
100
AcDbLine
 10
332.7019282123115
 20
255.0636147443517
 30
0.0
 11
331.5472276739322
 21
253.0636147443518
 31
0.0
  0
LINE
  5
254
330
1F
100
AcDbEntity
  8
GR1
  6
Continuous
 62
     6
370
    25
100
AcDbLine
 10
331.5472276739322
 20
253.0636147443518
 30
0.0
 11
332.7019282123115
 21
251.0636147443518
 31
0.0
  0
LINE
  5
255
330
1F
100
AcDbEntity
  8
GR1
  6
Continuous
 62
     6
370
    25
100
AcDbLine
 10
332.7019282123115
 20
251.0636147443518
 30
0.0
 11
333.8566287506907
 21
253.0636147443518
 31
0.0
  0
LINE
  5
256
330
1F
100
AcDbEntity
  8
GR1
  6
Continuous
 62
     6
370
    25
100
AcDbLine
 10
334.5494490737183
 20
254.2636147443518
 30
0.0
 11
333.394748535339
 21
256.2636147443517
 31
0.0
  0
LINE
  5
257
330
1F
100
AcDbEntity
  8
GR1
  6
Continuous
 62
     6
370
    25
100
AcDbLine
 10
333.394748535339
 20
256.2636147443517
 30
0.0
 11
333.9165288348445
 21
257.1673647334837
 31
0.0
  0
ARC
  5
258
330
1F
100
AcDbEntity
  8
GR1
  6
Continuous
 62
     6
370
    25
100
AcDbCircle
 10
329.0068864894979
 20
238.0636147443524
 30
0.0
 40
20.49999999999943
100
AcDbArc
 50
77.31961650817965
 51
102.68038349182
  0
LINE
  5
259
330
1F
100
AcDbEntity
  8
GR1
  6
Continuous
 62
     6
370
    25
100
AcDbLine
 10
324.9654346051706
 20
258.0636147443519
 30
0.0
 11
325.3118447666843
 21
257.4636147443517
 31
0.0
  0
LINE
  5
25A
330
1F
100
AcDbEntity
  8
GR1
  6
Continuous
 62
     6
370
    25
100
AcDbLine
 10
325.3118447666843
 20
257.4636147443517
 30
0.0
 11
325.6582549281982
 21
258.0636147443518
 31
0.0
  0
LINE
  5
25B
330
1F
100
AcDbEntity
  8
GR1
  6
Continuous
 62
     6
370
    25
100
AcDbLine
 10
327.0438955742533
 20
258.0636147443519
 30
0.0
 11
326.0046650897119
 21
256.2636147443517
 31
0.0
  0
LINE
  5
25C
330
1F
100
AcDbEntity
  8
GR1
  6
Continuous
 62
     6
370
    25
100
AcDbLine
 10
326.0046650897119
 20
256.2636147443517
 30
0.0
 11
327.1593656280911
 21
254.2636147443517
 31
0.0
  0
LINE
  5
25D
330
1F
100
AcDbEntity
  8
GR1
  6
Continuous
 62
     6
370
    25
100
AcDbLine
 10
327.1593656280911
 20
254.2636147443517
 30
0.0
 11
328.3140661664703
 21
256.2636147443517
 31
0.0
  0
LINE
  5
25E
330
1F
100
AcDbEntity
  8
GR1
  6
Continuous
 62
     6
370
    25
100
AcDbLine
 10
328.3140661664703
 20
256.2636147443517
 30
0.0
 11
327.2748356819289
 21
258.0636147443519
 31
0.0
  0
LINE
  5
25F
330
1F
100
AcDbEntity
  8
GR1
  6
Continuous
 62
     6
370
    25
100
AcDbLine
 10
328.660476327984
 20
258.0636147443519
 30
0.0
 11
329.0068864894979
 21
257.4636147443517
 31
0.0
  0
LINE
  5
260
330
1F
100
AcDbEntity
  8
GR1
  6
Continuous
 62
     6
370
    25
100
AcDbLine
 10
329.0068864894979
 20
257.4636147443517
 30
0.0
 11
329.3532966510118
 21
258.0636147443518
 31
0.0
  0
LINE
  5
261
330
1F
100
AcDbEntity
  8
GR1
  6
Continuous
 62
     6
370
    25
100
AcDbLine
 10
330.7389372970669
 20
258.0636147443519
 30
0.0
 11
329.6997068125255
 21
256.2636147443517
 31
0.0
  0
LINE
  5
262
330
1F
100
AcDbEntity
  8
GR1
  6
Continuous
 62
     6
370
    25
100
AcDbLine
 10
329.6997068125254
 20
256.2636147443517
 30
0.0
 11
330.8544073509047
 21
254.2636147443517
 31
0.0
  0
LINE
  5
263
330
1F
100
AcDbEntity
  8
GR1
  6
Continuous
 62
     6
370
    25
100
AcDbLine
 10
330.8544073509047
 20
254.2636147443517
 30
0.0
 11
332.0091078892839
 21
256.2636147443517
 31
0.0
  0
LINE
  5
264
330
1F
100
AcDbEntity
  8
GR1
  6
Continuous
 62
     6
370
    25
100
AcDbLine
 10
332.0091078892839
 20
256.2636147443517
 30
0.0
 11
330.9698774047425
 21
258.0636147443519
 31
0.0
  0
LINE
  5
265
330
1F
100
AcDbEntity
  8
GR1
  6
Continuous
 62
     6
370
    25
100
AcDbLine
 10
332.3555180507976
 20
258.0636147443518
 30
0.0
 11
332.7019282123115
 21
257.4636147443517
 31
0.0
  0
LINE
  5
266
330
1F
100
AcDbEntity
  8
GR1
  6
Continuous
 62
     6
370
    25
100
AcDbLine
 10
332.7019282123115
 20
257.4636147443517
 30
0.0
 11
333.0483383738252
 21
258.0636147443518
 31
0.0
  0
LINE
  5
267
330
1F
100
AcDbEntity
  8
GR1
  6
Continuous
 62
     6
370
    25
100
AcDbLine
 10
334.6659068874187
 20
254.4653255946194
 30
0.0
 11
334.5494490737183
 21
254.2636147443518
 31
0.0
  0
LINE
  5
268
330
1F
100
AcDbEntity
  8
GR1
  6
Continuous
 62
     6
370
    25
100
AcDbLine
 10
330.8544073509047
 20
251.8636147443518
 30
0.0
 11
329.6997068125255
 21
249.8636147443518
 31
0.0
  0
LINE
  5
269
330
1F
100
AcDbEntity
  8
GR1
  6
Continuous
 62
     6
370
    25
100
AcDbLine
 10
329.6997068125254
 20
249.8636147443518
 30
0.0
 11
330.8544073509047
 21
247.8636147443518
 31
0.0
  0
LINE
  5
26A
330
1F
100
AcDbEntity
  8
GR1
  6
Continuous
 62
     6
370
    25
100
AcDbLine
 10
330.8544073509047
 20
247.8636147443518
 30
0.0
 11
332.0091078892839
 21
249.8636147443518
 31
0.0
  0
LINE
  5
26B
330
1F
100
AcDbEntity
  8
GR1
  6
Continuous
 62
     6
370
    25
100
AcDbLine
 10
332.0091078892839
 20
249.8636147443518
 30
0.0
 11
330.8544073509047
 21
251.8636147443518
 31
0.0
  0
LINE
  5
26C
330
1F
100
AcDbEntity
  8
GR1
  6
Continuous
 62
     6
370
    25
100
AcDbLine
 10
330.1615870278771
 20
253.0636147443518
 30
0.0
 11
329.0068864894979
 21
255.0636147443517
 31
0.0
  0
LINE
  5
26D
330
1F
100
AcDbEntity
  8
GR1
  6
Continuous
 62
     6
370
    25
100
AcDbLine
 10
329.0068864894979
 20
255.0636147443518
 30
0.0
 11
327.8521859511186
 21
253.0636147443518
 31
0.0
  0
LINE
  5
26E
330
1F
100
AcDbEntity
  8
GR1
  6
Continuous
 62
     6
370
    25
100
AcDbLine
 10
327.8521859511186
 20
253.0636147443518
 30
0.0
 11
328.9610066789994
 21
251.1430809071767
 31
0.0
  0
LINE
  5
26F
330
1F
100
AcDbEntity
  8
GR1
  6
Continuous
 62
     6
370
    25
100
AcDbLine
 10
329.0527662999963
 20
251.1430809071767
 30
0.0
 11
330.1615870278771
 21
253.0636147443518
 31
0.0
  0
LINE
  5
270
330
1F
100
AcDbEntity
  8
GR1
  6
Continuous
 62
     6
370
    25
100
AcDbLine
 10
327.1593656280911
 20
251.8636147443518
 30
0.0
 11
328.3140661664703
 21
249.8636147443518
 31
0.0
  0
LINE
  5
271
330
1F
100
AcDbEntity
  8
GR1
  6
Continuous
 62
     6
370
    25
100
AcDbLine
 10
328.3140661664703
 20
249.8636147443518
 30
0.0
 11
327.1593656280911
 21
247.8636147443518
 31
0.0
  0
LINE
  5
272
330
1F
100
AcDbEntity
  8
GR1
  6
Continuous
 62
     6
370
    25
100
AcDbLine
 10
327.1593656280911
 20
247.8636147443518
 30
0.0
 11
326.0046650897118
 21
249.8636147443518
 31
0.0
  0
LINE
  5
273
330
1F
100
AcDbEntity
  8
GR1
  6
Continuous
 62
     6
370
    25
100
AcDbLine
 10
326.0046650897119
 20
249.8636147443518
 30
0.0
 11
327.1593656280911
 21
251.8636147443518
 31
0.0
  0
LINE
  5
274
330
1F
100
AcDbEntity
  8
GR1
  6
Continuous
 62
     6
370
    25
100
AcDbLine
 10
326.4665453050635
 20
253.0636147443518
 30
0.0
 11
325.3118447666843
 21
251.0636147443518
 31
0.0
  0
LINE
  5
275
330
1F
100
AcDbEntity
  8
GR1
  6
Continuous
 62
     6
370
    25
100
AcDbLine
 10
325.3118447666843
 20
251.0636147443518
 30
0.0
 11
324.157144228305
 21
253.0636147443518
 31
0.0
  0
LINE
  5
276
330
1F
100
AcDbEntity
  8
GR1
  6
Continuous
 62
     6
370
    25
100
AcDbLine
 10
324.157144228305
 20
253.0636147443518
 30
0.0
 11
325.3118447666843
 21
255.0636147443517
 31
0.0
  0
LINE
  5
277
330
1F
100
AcDbEntity
  8
GR1
  6
Continuous
 62
     6
370
    25
100
AcDbLine
 10
325.3118447666843
 20
255.0636147443517
 30
0.0
 11
326.4665453050635
 21
253.0636147443518
 31
0.0
  0
LINE
  5
278
330
1F
100
AcDbEntity
  8
GR1
  6
Continuous
 62
     6
370
    25
100
AcDbLine
 10
323.4643239052775
 20
251.8636147443518
 30
0.0
 11
323.2786912724797
 21
251.5420895928031
 31
0.0
  0
LINE
  5
279
330
1F
100
AcDbEntity
  8
GR1
  6
Continuous
 62
     6
370
    25
100
AcDbLine
 10
323.4643239052775
 20
251.8636147443518
 30
0.0
 11
324.6190244436567
 21
249.8636147443518
 31
0.0
  0
LINE
  5
27A
330
1F
100
AcDbEntity
  8
GR1
  6
Continuous
 62
     6
370
    25
100
AcDbLine
 10
324.6190244436567
 20
249.8636147443518
 30
0.0
 11
323.4643239052775
 21
247.8636147443518
 31
0.0
  0
LINE
  5
27B
330
1F
100
AcDbEntity
  8
GR1
  6
Continuous
 62
     6
370
    25
100
AcDbLine
 10
323.4643239052775
 20
247.8636147443518
 30
0.0
 11
323.2068864894978
 21
248.3095094282513
 31
0.0
  0
LINE
  5
27C
330
1F
100
AcDbEntity
  8
GR1
  6
Continuous
 62
     6
370
    25
100
AcDbLine
 10
324.157144228305
 20
246.6636147443518
 30
0.0
 11
325.3118447666843
 21
244.6636147443518
 31
0.0
  0
LINE
  5
27D
330
1F
100
AcDbEntity
  8
GR1
  6
Continuous
 62
     6
370
    25
100
AcDbLine
 10
325.3118447666843
 20
244.6636147443518
 30
0.0
 11
326.4665453050635
 21
246.6636147443518
 31
0.0
  0
LINE
  5
27E
330
1F
100
AcDbEntity
  8
GR1
  6
Continuous
 62
     6
370
    25
100
AcDbLine
 10
326.4665453050635
 20
246.6636147443518
 30
0.0
 11
325.3118447666843
 21
248.6636147443518
 31
0.0
  0
LINE
  5
27F
330
1F
100
AcDbEntity
  8
GR1
  6
Continuous
 62
     6
370
    25
100
AcDbLine
 10
325.3118447666843
 20
248.6636147443518
 30
0.0
 11
324.157144228305
 21
246.6636147443518
 31
0.0
  0
LINE
  5
280
330
1F
100
AcDbEntity
  8
GR1
  6
Continuous
 62
     6
370
    25
100
AcDbLine
 10
323.4643239052775
 20
245.4636147443518
 30
0.0
 11
323.2068864894978
 21
245.0177200604523
 31
0.0
  0
LINE
  5
281
330
1F
100
AcDbEntity
  8
GR1
  6
Continuous
 62
     6
370
    25
100
AcDbLine
 10
323.4643239052775
 20
245.4636147443518
 30
0.0
 11
324.6190244436567
 21
243.4636147443518
 31
0.0
  0
LINE
  5
282
330
1F
100
AcDbEntity
  8
GR1
  6
Continuous
 62
     6
370
    25
100
AcDbLine
 10
324.6190244436567
 20
243.4636147443518
 30
0.0
 11
323.4643239052774
 21
241.4636147443518
 31
0.0
  0
LINE
  5
283
330
1F
100
AcDbEntity
  8
GR1
  6
Continuous
 62
     6
370
    25
100
AcDbLine
 10
323.4643239052774
 20
241.4636147443518
 30
0.0
 11
323.2068864894978
 21
241.9095094282513
 31
0.0
  0
LINE
  5
284
330
1F
100
AcDbEntity
  8
GR1
  6
Continuous
 62
     6
370
    25
100
AcDbLine
 10
326.0046650897118
 20
243.4636147443518
 30
0.0
 11
327.1593656280911
 21
245.4636147443518
 31
0.0
  0
LINE
  5
285
330
1F
100
AcDbEntity
  8
GR1
  6
Continuous
 62
     6
370
    25
100
AcDbLine
 10
327.1593656280911
 20
245.4636147443518
 30
0.0
 11
328.3140661664703
 21
243.4636147443518
 31
0.0
  0
LINE
  5
286
330
1F
100
AcDbEntity
  8
GR1
  6
Continuous
 62
     6
370
    25
100
AcDbLine
 10
328.3140661664703
 20
243.4636147443518
 30
0.0
 11
327.1593656280911
 21
241.4636147443518
 31
0.0
  0
LINE
  5
287
330
1F
100
AcDbEntity
  8
GR1
  6
Continuous
 62
     6
370
    25
100
AcDbLine
 10
327.1593656280911
 20
241.4636147443518
 30
0.0
 11
326.0046650897118
 21
243.4636147443518
 31
0.0
  0
LINE
  5
288
330
1F
100
AcDbEntity
  8
GR1
  6
Continuous
 62
     6
370
    25
100
AcDbLine
 10
328.9878816728558
 20
244.6306974363392
 30
0.0
 11
330.1615870278771
 21
246.6636147443518
 31
0.0
  0
LINE
  5
289
330
1F
100
AcDbEntity
  8
GR1
  6
Continuous
 62
     6
370
    25
100
AcDbLine
 10
330.1615870278771
 20
246.6636147443518
 30
0.0
 11
329.0068864894979
 21
248.6636147443518
 31
0.0
  0
LINE
  5
28A
330
1F
100
AcDbEntity
  8
GR1
  6
Continuous
 62
     6
370
    25
100
AcDbLine
 10
329.0068864894979
 20
248.6636147443518
 30
0.0
 11
327.8521859511186
 21
246.6636147443518
 31
0.0
  0
LINE
  5
28B
330
1F
100
AcDbEntity
  8
GR1
  6
Continuous
 62
     6
370
    25
100
AcDbLine
 10
327.8521859511186
 20
246.6636147443518
 30
0.0
 11
329.02589130614
 21
244.6306974363392
 31
0.0
  0
LINE
  5
28C
330
1F
100
AcDbEntity
  8
GR1
  6
Continuous
 62
     6
370
    25
100
AcDbLine
 10
329.6997068125254
 20
243.4636147443518
 30
0.0
 11
330.8544073509047
 21
241.4636147443518
 31
0.0
  0
LINE
  5
28D
330
1F
100
AcDbEntity
  8
GR1
  6
Continuous
 62
     6
370
    25
100
AcDbLine
 10
330.8544073509047
 20
241.4636147443518
 30
0.0
 11
332.009107889284
 21
243.4636147443518
 31
0.0
  0
LINE
  5
28E
330
1F
100
AcDbEntity
  8
GR1
  6
Continuous
 62
     6
370
    25
100
AcDbLine
 10
332.009107889284
 20
243.4636147443518
 30
0.0
 11
330.8544073509047
 21
245.4636147443518
 31
0.0
  0
LINE
  5
28F
330
1F
100
AcDbEntity
  8
GR1
  6
Continuous
 62
     6
370
    25
100
AcDbLine
 10
330.8544073509047
 20
245.4636147443518
 30
0.0
 11
329.6997068125254
 21
243.4636147443518
 31
0.0
  0
LINE
  5
290
330
1F
100
AcDbEntity
  8
GR1
  6
Continuous
 62
     6
370
    25
100
AcDbLine
 10
334.5494490737183
 20
241.4636147443518
 30
0.0
 11
334.806886489498
 21
241.9095094282513
 31
0.0
  0
LINE
  5
291
330
1F
100
AcDbEntity
  8
GR1
  6
Continuous
 62
     6
370
    25
100
AcDbLine
 10
333.3947485353391
 20
237.0636147443519
 30
0.0
 11
334.3504416187128
 21
235.4083057675062
 31
0.0
  0
LINE
  5
292
330
1F
100
AcDbEntity
  8
GR1
  6
Continuous
 62
     6
370
    25
100
AcDbLine
 10
334.5494490737183
 20
247.8636147443518
 30
0.0
 11
334.8068864894979
 21
248.3095094282513
 31
0.0
  0
LINE
  5
293
330
1F
100
AcDbEntity
  8
GR1
  6
Continuous
 62
     6
370
    25
100
AcDbLine
 10
323.4643239052775
 20
254.2636147443518
 30
0.0
 11
324.6190244436567
 21
256.2636147443517
 31
0.0
  0
LINE
  5
294
330
1F
100
AcDbEntity
  8
GR1
  6
Continuous
 62
     6
370
    25
100
AcDbLine
 10
324.6190244436567
 20
256.2636147443517
 30
0.0
 11
324.0972441441512
 21
257.1673647334837
 31
0.0
  0
LINE
  5
295
330
1F
100
AcDbEntity
  8
GR1
  6
Continuous
 62
     6
370
    25
100
AcDbLine
 10
323.3478660915771
 20
254.4653255946194
 30
0.0
 11
323.4643239052775
 21
254.2636147443518
 31
0.0
  0
LINE
  5
296
330
1F
100
AcDbEntity
  8
GR1
  6
DASHDOT
 62
     6
370
    25
100
AcDbLine
 10
339.5270732284793
 20
271.4863996413605
 30
0.0
 11
399.4866997505164
 21
274.1042934717543
 31
0.0
  0
ARC
  5
297
330
1F
100
AcDbEntity
  8
GR1
  6
DASHDOT
 62
     6
370
    25
100
AcDbCircle
 10
399.0068864894978
 20
285.0938239091548
 30
0.0
 40
11.0
100
AcDbArc
 50
272.4999999999994
 51
320.2745192447534
  0
ARC
  5
298
330
1F
100
AcDbEntity
  8
GR1
  6
DASHDOT
 62
     6
370
    25
100
AcDbCircle
 10
218.3457871103245
 20
174.2936147443518
 30
0.0
 40
5.0
100
AcDbArc
 50
2.500000000000171
 51
90.0
  0
LINE
  5
299
330
1F
100
AcDbEntity
  8
GR1
  6
DASHDOT
 62
     6
370
    25
100
AcDbLine
 10
369.0068864894981
 20
129.7516017853471
 30
0.0
 11
369.0068864894981
 21
41.5761184585636
 31
0.0
  0
ARC
  5
29B
330
1F
100
AcDbEntity
  8
基準ﾚｲﾔｸﾞﾙｰﾌﾟ
  6
Continuous
 62
     3
370
    50
100
AcDbCircle
 10
409.0068864894979
 20
208.6261147443167
 30
0.0
 40
4.762499999999989
100
AcDbArc
 50
46.20203219356488
 51
133.7979678064351
  0
ARC
  5
29C
330
1F
100
AcDbEntity
  8
基準ﾚｲﾔｸﾞﾙｰﾌﾟ
  6
Continuous
 62
     3
370
    50
100
AcDbCircle
 10
418.3952144940844
 20
208.6261147443167
 30
0.0
 40
4.762499999999989
100
AcDbArc
 50
46.20203219356488
 51
133.7979678064351
  0
ARC
  5
29D
330
1F
100
AcDbEntity
  8
基準ﾚｲﾔｸﾞﾙｰﾌﾟ
  6
Continuous
 62
     3
370
    50
100
AcDbCircle
 10
426.9246198643906
 20
208.6261147443167
 30
0.0
 40
4.762499999999989
100
AcDbArc
 50
46.20203219356488
 51
133.7979678064351
  0
ARC
  5
29E
330
1F
100
AcDbEntity
  8
基準ﾚｲﾔｸﾞﾙｰﾌﾟ
  6
Continuous
 62
     3
370
    50
100
AcDbCircle
 10
433.8147613803474
 20
208.6261147443167
 30
0.0
 40
4.762499999999989
100
AcDbArc
 50
46.20203219356488
 51
133.7979678064351
  0
ARC
  5
29F
330
1F
100
AcDbEntity
  8
基準ﾚｲﾔｸﾞﾙｰﾌﾟ
  6
Continuous
 62
     3
370
    50
100
AcDbCircle
 10
438.4352713664156
 20
208.6261147443167
 30
0.0
 40
4.762499999999989
100
AcDbArc
 50
46.20203219356488
 51
119.0185599237923
  0
ARC
  5
2A0
330
1F
100
AcDbEntity
  8
基準ﾚｲﾔｸﾞﾙｰﾌﾟ
  6
Continuous
 62
     3
370
    50
100
AcDbCircle
 10
440.3634269898381
 20
208.6261147443167
 30
0.0
 40
4.762499999999989
100
AcDbArc
 50
46.20203219356488
 51
101.6791555551495
  0
ARC
  5
2A1
330
1F
100
AcDbEntity
  8
基準ﾚｲﾔｸﾞﾙｰﾌﾟ
  6
Continuous
 62
     3
370
    50
100
AcDbCircle
 10
399.6185584849114
 20
208.6261147443167
 30
0.0
 40
4.762499999999989
100
AcDbArc
 50
46.20203219356488
 51
133.7979678064351
  0
ARC
  5
2A2
330
1F
100
AcDbEntity
  8
基準ﾚｲﾔｸﾞﾙｰﾌﾟ
  6
Continuous
 62
     3
370
    50
100
AcDbCircle
 10
391.0891531146053
 20
208.6261147443167
 30
0.0
 40
4.762499999999989
100
AcDbArc
 50
46.20203219356488
 51
133.7979678064351
  0
ARC
  5
2A3
330
1F
100
AcDbEntity
  8
基準ﾚｲﾔｸﾞﾙｰﾌﾟ
  6
Continuous
 62
     3
370
    50
100
AcDbCircle
 10
384.1990115986486
 20
208.6261147443167
 30
0.0
 40
4.762499999999989
100
AcDbArc
 50
46.20203219356488
 51
133.7979678064351
  0
ARC
  5
2A4
330
1F
100
AcDbEntity
  8
基準ﾚｲﾔｸﾞﾙｰﾌﾟ
  6
Continuous
 62
     3
370
    50
100
AcDbCircle
 10
379.5785016125802
 20
208.6261147443167
 30
0.0
 40
4.762499999999989
100
AcDbArc
 50
60.98144007620775
 51
133.7979678064351
  0
ARC
  5
2A5
330
1F
100
AcDbEntity
  8
基準ﾚｲﾔｸﾞﾙｰﾌﾟ
  6
Continuous
 62
     3
370
    50
100
AcDbCircle
 10
377.6503459891577
 20
208.6261147443167
 30
0.0
 40
4.762499999999989
100
AcDbArc
 50
78.32084444485048
 51
133.7979678064351
  0
ARC
  5
2A6
330
1F
100
AcDbEntity
  8
GR1
  6
Continuous
 62
     3
370
    50
100
AcDbCircle
 10
263.1322458215985
 20
165.2936147443519
 30
0.0
 40
3.5
100
AcDbArc
 50
270.0
 51
90.0
  0
LINE
  5
2A7
330
1F
100
AcDbEntity
  8
GR1
  6
Continuous
 62
     3
370
    50
100
AcDbLine
 10
192.1322458215986
 20
88.86361474431669
 30
0.0
 11
192.1322458215986
 21
188.022125187177
 31
0.0
  0
LINE
  5
2A8
330
1F
100
AcDbEntity
  8
GR1
  6
Continuous
 62
     3
370
    50
100
AcDbLine
 10
195.3322458215985
 20
192.4636147443167
 30
0.0
 11
195.3322458215985
 21
88.86361474431669
 31
0.0
  0
LINE
  5
2A9
330
1F
100
AcDbEntity
  8
GR1
  6
Continuous
 62
     3
370
    50
100
AcDbLine
 10
200.3822458215986
 20
137.9126970072116
 30
0.0
 11
200.3822458215985
 21
194.5636147443166
 31
0.0
  0
ARC
  5
2AA
330
1F
100
AcDbEntity
  8
GR1
  6
Continuous
 62
     3
370
    50
100
AcDbCircle
 10
193.8822458215985
 20
194.5636147443166
 30
0.0
 40
6.5
100
AcDbArc
 50
0.0
 51
90.0
  0
LINE
  5
2AB
330
1F
100
AcDbEntity
  8
GR1
  6
Continuous
 62
     3
370
    50
100
AcDbLine
 10
191.3322458215985
 20
196.4636147443167
 30
0.0
 11
139.9322458215985
 21
196.4636147443167
 31
0.0
  0
LINE
  5
2AC
330
1F
100
AcDbEntity
  8
GR1
  6
Continuous
 62
     3
370
    50
100
AcDbLine
 10
150.6322458215986
 20
187.4636147443167
 30
0.0
 11
180.6322458215985
 21
187.4636147443167
 31
0.0
  0
ARC
  5
2AD
330
1F
100
AcDbEntity
  8
GR1
  6
Continuous
 62
     3
370
    50
100
AcDbCircle
 10
178.3648745714404
 20
352.8244195687079
 30
0.0
 40
165.3763488064616
100
AcDbArc
 50
270.7855710595095
 51
275.3318240886821
  0
ARC
  5
2AE
330
1F
100
AcDbEntity
  8
GR1
  6
Continuous
 62
     3
370
    50
100
AcDbCircle
 10
191.3322458215986
 20
192.4636147443167
 30
0.0
 40
4.0
100
AcDbArc
 50
0.0
 51
90.0
  0
LINE
  5
2AF
330
1F
100
AcDbEntity
  8
GR1
  6
Continuous
 62
     3
370
    50
100
AcDbLine
 10
201.188662665806
 20
201.0636147443167
 30
0.0
 11
130.0758289773911
 21
201.0636147443167
 31
0.0
  0
ARC
  5
2B0
330
1F
100
AcDbEntity
  8
GR1
  6
Continuous
 62
     3
370
    50
100
AcDbCircle
 10
130.0758289773911
 20
205.0636147443167
 30
0.0
 40
4.0
100
AcDbArc
 50
185.2259274089667
 51
270.0
  0
LINE
  5
2B1
330
1F
100
AcDbEntity
  8
GR1
  6
Continuous
 62
     3
370
    50
100
AcDbLine
 10
126.0924558425148
 20
204.699281835639
 30
0.0
 11
125.4322458215986
 21
212.0636147443167
 31
0.0
  0
LINE
  5
2B2
330
1F
100
AcDbEntity
  8
GR1
  6
Continuous
 62
     3
370
    50
100
AcDbLine
 10
125.4322458215986
 20
212.0636147443167
 30
0.0
 11
205.8322458215985
 21
212.0636147443167
 31
0.0
  0
LINE
  5
2B3
330
1F
100
AcDbEntity
  8
GR1
  6
Continuous
 62
     3
370
    50
100
AcDbLine
 10
205.8322458215985
 20
212.0636147443167
 30
0.0
 11
205.1720358006824
 21
204.699281835639
 31
0.0
  0
ARC
  5
2B4
330
1F
100
AcDbEntity
  8
GR1
  6
Continuous
 62
     3
370
    50
100
AcDbCircle
 10
201.188662665806
 20
205.0636147443167
 30
0.0
 40
4.0
100
AcDbArc
 50
270.0
 51
354.7740725910332
  0
LINE
  5
2B5
330
1F
100
AcDbEntity
  8
GR1
  6
Continuous
 62
     3
370
    50
100
AcDbLine
 10
202.5617087151692
 20
213.3886147443571
 30
0.0
 11
128.7027829280279
 21
213.3886147443571
 31
0.0
  0
ARC
  5
2B6
330
1F
100
AcDbEntity
  8
GR1
  6
Continuous
 62
     3
370
    50
100
AcDbCircle
 10
128.7027829280279
 20
225.3886147443572
 30
0.0
 40
12.0
100
AcDbArc
 50
225.0994720393112
 51
270.0
  0
ARC
  5
2B7
330
1F
100
AcDbEntity
  8
GR1
  6
Continuous
 62
     3
370
    50
100
AcDbCircle
 10
202.5617087151692
 20
225.3886147443572
 30
0.0
 40
12.0
100
AcDbArc
 50
270.0
 51
314.9005279606888
  0
LINE
  5
2B8
330
1F
100
AcDbEntity
  8
GR1
  6
Continuous
 62
     3
370
    50
100
AcDbLine
 10
219.6322458215986
 20
216.8886147443572
 30
0.0
 11
111.6322458215986
 21
216.8886147443572
 31
0.0
  0
LINE
  5
2B9
330
1F
100
AcDbEntity
  8
GR1
  6
Continuous
 62
     3
370
    50
100
AcDbLine
 10
111.6322458215986
 20
220.8886147443518
 30
0.0
 11
219.6322458215986
 21
220.8886147443518
 31
0.0
  0
LINE
  5
2BA
330
1F
100
AcDbEntity
  8
GR1
  6
Continuous
 62
     3
370
    50
100
AcDbLine
 10
219.6322458215986
 20
220.8886147443167
 30
0.0
 11
219.6322458215986
 21
216.8886147443573
 31
0.0
  0
ARC
  5
2BB
330
1F
100
AcDbEntity
  8
基準ﾚｲﾔｸﾞﾙｰﾌﾟ
  6
Continuous
 62
     3
370
    50
100
AcDbCircle
 10
165.6322458215986
 20
208.6261147443166
 30
0.0
 40
4.762499999999989
100
AcDbArc
 50
46.20203219356488
 51
133.7979678064351
  0
ARC
  5
2BC
330
1F
100
AcDbEntity
  8
基準ﾚｲﾔｸﾞﾙｰﾌﾟ
  6
Continuous
 62
     3
370
    50
100
AcDbCircle
 10
175.020573826185
 20
208.6261147443166
 30
0.0
 40
4.762499999999989
100
AcDbArc
 50
46.20203219356488
 51
133.7979678064351
  0
ARC
  5
2BD
330
1F
100
AcDbEntity
  8
基準ﾚｲﾔｸﾞﾙｰﾌﾟ
  6
Continuous
 62
     3
370
    50
100
AcDbCircle
 10
183.5499791964912
 20
208.6261147443166
 30
0.0
 40
4.762499999999989
100
AcDbArc
 50
46.20203219356488
 51
133.7979678064351
  0
ARC
  5
2BE
330
1F
100
AcDbEntity
  8
基準ﾚｲﾔｸﾞﾙｰﾌﾟ
  6
Continuous
 62
     3
370
    50
100
AcDbCircle
 10
190.440120712448
 20
208.6261147443166
 30
0.0
 40
4.762499999999989
100
AcDbArc
 50
46.20203219356488
 51
133.7979678064351
  0
ARC
  5
2BF
330
1F
100
AcDbEntity
  8
基準ﾚｲﾔｸﾞﾙｰﾌﾟ
  6
Continuous
 62
     3
370
    50
100
AcDbCircle
 10
195.0606306985162
 20
208.6261147443166
 30
0.0
 40
4.762499999999989
100
AcDbArc
 50
46.20203219356488
 51
119.0185599237923
  0
ARC
  5
2C0
330
1F
100
AcDbEntity
  8
基準ﾚｲﾔｸﾞﾙｰﾌﾟ
  6
Continuous
 62
     3
370
    50
100
AcDbCircle
 10
196.9887863219388
 20
208.6261147443166
 30
0.0
 40
4.762499999999989
100
AcDbArc
 50
46.20203219356488
 51
101.6791555551495
  0
ARC
  5
2C1
330
1F
100
AcDbEntity
  8
基準ﾚｲﾔｸﾞﾙｰﾌﾟ
  6
Continuous
 62
     3
370
    50
100
AcDbCircle
 10
156.2439178170121
 20
208.6261147443166
 30
0.0
 40
4.762499999999989
100
AcDbArc
 50
46.20203219356488
 51
133.7979678064351
  0
ARC
  5
2C2
330
1F
100
AcDbEntity
  8
基準ﾚｲﾔｸﾞﾙｰﾌﾟ
  6
Continuous
 62
     3
370
    50
100
AcDbCircle
 10
147.7145124467059
 20
208.6261147443166
 30
0.0
 40
4.762499999999989
100
AcDbArc
 50
46.20203219356488
 51
133.7979678064351
  0
ARC
  5
2C3
330
1F
100
AcDbEntity
  8
基準ﾚｲﾔｸﾞﾙｰﾌﾟ
  6
Continuous
 62
     3
370
    50
100
AcDbCircle
 10
140.8243709307492
 20
208.6261147443166
 30
0.0
 40
4.762499999999989
100
AcDbArc
 50
46.20203219356488
 51
133.7979678064351
  0
ARC
  5
2C4
330
1F
100
AcDbEntity
  8
基準ﾚｲﾔｸﾞﾙｰﾌﾟ
  6
Continuous
 62
     3
370
    50
100
AcDbCircle
 10
136.2038609446809
 20
208.6261147443166
 30
0.0
 40
4.762499999999989
100
AcDbArc
 50
60.98144007620775
 51
133.7979678064351
  0
ARC
  5
2C5
330
1F
100
AcDbEntity
  8
基準ﾚｲﾔｸﾞﾙｰﾌﾟ
  6
Continuous
 62
     3
370
    50
100
AcDbCircle
 10
134.2757053212584
 20
208.6261147443166
 30
0.0
 40
4.762499999999989
100
AcDbArc
 50
78.32084444485048
 51
133.7979678064351
  0
LINE
  5
2C6
330
1F
100
AcDbEntity
  8
GR1
  6
Continuous
 62
     3
370
    50
100
AcDbLine
 10
111.6322458215986
 20
220.8886147443167
 30
0.0
 11
111.6322458215986
 21
216.8886147443573
 31
0.0
  0
LINE
  5
2C7
330
1F
100
AcDbEntity
  8
GR1
  6
Continuous
 62
     3
370
    50
100
AcDbLine
 10
195.3322458215986
 20
188.1671174362481
 30
0.0
 11
198.5969886996185
 21
188.1671174362481
 31
0.0
  0
LINE
  5
2C8
330
1F
100
AcDbEntity
  8
図面枠ﾚｲﾔ
  6
DASHDOT
 62
     6
370
    25
100
AcDbLine
 10
450.0068864894981
 20
223.5733623148916
 30
0.0
 11
450.0068864894981
 21
212.8090189023844
 31
0.0
  0
LINE
  5
2C9
330
1F
100
AcDbEntity
  8
図面枠ﾚｲﾔ
  6
DASHDOT
 62
     6
370
    25
100
AcDbLine
 10
448.5068864894981
 20
223.5733623148916
 30
0.0
 11
448.5068864894981
 21
212.8090189023844
 31
0.0
  0
LINE
  5
2CA
330
1F
100
AcDbEntity
  8
図面枠ﾚｲﾔ
  6
DASHDOT
 62
     6
370
    25
100
AcDbLine
 10
368.0068864894979
 20
223.5733623148916
 30
0.0
 11
368.0068864894979
 21
212.8090189023844
 31
0.0
  0
LINE
  5
2CB
330
1F
100
AcDbEntity
  8
図面枠ﾚｲﾔ
  6
DASHDOT
 62
     6
370
    25
100
AcDbLine
 10
369.5068864894979
 20
223.5733623148916
 30
0.0
 11
369.5068864894979
 21
212.8090189023844
 31
0.0
  0
LINE
  5
2CC
330
1F
100
AcDbEntity
  8
図面枠ﾚｲﾔ
  6
DASHDOT
 62
     6
370
    25
100
AcDbLine
 10
206.6322458215988
 20
223.5733623148915
 30
0.0
 11
206.6322458215988
 21
212.8090189023843
 31
0.0
  0
LINE
  5
2CD
330
1F
100
AcDbEntity
  8
図面枠ﾚｲﾔ
  6
DASHDOT
 62
     6
370
    25
100
AcDbLine
 10
205.1322458215988
 20
223.5733623148915
 30
0.0
 11
205.1322458215988
 21
212.8090189023843
 31
0.0
  0
LINE
  5
2CE
330
1F
100
AcDbEntity
  8
図面枠ﾚｲﾔ
  6
DASHDOT
 62
     6
370
    25
100
AcDbLine
 10
124.6322458215986
 20
223.5733623148915
 30
0.0
 11
124.6322458215986
 21
212.8090189023843
 31
0.0
  0
LINE
  5
2CF
330
1F
100
AcDbEntity
  8
図面枠ﾚｲﾔ
  6
DASHDOT
 62
     6
370
    25
100
AcDbLine
 10
126.1322458215986
 20
223.5733623148915
 30
0.0
 11
126.1322458215986
 21
212.8090189023843
 31
0.0
  0
LINE
  5
2D0
330
1F
100
AcDbEntity
  8
GR1
  6
DASHDOT
 62
     6
370
    25
100
AcDbLine
 10
441.820729266471
 20
371.5636147443519
 30
0.0
 11
455.9444612354177
 21
371.5636147443519
 31
0.0
  0
LINE
  5
2D1
330
1F
100
AcDbEntity
  8
GR1
  6
DASHDOT
 62
     6
370
    25
100
AcDbLine
 10
450.006886489498
 20
365.530010192734
 30
0.0
 11
450.006886489498
 21
379.6976046833234
 31
0.0
  0
LINE
  5
2D2
330
1F
100
AcDbEntity
  8
GR1
  6
DASHDOT
 62
     6
370
    25
100
AcDbLine
 10
442.0400418746845
 20
373.0636147443519
 30
0.0
 11
457.041024276485
 21
373.0636147443519
 31
0.0
  0
LINE
  5
2D3
330
1F
100
AcDbEntity
  8
GR1
  6
DASHDOT
 62
     6
370
    25
100
AcDbLine
 10
448.506886489498
 20
365.1791100195925
 30
0.0
 11
448.506886489498
 21
379.4782920751099
 31
0.0
  0
LINE
  5
2D4
330
1F
100
AcDbEntity
  8
GR1
  6
DASHDOT
 62
     6
370
    25
100
AcDbLine
 10
376.193043712525
 20
371.5636147443519
 30
0.0
 11
362.0693117435783
 21
371.5636147443519
 31
0.0
  0
LINE
  5
2D5
330
1F
100
AcDbEntity
  8
GR1
  6
DASHDOT
 62
     6
370
    25
100
AcDbLine
 10
368.006886489498
 20
365.530010192734
 30
0.0
 11
368.006886489498
 21
379.6976046833234
 31
0.0
  0
LINE
  5
2D6
330
1F
100
AcDbEntity
  8
GR1
  6
DASHDOT
 62
     6
370
    25
100
AcDbLine
 10
375.9737311043115
 20
373.0636147443519
 30
0.0
 11
360.972748702511
 21
373.0636147443519
 31
0.0
  0
LINE
  5
2D7
330
1F
100
AcDbEntity
  8
GR1
  6
DASHDOT
 62
     6
370
    25
100
AcDbLine
 10
369.506886489498
 20
365.1791100195925
 30
0.0
 11
369.506886489498
 21
379.4782920751099
 31
0.0
  0
LINE
  5
2D8
330
1F
100
AcDbEntity
  8
GR1
  6
DASHDOT
 62
     6
370
    25
100
AcDbLine
 10
441.820729266471
 20
292.5636147443519
 30
0.0
 11
455.9444612354177
 21
292.5636147443519
 31
0.0
  0
LINE
  5
2D9
330
1F
100
AcDbEntity
  8
GR1
  6
DASHDOT
 62
     6
370
    25
100
AcDbLine
 10
450.006886489498
 20
298.5972192959697
 30
0.0
 11
450.006886489498
 21
284.4296248053803
 31
0.0
  0
LINE
  5
2DA
330
1F
100
AcDbEntity
  8
GR1
  6
DASHDOT
 62
     6
370
    25
100
AcDbLine
 10
442.0400418746845
 20
291.0636147443519
 30
0.0
 11
457.041024276485
 21
291.0636147443519
 31
0.0
  0
LINE
  5
2DB
330
1F
100
AcDbEntity
  8
GR1
  6
DASHDOT
 62
     6
370
    25
100
AcDbLine
 10
448.506886489498
 20
298.9481194691112
 30
0.0
 11
448.506886489498
 21
284.6489374135938
 31
0.0
  0
LINE
  5
2DC
330
1F
100
AcDbEntity
  8
GR1
  6
DASHDOT
 62
     6
370
    25
100
AcDbLine
 10
376.193043712525
 20
292.5636147443519
 30
0.0
 11
362.0693117435783
 21
292.5636147443519
 31
0.0
  0
LINE
  5
2DD
330
1F
100
AcDbEntity
  8
GR1
  6
DASHDOT
 62
     6
370
    25
100
AcDbLine
 10
368.006886489498
 20
298.5972192959697
 30
0.0
 11
368.006886489498
 21
284.4296248053803
 31
0.0
  0
LINE
  5
2DE
330
1F
100
AcDbEntity
  8
GR1
  6
DASHDOT
 62
     6
370
    25
100
AcDbLine
 10
375.9737311043115
 20
291.0636147443519
 30
0.0
 11
360.972748702511
 21
291.0636147443519
 31
0.0
  0
LINE
  5
2DF
330
1F
100
AcDbEntity
  8
GR1
  6
DASHDOT
 62
     6
370
    25
100
AcDbLine
 10
369.506886489498
 20
298.9481194691112
 30
0.0
 11
369.506886489498
 21
284.6489374135938
 31
0.0
  0
LINE
  5
2E0
330
1F
100
AcDbEntity
  8
図面枠ﾚｲﾔ
  6
Continuous
 62
     3
370
    50
100
AcDbLine
 10
199.3322458215987
 20
186.723741763274
 30
0.0
 11
199.3322458215987
 21
178.0634877254296
 31
0.0
  0
TEXT
  5
2E1
330
1F
100
AcDbEntity
  8
GR1
  6
Continuous
 62
     7
370
    25
100
AcDbText
 10
482.1065673828125
 20
127.89111328125
 30
0.0
 40
4.0
  1
１７７
 50
90.0
 41
0.9264705882352942
  7
FX_VECTOR
 72
     5
 11
482.1065673828125
 21
136.89111328125
 31
0.0
100
AcDbText
  0
LINE
  5
2E2
330
1F
100
AcDbEntity
  8
GR1
  6
Continuous
 62
     7
370
    25
100
AcDbLine
 10
464.0068864894979
 20
220.8886147443518
 30
0.0
 11
484.1066094811877
 21
220.8886147443518
 31
0.0
  0
LINE
  5
2E3
330
1F
100
AcDbEntity
  8
GR1
  6
Continuous
 62
     7
370
    25
100
AcDbLine
 10
370.0068864409942
 20
43.89361474838205
 30
0.0
 11
484.1066094811877
 21
43.89361474838205
 31
0.0
  0
LINE
  5
2E4
330
1F
100
AcDbEntity
  8
GR1
  6
Continuous
 62
     7
370
    25
100
AcDbLine
 10
483.1066094811877
 20
220.8886147443518
 30
0.0
 11
483.1066094811877
 21
43.89361474838205
 31
0.0
  0
INSERT
  5
2E5
330
1F
100
AcDbEntity
  8
GR1
  6
Continuous
 62
     7
370
    25
100
AcDbBlockReference
  2
FXTIP_ARROW_S
 10
483.1066094811877
 20
220.8886147443518
 30
0.0
 41
4.0
 42
4.0
 50
90.0
  0
INSERT
  5
2E6
330
1F
100
AcDbEntity
  8
GR1
  6
Continuous
 62
     7
370
    25
100
AcDbBlockReference
  2
FXTIP_ARROW_E
 10
483.1066094811877
 20
43.89361474838205
 30
0.0
 41
4.0
 42
4.0
 50
270.0
  0
TEXT
  5
2E7
330
1F
100
AcDbEntity
  8
GR1
  6
Continuous
 62
     7
370
    25
100
AcDbText
 10
472.1065673828125
 20
160.39111328125
 30
0.0
 40
4.0
  1
１１２
 50
90.0
 41
0.9264705882352942
  7
FX_VECTOR
 72
     5
 11
472.1065673828125
 21
169.39111328125
 31
0.0
100
AcDbText
  0
LINE
  5
2E8
330
1F
100
AcDbEntity
  8
GR1
  6
Continuous
 62
     7
370
    25
100
AcDbLine
 10
439.0666876952988
 20
108.8936147443518
 30
0.0
 11
474.1066094811877
 21
108.8936147443518
 31
0.0
  0
LINE
  5
2E9
330
1F
100
AcDbEntity
  8
GR1
  6
Continuous
 62
     7
370
    25
100
AcDbLine
 10
473.1066094811877
 20
108.8936147443518
 30
0.0
 11
473.1066094811877
 21
220.8886147443518
 31
0.0
  0
INSERT
  5
2EA
330
1F
100
AcDbEntity
  8
GR1
  6
Continuous
 62
     7
370
    25
100
AcDbBlockReference
  2
FXTIP_ARROW_S
 10
473.1066094811877
 20
108.8936147443518
 30
0.0
 41
4.0
 42
4.0
 50
270.0
  0
INSERT
  5
2EB
330
1F
100
AcDbEntity
  8
GR1
  6
Continuous
 62
     7
370
    25
100
AcDbBlockReference
  2
FXTIP_ARROW_E
 10
473.1066094811877
 20
220.8886147443518
 30
0.0
 41
4.0
 42
4.0
 50
90.0
  0
TEXT
  5
2EC
330
1F
100
AcDbEntity
  8
GR1
  6
Continuous
 62
     7
370
    25
100
AcDbText
 10
492.1246948242188
 20
327.5636291503906
 30
0.0
 40
4.0
  1
１０８
 50
90.0
 41
0.9264705882352942
  7
FX_VECTOR
 72
     5
 11
492.1246948242188
 21
336.5636291503906
 31
0.0
100
AcDbText
  0
LINE
  5
2ED
330
1F
100
AcDbEntity
  8
GR1
  6
Continuous
 62
     7
370
    25
100
AcDbLine
 10
450.006886489498
 20
278.0636147443519
 30
0.0
 11
494.1247252495742
 21
278.0636147443519
 31
0.0
  0
LINE
  5
2EE
330
1F
100
AcDbEntity
  8
GR1
  6
Continuous
 62
     7
370
    25
100
AcDbLine
 10
450.006886489498
 20
386.0636147443519
 30
0.0
 11
494.1247252495742
 21
386.0636147443519
 31
0.0
  0
LINE
  5
2EF
330
1F
100
AcDbEntity
  8
GR1
  6
Continuous
 62
     7
370
    25
100
AcDbLine
 10
493.1247252495742
 20
278.0636147443519
 30
0.0
 11
493.1247252495742
 21
386.0636147443519
 31
0.0
  0
INSERT
  5
2F0
330
1F
100
AcDbEntity
  8
GR1
  6
Continuous
 62
     7
370
    25
100
AcDbBlockReference
  2
FXTIP_ARROW_S
 10
493.1247252495742
 20
278.0636147443519
 30
0.0
 41
4.0
 42
4.0
 50
270.0
  0
INSERT
  5
2F1
330
1F
100
AcDbEntity
  8
GR1
  6
Continuous
 62
     7
370
    25
100
AcDbBlockReference
  2
FXTIP_ARROW_E
 10
493.1247252495742
 20
386.0636147443519
 30
0.0
 41
4.0
 42
4.0
 50
90.0
  0
TEXT
  5
2F2
330
1F
100
AcDbEntity
  8
GR1
  6
Continuous
 62
     7
370
    25
100
AcDbText
 10
482.1246948242188
 20
329.0636291503906
 30
0.0
 40
4.0
  1
８２
 50
90.0
 41
0.9545454545454547
  7
FX_VECTOR
 72
     5
 11
482.1246948242188
 21
335.0636291503906
 31
0.0
100
AcDbText
  0
LINE
  5
2F3
330
1F
100
AcDbEntity
  8
GR1
  6
Continuous
 62
     7
370
    25
100
AcDbLine
 10
458.1627587781232
 20
373.0636147443519
 30
0.0
 11
484.1247252495742
 21
373.0636147443519
 31
0.0
  0
LINE
  5
2F4
330
1F
100
AcDbEntity
  8
GR1
  6
Continuous
 62
     7
370
    25
100
AcDbLine
 10
458.1627587781234
 20
291.0636147443519
 30
0.0
 11
484.1247252495742
 21
291.0636147443519
 31
0.0
  0
LINE
  5
2F5
330
1F
100
AcDbEntity
  8
GR1
  6
Continuous
 62
     7
370
    25
100
AcDbLine
 10
483.1247252495742
 20
373.0636147443519
 30
0.0
 11
483.1247252495742
 21
291.0636147443519
 31
0.0
  0
INSERT
  5
2F6
330
1F
100
AcDbEntity
  8
GR1
  6
Continuous
 62
     7
370
    25
100
AcDbBlockReference
  2
FXTIP_ARROW_S
 10
483.1247252495742
 20
373.0636147443519
 30
0.0
 41
4.0
 42
4.0
 50
90.0
  0
INSERT
  5
2F7
330
1F
100
AcDbEntity
  8
GR1
  6
Continuous
 62
     7
370
    25
100
AcDbBlockReference
  2
FXTIP_ARROW_E
 10
483.1247252495742
 20
291.0636147443519
 30
0.0
 41
4.0
 42
4.0
 50
270.0
  0
TEXT
  5
2F8
330
1F
100
AcDbEntity
  8
GR1
  6
Continuous
 62
     7
370
    25
100
AcDbText
 10
472.1246948242188
 20
329.0636291503906
 30
0.0
 40
4.0
  1
７９
 50
90.0
 41
0.9545454545454547
  7
FX_VECTOR
 72
     5
 11
472.1246948242188
 21
335.0636291503906
 31
0.0
100
AcDbText
  0
LINE
  5
2F9
330
1F
100
AcDbEntity
  8
GR1
  6
Continuous
 62
     7
370
    25
100
AcDbLine
 10
456.6627587781232
 20
292.5636147443519
 30
0.0
 11
474.1247252495742
 21
292.5636147443519
 31
0.0
  0
LINE
  5
2FA
330
1F
100
AcDbEntity
  8
GR1
  6
Continuous
 62
     7
370
    25
100
AcDbLine
 10
456.6627587781232
 20
371.5636147443519
 30
0.0
 11
474.1247252495742
 21
371.5636147443519
 31
0.0
  0
LINE
  5
2FB
330
1F
100
AcDbEntity
  8
GR1
  6
Continuous
 62
     7
370
    25
100
AcDbLine
 10
473.1247252495742
 20
292.5636147443519
 30
0.0
 11
473.1247252495742
 21
371.5636147443519
 31
0.0
  0
INSERT
  5
2FC
330
1F
100
AcDbEntity
  8
GR1
  6
Continuous
 62
     7
370
    25
100
AcDbBlockReference
  2
FXTIP_ARROW_S
 10
473.1247252495742
 20
292.5636147443519
 30
0.0
 41
4.0
 42
4.0
 50
270.0
  0
INSERT
  5
2FD
330
1F
100
AcDbEntity
  8
GR1
  6
Continuous
 62
     7
370
    25
100
AcDbBlockReference
  2
FXTIP_ARROW_E
 10
473.1247252495742
 20
371.5636147443519
 30
0.0
 41
4.0
 42
4.0
 50
90.0
  0
TEXT
  5
2FE
330
1F
100
AcDbEntity
  8
GR1
  6
Continuous
 62
     7
370
    25
100
AcDbText
 10
386.0068969726562
 20
34.8165283203125
 30
0.0
 40
4.0
  1
４０
 41
0.9545454545454547
  7
FX_VECTOR
 72
     5
 11
392.0068969726562
 21
34.8165283203125
 31
0.0
100
AcDbText
  0
LINE
  5
2FF
330
1F
100
AcDbEntity
  8
GR1
  6
Continuous
 62
     7
370
    25
100
AcDbLine
 10
369.0068864894979
 20
40.48352675347684
 30
0.0
 11
369.0068864894979
 21
32.81653099965956
 31
0.0
  0
LINE
  5
300
330
1F
100
AcDbEntity
  8
GR1
  6
Continuous
 62
     7
370
    25
100
AcDbLine
 10
409.0068864894979
 20
134.8988858578485
 30
0.0
 11
409.0068864894979
 21
32.81653099965956
 31
0.0
  0
LINE
  5
301
330
1F
100
AcDbEntity
  8
GR1
  6
Continuous
 62
     7
370
    25
100
AcDbLine
 10
369.0068864894979
 20
33.81653099965956
 30
0.0
 11
409.0068864894979
 21
33.81653099965956
 31
0.0
  0
INSERT
  5
302
330
1F
100
AcDbEntity
  8
GR1
  6
Continuous
 62
     7
370
    25
100
AcDbBlockReference
  2
FXTIP_ARROW_S
 10
369.0068864894979
 20
33.81653099965956
 30
0.0
 41
4.0
 42
4.0
 50
180.0
  0
INSERT
  5
303
330
1F
100
AcDbEntity
  8
GR1
  6
Continuous
 62
     7
370
    25
100
AcDbBlockReference
  2
FXTIP_ARROW_E
 10
409.0068864894979
 20
33.81653099965956
 30
0.0
 41
4.0
 42
4.0
 50
360.0
  0
TEXT
  5
304
330
1F
100
AcDbEntity
  8
GR1
  6
Continuous
 62
     7
370
    25
100
AcDbText
 10
342.4872787464745
 20
390.0979354847557
 30
0.0
 40
4.0
  1
４－１１
 50
45.0
 41
0.9130434782608648
  7
FX_VECTOR
 72
     5
 11
350.972560120713
 21
398.5832168589943
 31
0.0
100
AcDbText
  0
LINE
  5
305
330
1F
100
AcDbEntity
  8
GR1
  6
Continuous
 62
     7
370
    25
100
AcDbLine
 10
363.4106924117855
 20
369.8816342290124
 30
0.0
 11
342.8408508528709
 21
390.4514757879271
 31
0.0
  0
LINE
  5
306
330
1F
100
AcDbEntity
  8
GR1
  6
Continuous
 62
     7
370
    25
100
AcDbLine
 10
371.1888670048374
 20
377.6598088220644
 30
0.0
 11
350.6190254459228
 21
398.229650380979
 31
0.0
  0
LINE
  5
307
330
1F
100
AcDbEntity
  8
GR1
  6
Continuous
 62
     7
370
    25
100
AcDbLine
 10
343.5479576340574
 20
389.7443690067405
 30
0.0
 11
351.3261322271094
 21
397.5225435997925
 31
0.0
  0
INSERT
  5
308
330
1F
100
AcDbEntity
  8
GR1
  6
Continuous
 62
     7
370
    25
100
AcDbBlockReference
  2
FXTIP_ARROW_S
 10
343.5479576340574
 20
389.7443690067405
 30
0.0
 41
4.0
 42
4.0
 50
225.0
  0
INSERT
  5
309
330
1F
100
AcDbEntity
  8
GR1
  6
Continuous
 62
     7
370
    25
100
AcDbBlockReference
  2
FXTIP_ARROW_E
 10
351.3261322271094
 20
397.5225435997925
 30
0.0
 41
4.0
 42
4.0
 50
45.0
  0
TEXT
  5
30A
330
1F
100
AcDbEntity
  8
GR1
  6
Continuous
 62
     7
370
    25
100
AcDbText
 10
404.5068969726562
 20
239.2849731445312
 30
0.0
 40
4.0
  1
１０８
 41
0.9264705882352942
  7
FX_VECTOR
 72
     5
 11
413.5068969726562
 21
239.2849731445312
 31
0.0
100
AcDbText
  0
LINE
  5
30B
330
1F
100
AcDbEntity
  8
GR1
  6
Continuous
 62
     7
370
    25
100
AcDbLine
 10
355.006886489498
 20
291.0636147443519
 30
0.0
 11
355.006886489498
 21
237.284991351048
 31
0.0
  0
LINE
  5
30C
330
1F
100
AcDbEntity
  8
GR1
  6
Continuous
 62
     7
370
    25
100
AcDbLine
 10
463.006886489498
 20
291.5636147443519
 30
0.0
 11
463.006886489498
 21
237.284991351048
 31
0.0
  0
LINE
  5
30D
330
1F
100
AcDbEntity
  8
GR1
  6
Continuous
 62
     7
370
    25
100
AcDbLine
 10
355.006886489498
 20
238.284991351048
 30
0.0
 11
463.006886489498
 21
238.284991351048
 31
0.0
  0
INSERT
  5
30E
330
1F
100
AcDbEntity
  8
GR1
  6
Continuous
 62
     7
370
    25
100
AcDbBlockReference
  2
FXTIP_ARROW_S
 10
355.006886489498
 20
238.284991351048
 30
0.0
 41
4.0
 42
4.0
 50
180.0
  0
INSERT
  5
30F
330
1F
100
AcDbEntity
  8
GR1
  6
Continuous
 62
     7
370
    25
100
AcDbBlockReference
  2
FXTIP_ARROW_E
 10
463.006886489498
 20
238.284991351048
 30
0.0
 41
4.0
 42
4.0
 50
360.0
  0
TEXT
  5
310
330
1F
100
AcDbEntity
  8
GR1
  6
Continuous
 62
     7
370
    25
100
AcDbText
 10
406.0068969726562
 20
249.2849884033203
 30
0.0
 40
4.0
  1
８２
 41
0.9545454545454547
  7
FX_VECTOR
 72
     5
 11
412.0068969726562
 21
249.2849884033203
 31
0.0
100
AcDbText
  0
LINE
  5
311
330
1F
100
AcDbEntity
  8
GR1
  6
Continuous
 62
     7
370
    25
100
AcDbLine
 10
368.006886489498
 20
282.7308165770158
 30
0.0
 11
368.006886489498
 21
247.284991351048
 31
0.0
  0
LINE
  5
312
330
1F
100
AcDbEntity
  8
GR1
  6
Continuous
 62
     7
370
    25
100
AcDbLine
 10
450.006886489498
 20
282.7993833225995
 30
0.0
 11
450.006886489498
 21
247.284991351048
 31
0.0
  0
LINE
  5
313
330
1F
100
AcDbEntity
  8
GR1
  6
Continuous
 62
     7
370
    25
100
AcDbLine
 10
368.006886489498
 20
248.284991351048
 30
0.0
 11
450.006886489498
 21
248.284991351048
 31
0.0
  0
INSERT
  5
314
330
1F
100
AcDbEntity
  8
GR1
  6
Continuous
 62
     7
370
    25
100
AcDbBlockReference
  2
FXTIP_ARROW_S
 10
368.006886489498
 20
248.284991351048
 30
0.0
 41
4.0
 42
4.0
 50
180.0
  0
INSERT
  5
315
330
1F
100
AcDbEntity
  8
GR1
  6
Continuous
 62
     7
370
    25
100
AcDbBlockReference
  2
FXTIP_ARROW_E
 10
450.006886489498
 20
248.284991351048
 30
0.0
 41
4.0
 42
4.0
 50
360.0
  0
TEXT
  5
316
330
1F
100
AcDbEntity
  8
GR1
  6
Continuous
 62
     7
370
    25
100
AcDbText
 10
406.0068969726562
 20
259.2850036621094
 30
0.0
 40
4.0
  1
７９
 41
0.9545454545454547
  7
FX_VECTOR
 72
     5
 11
412.0068969726562
 21
259.2850036621094
 31
0.0
100
AcDbText
  0
LINE
  5
317
330
1F
100
AcDbEntity
  8
GR1
  6
Continuous
 62
     7
370
    25
100
AcDbLine
 10
369.506886489498
 20
284.2993833225995
 30
0.0
 11
369.506886489498
 21
257.284991351048
 31
0.0
  0
LINE
  5
318
330
1F
100
AcDbEntity
  8
GR1
  6
Continuous
 62
     7
370
    25
100
AcDbLine
 10
448.506886489498
 20
284.2993833225995
 30
0.0
 11
448.506886489498
 21
257.284991351048
 31
0.0
  0
LINE
  5
319
330
1F
100
AcDbEntity
  8
GR1
  6
Continuous
 62
     7
370
    25
100
AcDbLine
 10
369.506886489498
 20
258.284991351048
 30
0.0
 11
448.506886489498
 21
258.284991351048
 31
0.0
  0
INSERT
  5
31A
330
1F
100
AcDbEntity
  8
GR1
  6
Continuous
 62
     7
370
    25
100
AcDbBlockReference
  2
FXTIP_ARROW_S
 10
369.506886489498
 20
258.284991351048
 30
0.0
 41
4.0
 42
4.0
 50
180.0
  0
INSERT
  5
31B
330
1F
100
AcDbEntity
  8
GR1
  6
Continuous
 62
     7
370
    25
100
AcDbBlockReference
  2
FXTIP_ARROW_E
 10
448.506886489498
 20
258.284991351048
 30
0.0
 41
4.0
 42
4.0
 50
360.0
  0
TEXT
  5
31C
330
1F
100
AcDbEntity
  8
GR1
  6
Continuous
 62
     7
370
    25
100
AcDbText
 10
211.6322631835938
 20
240.3701171875
 30
0.0
 40
4.0
  1
１０１
 41
0.9264705882352942
  7
FX_VECTOR
 72
     5
 11
220.6322631835938
 21
240.3701171875
 31
0.0
100
AcDbText
  0
LINE
  5
31D
330
1F
100
AcDbEntity
  8
GR1
  6
Continuous
 62
     7
370
    25
100
AcDbLine
 10
165.6322458215986
 20
221.8886147443518
 30
0.0
 11
165.6322458215986
 21
240.3701162923395
 31
0.0
  0
LINE
  5
31E
330
1F
100
AcDbEntity
  8
GR1
  6
Continuous
 62
     7
370
    25
100
AcDbLine
 10
266.6322458215985
 20
166.2936147443519
 30
0.0
 11
266.6322458215985
 21
240.3701162923395
 31
0.0
  0
LINE
  5
31F
330
1F
100
AcDbEntity
  8
GR1
  6
Continuous
 62
     7
370
    25
100
AcDbLine
 10
165.6322458215986
 20
239.3701162923395
 30
0.0
 11
266.6322458215985
 21
239.3701162923395
 31
0.0
  0
INSERT
  5
320
330
1F
100
AcDbEntity
  8
GR1
  6
Continuous
 62
     7
370
    25
100
AcDbBlockReference
  2
FXTIP_ARROW_S
 10
165.6322458215986
 20
239.3701162923395
 30
0.0
 41
4.0
 42
4.0
 50
180.0
  0
INSERT
  5
321
330
1F
100
AcDbEntity
  8
GR1
  6
Continuous
 62
     7
370
    25
100
AcDbBlockReference
  2
FXTIP_ARROW_E
 10
266.6322458215985
 20
239.3701162923395
 30
0.0
 41
4.0
 42
4.0
 50
360.0
  0
TEXT
  5
322
330
1F
100
AcDbEntity
  8
GR1
  6
Continuous
 62
     7
370
    25
100
AcDbText
 10
310.9448152465271
 20
268.3238552049069
 30
0.0
 40
4.0
  1
１３１
 50
33.43036270141624
 41
0.9264705882352977
  7
FX_VECTOR
 72
     5
 11
318.4558195190979
 21
273.2821628614993
 31
0.0
100
AcDbText
  0
LINE
  5
323
330
1F
100
AcDbEntity
  8
GR1
  6
Continuous
 62
     7
370
    25
100
AcDbLine
 10
300.2318223430741
 20
260.2569403406764
 30
0.0
 11
409.0068864894979
 21
332.0636147443519
 31
0.0
  0
INSERT
  5
324
330
1F
100
AcDbEntity
  8
GR1
  6
Continuous
 62
     7
370
    25
100
AcDbBlockReference
  2
FXTIP_ARROW_S
 10
300.2318223430741
 20
260.2569403406764
 30
0.0
 41
4.0
 42
4.0
 50
213.430362937895
  0
TEXT
  5
325
330
1F
100
AcDbEntity
  8
GR1
  6
Continuous
 62
     7
370
    25
100
AcDbText
 10
110.7036209106445
 20
102.8936157226562
 30
0.0
 40
4.0
  1
%%c１３０
 50
90.0
 41
0.9130434782608696
  7
FX_VECTOR
 72
     5
 11
110.7036209106445
 21
114.8936157226562
 31
0.0
100
AcDbText
  0
LINE
  5
326
330
1F
100
AcDbEntity
  8
GR1
  6
Continuous
 62
     7
370
    25
100
AcDbLine
 10
164.6322458215986
 20
43.89361872546527
 30
0.0
 11
110.703616198004
 21
43.89361872546527
 31
0.0
  0
LINE
  5
327
330
1F
100
AcDbEntity
  8
GR1
  6
Continuous
 62
     7
370
    25
100
AcDbLine
 10
164.6322458215986
 20
173.8936107632384
 30
0.0
 11
110.703616198004
 21
173.8936107632384
 31
0.0
  0
LINE
  5
328
330
1F
100
AcDbEntity
  8
GR1
  6
Continuous
 62
     7
370
    25
100
AcDbLine
 10
111.703616198004
 20
43.89361872546527
 30
0.0
 11
111.703616198004
 21
173.8936107632384
 31
0.0
  0
INSERT
  5
329
330
1F
100
AcDbEntity
  8
GR1
  6
Continuous
 62
     7
370
    25
100
AcDbBlockReference
  2
FXTIP_ARROW_S
 10
111.703616198004
 20
43.89361872546527
 30
0.0
 41
4.0
 42
4.0
 50
270.0
  0
INSERT
  5
32A
330
1F
100
AcDbEntity
  8
GR1
  6
Continuous
 62
     7
370
    25
100
AcDbBlockReference
  2
FXTIP_ARROW_E
 10
111.703616198004
 20
173.8936107632384
 30
0.0
 41
4.0
 42
4.0
 50
90.0
  0
ARC
  5
32B
330
1F
100
AcDbEntity
  8
基準ﾚｲﾔｸﾞﾙｰﾌﾟ
  6
Continuous
 62
     3
370
    50
100
AcDbCircle
 10
369.0068864894981
 20
108.8936147443518
 30
0.0
 40
65.0
100
AcDbArc
 50
127.7356497783181
 51
44.21174065810125
  0
LINE
  5
32C
330
1F
100
AcDbEntity
  8
基準ﾚｲﾔｸﾞﾙｰﾌﾟ
  6
Continuous
 62
     3
370
    50
100
AcDbLine
 10
139.3822458215985
 20
118.8936147443516
 30
0.0
 11
139.1322458215986
 21
118.8936147443516
 31
0.0
  0
LINE
  5
32D
330
1F
100
AcDbEntity
  8
基準ﾚｲﾔｸﾞﾙｰﾌﾟ
  6
Continuous
 62
     3
370
    50
100
AcDbLine
 10
139.3822458215984
 20
98.89361474435196
 30
0.0
 11
139.1322458215986
 21
98.89361474435196
 31
0.0
  0
TEXT
  5
32E
330
1F
100
AcDbEntity
  8
基準ﾚｲﾔｸﾞﾙｰﾌﾟ
  6
Continuous
 62
     7
370
    25
100
AcDbText
 10
162.6322479248047
 20
22.89471435494515
 30
0.0
 40
4.0
  1
５３
 41
0.9545454545454547
  7
FX_VECTOR
 72
     5
 11
168.6322479248047
 21
22.89471435599235
 31
0.0
100
AcDbText
  0
LINE
  5
32F
330
1F
100
AcDbEntity
  8
基準ﾚｲﾔｸﾞﾙｰﾌﾟ
  6
Continuous
 62
     7
370
    25
100
AcDbLine
 10
139.3822458215984
 20
21.89471488849181
 30
0.0
 11
191.8822458215988
 21
21.89471488849181
 31
0.0
  0
INSERT
  5
330
330
1F
100
AcDbEntity
  8
基準ﾚｲﾔｸﾞﾙｰﾌﾟ
  6
Continuous
 62
     7
370
    25
100
AcDbBlockReference
  2
FXTIP_ARROW_S
 10
139.3822458215984
 20
21.89471488849181
 30
0.0
 41
4.0
 42
4.0
 50
180.0
  0
INSERT
  5
331
330
1F
100
AcDbEntity
  8
基準ﾚｲﾔｸﾞﾙｰﾌﾟ
  6
Continuous
 62
     7
370
    25
100
AcDbBlockReference
  2
FXTIP_ARROW_E
 10
191.8822458215988
 20
21.89471488849181
 30
0.0
 41
4.0
 42
4.0
 50
360.0
  0
LINE
  5
332
330
1F
100
AcDbEntity
  8
基準ﾚｲﾔｸﾞﾙｰﾌﾟ
  6
Continuous
 62
     7
370
    25
100
AcDbLine
 10
139.3822458215984
 20
93.89361474435175
 30
0.0
 11
139.3822458215984
 21
20.89471488849181
 31
0.0
  0
LINE
  5
333
330
1F
100
AcDbEntity
  8
基準ﾚｲﾔｸﾞﾙｰﾌﾟ
  6
Continuous
 62
     7
370
    25
100
AcDbLine
 10
191.8822458215988
 20
93.89361474435177
 30
0.0
 11
191.8822458215988
 21
20.89471488849181
 31
0.0
  0
TEXT
  5
334
330
1F
100
AcDbEntity
  8
基準ﾚｲﾔｸﾞﾙｰﾌﾟ
  6
Continuous
 62
     7
370
    25
100
AcDbText
 10
162.6322479248047
 20
32.02975463814828
 30
0.0
 40
4.0
  1
３８
 41
0.9545454545454547
  7
FX_VECTOR
 72
     5
 11
168.6322479248047
 21
32.02975463919547
 31
0.0
100
AcDbText
  0
LINE
  5
335
330
1F
100
AcDbEntity
  8
基準ﾚｲﾔｸﾞﾙｰﾌﾟ
  6
Continuous
 62
     7
370
    25
100
AcDbLine
 10
146.6322458215985
 20
31.02975629552778
 30
0.0
 11
184.6322458215986
 21
31.02975629552778
 31
0.0
  0
INSERT
  5
336
330
1F
100
AcDbEntity
  8
基準ﾚｲﾔｸﾞﾙｰﾌﾟ
  6
Continuous
 62
     7
370
    25
100
AcDbBlockReference
  2
FXTIP_ARROW_S
 10
146.6322458215985
 20
31.02975629552778
 30
0.0
 41
4.0
 42
4.0
 50
180.0
  0
INSERT
  5
337
330
1F
100
AcDbEntity
  8
基準ﾚｲﾔｸﾞﾙｰﾌﾟ
  6
Continuous
 62
     7
370
    25
100
AcDbBlockReference
  2
FXTIP_ARROW_E
 10
184.6322458215986
 20
31.02975629552778
 30
0.0
 41
4.0
 42
4.0
 50
360.0
  0
LINE
  5
338
330
1F
100
AcDbEntity
  8
基準ﾚｲﾔｸﾞﾙｰﾌﾟ
  6
Continuous
 62
     7
370
    25
100
AcDbLine
 10
146.6322458215986
 20
46.0840621306638
 30
0.0
 11
146.6322458215985
 21
30.02975629552778
 31
0.0
  0
LINE
  5
339
330
1F
100
AcDbEntity
  8
基準ﾚｲﾔｸﾞﾙｰﾌﾟ
  6
Continuous
 62
     7
370
    25
100
AcDbLine
 10
184.6322458215986
 20
46.0840621306638
 30
0.0
 11
184.6322458215986
 21
30.02975629552778
 31
0.0
  0
LINE
  5
33A
330
1F
100
AcDbEntity
  8
基準ﾚｲﾔｸﾞﾙｰﾌﾟ
  6
Continuous
 62
     3
370
    50
100
AcDbLine
 10
140.6322458215986
 20
185.5365435884378
 30
0.0
 11
140.6322458215986
 21
185.3936147443518
 31
0.0
  0
LINE
  5
33B
330
1F
100
AcDbEntity
  8
基準ﾚｲﾔｸﾞﾙｰﾌﾟ
  6
Continuous
 62
     3
370
    50
100
AcDbLine
 10
142.5822458215986
 20
186.5365435884378
 30
0.0
 11
142.5822458215986
 21
178.2506859002658
 31
0.0
  0
LINE
  5
33C
330
1F
100
AcDbEntity
  8
基準ﾚｲﾔｸﾞﾙｰﾌﾟ
  6
Continuous
 62
     3
370
    50
100
AcDbLine
 10
189.6322458215986
 20
186.5365435884378
 30
0.0
 11
141.6322458215986
 21
186.5365435884378
 31
0.0
  0
LINE
  5
33D
330
1F
100
AcDbEntity
  8
基準ﾚｲﾔｸﾞﾙｰﾌﾟ
  6
Continuous
 62
     3
370
    50
100
AcDbLine
 10
192.1322458215986
 20
179.3936147443518
 30
0.0
 11
188.6822458215985
 21
179.3936147443518
 31
0.0
  0
LINE
  5
33E
330
1F
100
AcDbEntity
  8
基準ﾚｲﾔｸﾞﾙｰﾌﾟ
  6
Continuous
 62
     3
370
    50
100
AcDbLine
 10
188.6822458215985
 20
186.5365435884378
 30
0.0
 11
188.6822458215985
 21
178.2506859002658
 31
0.0
  0
LINE
  5
33F
330
1F
100
AcDbEntity
  8
GR1
  6
Continuous
 62
     3
370
    50
100
AcDbLine
 10
142.5822458215986
 20
185.3936147443518
 30
0.0
 11
139.1322458215986
 21
185.3936147443518
 31
0.0
  0
LINE
  5
340
330
1F
100
AcDbEntity
  8
基準ﾚｲﾔｸﾞﾙｰﾌﾟ
  6
Continuous
 62
     3
370
    50
100
AcDbLine
 10
188.6822458215985
 20
178.2506859002658
 30
0.0
 11
142.5822458215986
 21
178.2506859002658
 31
0.0
  0
LINE
  5
341
330
1F
100
AcDbEntity
  8
基準ﾚｲﾔｸﾞﾙｰﾌﾟ
  6
Continuous
 62
     3
370
    50
100
AcDbLine
 10
142.5822458215986
 20
179.3936147443518
 30
0.0
 11
139.1322458215986
 21
179.3936147443518
 31
0.0
  0
LINE
  5
342
330
1F
100
AcDbEntity
  8
基準ﾚｲﾔｸﾞﾙｰﾌﾟ
  6
Continuous
 62
     3
370
    50
100
AcDbLine
 10
141.6322458215986
 20
178.2506859002659
 30
0.0
 11
141.6322458215986
 21
179.3936147443518
 31
0.0
  0
LINE
  5
343
330
1F
100
AcDbEntity
  8
GR1
  6
Continuous
 62
     3
370
    50
100
AcDbLine
 10
141.6322458215986
 20
185.5436147443518
 30
0.0
 11
142.5822458215987
 21
185.5436147443518
 31
0.0
  0
ARC
  5
344
330
1F
100
AcDbEntity
  8
基準ﾚｲﾔｸﾞﾙｰﾌﾟ
  6
Continuous
 62
     3
370
    50
100
AcDbCircle
 10
141.6322458215986
 20
185.5365435884378
 30
0.0
 40
1.0
100
AcDbArc
 50
90.0
 51
180.0
  0
LINE
  5
345
330
1F
100
AcDbEntity
  8
基準ﾚｲﾔｸﾞﾙｰﾌﾟ
  6
Continuous
 62
     3
370
    50
100
AcDbLine
 10
141.6322458215986
 20
178.2506859002658
 30
0.0
 11
140.6322458215986
 21
178.2506859002658
 31
0.0
  0
LINE
  5
346
330
1F
100
AcDbEntity
  8
基準ﾚｲﾔｸﾞﾙｰﾌﾟ
  6
Continuous
 62
     3
370
    50
100
AcDbLine
 10
140.6322458215986
 20
179.3936147443518
 30
0.0
 11
140.6322458215986
 21
178.2506859002658
 31
0.0
  0
LINE
  5
347
330
1F
100
AcDbEntity
  8
基準ﾚｲﾔｸﾞﾙｰﾌﾟ
  6
Continuous
 62
     3
370
    50
100
AcDbLine
 10
141.6322458215986
 20
185.3936147443519
 30
0.0
 11
141.6322458215986
 21
185.5436147443518
 31
0.0
  0
ARC
  5
348
330
1F
100
AcDbEntity
  8
基準ﾚｲﾔｸﾞﾙｰﾌﾟ
  6
Continuous
 62
     3
370
    50
100
AcDbCircle
 10
142.5822458215986
 20
165.8665023396348
 30
0.0
 40
12.38418356063107
100
AcDbArc
 50
59.46029506829466
 51
90.0
  0
LINE
  5
349
330
1F
100
AcDbEntity
  8
基準ﾚｲﾔｸﾞﾙｰﾌﾟ
  6
Continuous
 62
     3
370
    50
100
AcDbLine
 10
181.5917333975996
 20
175.8543833803504
 30
0.0
 11
182.6322458215986
 21
174.2936147443519
 31
0.0
  0
ARC
  5
34A
330
1F
100
AcDbEntity
  8
基準ﾚｲﾔｸﾞﾙｰﾌﾟ
  6
Continuous
 62
     3
370
    50
100
AcDbCircle
 10
188.6822458215985
 20
165.8665023396348
 30
0.0
 40
12.38418356063107
100
AcDbArc
 50
90.0
 51
120.5397049317054
  0
ARC
  5
34B
330
1F
100
AcDbEntity
  8
基準ﾚｲﾔｸﾞﾙｰﾌﾟ
  6
Continuous
 62
     3
370
    50
100
AcDbCircle
 10
147.3180721760764
 20
173.8936147443518
 30
0.0
 40
3.064173645522184
100
AcDbArc
 50
359.9999255587243
 51
59.46029506829463
  0
ARC
  5
34C
330
1F
100
AcDbEntity
  8
基準ﾚｲﾔｸﾞﾙｰﾌﾟ
  6
Continuous
 62
     3
370
    50
100
AcDbCircle
 10
183.9464194671208
 20
173.8936147443518
 30
0.0
 40
3.064173645522184
100
AcDbArc
 50
120.5397049317054
 51
179.9999999999995
  0
LINE
  5
34D
330
1F
100
AcDbEntity
  8
基準ﾚｲﾔｸﾞﾙｰﾌﾟ
  6
Continuous
 62
     3
370
    50
100
AcDbLine
 10
141.6322458215985
 20
91.39361474435177
 30
0.0
 11
141.6322458215985
 21
126.3936147443518
 31
0.0
  0
ARC
  5
34E
330
1F
100
AcDbEntity
  8
基準ﾚｲﾔｸﾞﾙｰﾌﾟ
  6
Continuous
 62
     3
370
    50
100
AcDbCircle
 10
165.6322458215986
 20
-26.10638525564823
 30
0.0
 40
200.0
100
AcDbArc
 50
85.20767813702541
 51
94.79232186297465
  0
LINE
  5
34F
330
1F
100
AcDbEntity
  8
基準ﾚｲﾔｸﾞﾙｰﾌﾟ
  6
Continuous
 62
     3
370
    50
100
AcDbLine
 10
146.6322458215986
 20
47.0840621306638
 30
0.0
 11
146.6322458215986
 21
170.7031673580397
 31
0.0
  0
LINE
  5
350
330
1F
100
AcDbEntity
  8
基準ﾚｲﾔｸﾞﾙｰﾌﾟ
  6
Continuous
 62
     3
370
    50
100
AcDbLine
 10
146.0619337676274
 20
128.8936147443518
 30
0.0
 11
144.1322458215985
 21
128.8936147443518
 31
0.0
  0
LINE
  5
351
330
1F
100
AcDbEntity
  8
基準ﾚｲﾔｸﾞﾙｰﾌﾟ
  6
Continuous
 62
     3
370
    50
100
AcDbLine
 10
140.6322458215985
 20
122.8936147443518
 30
0.0
 11
139.3822458215985
 21
122.8936147443518
 31
0.0
  0
ARC
  5
352
330
1F
100
AcDbEntity
  8
基準ﾚｲﾔｸﾞﾙｰﾌﾟ
  6
Continuous
 62
     3
370
    50
100
AcDbCircle
 10
140.6322458215985
 20
123.8936147443518
 30
0.0
 40
1.0
100
AcDbArc
 50
270.0
 51
0.0
  0
LINE
  5
353
330
1F
100
AcDbEntity
  8
基準ﾚｲﾔｸﾞﾙｰﾌﾟ
  6
Continuous
 62
     3
370
    50
100
AcDbLine
 10
140.6322458215985
 20
94.89361474435177
 30
0.0
 11
139.3822458215984
 21
94.89361474435175
 31
0.0
  0
ARC
  5
354
330
1F
100
AcDbEntity
  8
基準ﾚｲﾔｸﾞﾙｰﾌﾟ
  6
Continuous
 62
     3
370
    50
100
AcDbCircle
 10
140.6322458215985
 20
93.89361474435177
 30
0.0
 40
1.0
100
AcDbArc
 50
0.0
 51
90.0
  0
ARC
  5
355
330
1F
100
AcDbEntity
  8
基準ﾚｲﾔｸﾞﾙｰﾌﾟ
  6
Continuous
 62
     3
370
    50
100
AcDbCircle
 10
146.0619337676274
 20
143.8936147443518
 30
0.0
 40
15.0
100
AcDbArc
 50
270.0
 51
272.1789567716484
  0
ARC
  5
356
330
1F
100
AcDbEntity
  8
基準ﾚｲﾔｸﾞﾙｰﾌﾟ
  6
Continuous
 62
     3
370
    50
100
AcDbCircle
 10
165.6322458215986
 20
243.8936147443518
 30
0.0
 40
200.0
100
AcDbArc
 50
265.2076781370254
 51
274.7923218629746
  0
LINE
  5
357
330
1F
100
AcDbEntity
  8
基準ﾚｲﾔｸﾞﾙｰﾌﾟ
  6
Continuous
 62
     3
370
    50
100
AcDbLine
 10
146.0619337676274
 20
88.89361474435177
 30
0.0
 11
144.1322458215985
 21
88.89361474435177
 31
0.0
  0
ARC
  5
358
330
1F
100
AcDbEntity
  8
基準ﾚｲﾔｸﾞﾙｰﾌﾟ
  6
Continuous
 62
     3
370
    50
100
AcDbCircle
 10
146.0619337676274
 20
73.89361474435177
 30
0.0
 40
15.0
100
AcDbArc
 50
87.82104322835166
 51
90.0
  0
ARC
  5
359
330
1F
100
AcDbEntity
  8
基準ﾚｲﾔｸﾞﾙｰﾌﾟ
  6
Continuous
 62
     3
370
    50
100
AcDbCircle
 10
144.1322458215985
 20
126.3936147443518
 30
0.0
 40
2.5
100
AcDbArc
 50
90.0
 51
180.0
  0
ARC
  5
35A
330
1F
100
AcDbEntity
  8
基準ﾚｲﾔｸﾞﾙｰﾌﾟ
  6
Continuous
 62
     3
370
    50
100
AcDbCircle
 10
144.1322458215985
 20
91.39361474435177
 30
0.0
 40
2.5
100
AcDbArc
 50
180.0
 51
270.0
  0
ARC
  5
35B
330
1F
100
AcDbEntity
  8
基準ﾚｲﾔｸﾞﾙｰﾌﾟ
  6
Continuous
 62
     3
370
    50
100
AcDbCircle
 10
149.1322458215985
 20
170.7031673580397
 30
0.0
 40
2.5
100
AcDbArc
 50
94.79232186297473
 51
180.0
  0
ARC
  5
35C
330
1F
100
AcDbEntity
  8
基準ﾚｲﾔｸﾞﾙｰﾌﾟ
  6
Continuous
 62
     3
370
    50
100
AcDbCircle
 10
182.1322458215985
 20
170.7031673580397
 30
0.0
 40
2.5
100
AcDbArc
 50
0.0
 51
85.2076781370256
  0
ARC
  5
35D
330
1F
100
AcDbEntity
  8
基準ﾚｲﾔｸﾞﾙｰﾌﾟ
  6
Continuous
 62
     3
370
    50
100
AcDbCircle
 10
182.1322458215985
 20
47.0840621306638
 30
0.0
 40
2.5
100
AcDbArc
 50
274.7923218629747
 51
0.0000000000003562
  0
ARC
  5
35E
330
1F
100
AcDbEntity
  8
基準ﾚｲﾔｸﾞﾙｰﾌﾟ
  6
Continuous
 62
     3
370
    50
100
AcDbCircle
 10
149.1322458215986
 20
47.0840621306638
 30
0.0
 40
2.5
100
AcDbArc
 50
179.9999999999997
 51
265.2076781370253
  0
LINE
  5
35F
330
1F
100
AcDbEntity
  8
基準ﾚｲﾔｸﾞﾙｰﾌﾟ
  6
Continuous
 62
     3
370
    50
100
AcDbLine
 10
189.6322458215986
 20
91.39361474435177
 30
0.0
 11
189.6322458215986
 21
126.3936147443518
 31
0.0
  0
LINE
  5
360
330
1F
100
AcDbEntity
  8
基準ﾚｲﾔｸﾞﾙｰﾌﾟ
  6
Continuous
 62
     3
370
    50
100
AcDbLine
 10
184.6322458215986
 20
47.0840621306638
 30
0.0
 11
184.6322458215986
 21
170.7031673580397
 31
0.0
  0
LINE
  5
361
330
1F
100
AcDbEntity
  8
基準ﾚｲﾔｸﾞﾙｰﾌﾟ
  6
Continuous
 62
     3
370
    50
100
AcDbLine
 10
185.2025578755698
 20
128.8936147443518
 30
0.0
 11
187.1322458215986
 21
128.8936147443518
 31
0.0
  0
ARC
  5
362
330
1F
100
AcDbEntity
  8
基準ﾚｲﾔｸﾞﾙｰﾌﾟ
  6
Continuous
 62
     3
370
    50
100
AcDbCircle
 10
185.2025578755698
 20
143.8936147443518
 30
0.0
 40
15.0
100
AcDbArc
 50
267.8210432283517
 51
270.0
  0
LINE
  5
363
330
1F
100
AcDbEntity
  8
基準ﾚｲﾔｸﾞﾙｰﾌﾟ
  6
Continuous
 62
     3
370
    50
100
AcDbLine
 10
185.2025578755698
 20
88.89361474435177
 30
0.0
 11
187.1322458215986
 21
88.89361474435177
 31
0.0
  0
ARC
  5
364
330
1F
100
AcDbEntity
  8
基準ﾚｲﾔｸﾞﾙｰﾌﾟ
  6
Continuous
 62
     3
370
    50
100
AcDbCircle
 10
185.2025578755698
 20
73.89361474435177
 30
0.0
 40
15.0
100
AcDbArc
 50
90.0
 51
92.1789567716483
  0
ARC
  5
365
330
1F
100
AcDbEntity
  8
基準ﾚｲﾔｸﾞﾙｰﾌﾟ
  6
Continuous
 62
     3
370
    50
100
AcDbCircle
 10
187.1322458215986
 20
126.3936147443518
 30
0.0
 40
2.5
100
AcDbArc
 50
0.0
 51
90.0
  0
ARC
  5
366
330
1F
100
AcDbEntity
  8
基準ﾚｲﾔｸﾞﾙｰﾌﾟ
  6
Continuous
 62
     3
370
    50
100
AcDbCircle
 10
187.1322458215986
 20
91.39361474435177
 30
0.0
 40
2.5
100
AcDbArc
 50
270.0
 51
0.0
  0
LINE
  5
367
330
1F
100
AcDbEntity
  8
基準ﾚｲﾔｸﾞﾙｰﾌﾟ
  6
Continuous
 62
     3
370
    50
100
AcDbLine
 10
139.3822458215985
 20
122.8936147443518
 30
0.0
 11
139.3822458215984
 21
94.89361474435177
 31
0.0
  0
LINE
  5
368
330
1F
100
AcDbEntity
  8
基準ﾚｲﾔｸﾞﾙｰﾌﾟ
  6
Continuous
 62
     3
370
    50
100
AcDbLine
 10
191.8822458215987
 20
118.8936147443516
 30
0.0
 11
192.1322458215986
 21
118.8936147443516
 31
0.0
  0
LINE
  5
369
330
1F
100
AcDbEntity
  8
基準ﾚｲﾔｸﾞﾙｰﾌﾟ
  6
Continuous
 62
     3
370
    50
100
AcDbLine
 10
191.8822458215987
 20
98.89361474435196
 30
0.0
 11
192.1322458215986
 21
98.89361474435196
 31
0.0
  0
LINE
  5
36A
330
1F
100
AcDbEntity
  8
基準ﾚｲﾔｸﾞﾙｰﾌﾟ
  6
Continuous
 62
     3
370
    50
100
AcDbLine
 10
190.6322458215986
 20
122.8936147443518
 30
0.0
 11
191.8822458215987
 21
122.8936147443518
 31
0.0
  0
ARC
  5
36B
330
1F
100
AcDbEntity
  8
基準ﾚｲﾔｸﾞﾙｰﾌﾟ
  6
Continuous
 62
     3
370
    50
100
AcDbCircle
 10
190.6322458215986
 20
123.8936147443518
 30
0.0
 40
1.0
100
AcDbArc
 50
180.0
 51
270.0
  0
LINE
  5
36C
330
1F
100
AcDbEntity
  8
基準ﾚｲﾔｸﾞﾙｰﾌﾟ
  6
Continuous
 62
     3
370
    50
100
AcDbLine
 10
190.6322458215986
 20
94.89361474435177
 30
0.0
 11
191.8822458215988
 21
94.89361474435175
 31
0.0
  0
ARC
  5
36D
330
1F
100
AcDbEntity
  8
基準ﾚｲﾔｸﾞﾙｰﾌﾟ
  6
Continuous
 62
     3
370
    50
100
AcDbCircle
 10
190.6322458215986
 20
93.89361474435177
 30
0.0
 40
1.0
100
AcDbArc
 50
90.0
 51
180.0
  0
LINE
  5
36E
330
1F
100
AcDbEntity
  8
基準ﾚｲﾔｸﾞﾙｰﾌﾟ
  6
Continuous
 62
     3
370
    50
100
AcDbLine
 10
191.8822458215986
 20
122.8936147443518
 30
0.0
 11
191.8822458215988
 21
94.89361474435177
 31
0.0
  0
INSERT
  5
372
330
1F
100
AcDbEntity
  8
基準ﾚｲﾔｸﾞﾙｰﾌﾟ
  6
Continuous
 62
     7
370
    25
100
AcDbBlockReference
  2
BLKF026
 10
0.0
 20
0.0
 30
0.0
  0
ARC
  5
37E
330
1F
100
AcDbEntity
  8
基準ﾚｲﾔｸﾞﾙｰﾌﾟ
  6
DASHED
 62
     6
370
    25
100
AcDbCircle
 10
369.0068864894981
 20
108.8936147443518
 30
0.0
 40
24.25547084863027
100
AcDbArc
 50
150.6666805931111
 51
358.8738832011143
  0
ARC
  5
37F
330
1F
100
AcDbEntity
  8
基準ﾚｲﾔｸﾞﾙｰﾌﾟ
  6
DASHED
 62
     6
370
    25
100
AcDbCircle
 10
369.0068864894981
 20
108.8936147443518
 30
0.0
 40
55.23875111416251
100
AcDbArc
 50
101.9218136853793
 51
40.52371384393808
  0
ARC
  5
380
330
1F
100
AcDbEntity
  8
基準ﾚｲﾔｸﾞﾙｰﾌﾟ
  6
Continuous
 62
     6
370
    25
100
AcDbCircle
 10
369.0068864894981
 20
108.8936147443518
 30
0.0
 40
58.0730273495009
100
AcDbArc
 50
108.6116248922682
 51
41.73277157840844
  0
ARC
  5
381
330
1F
100
AcDbEntity
  8
基準ﾚｲﾔｸﾞﾙｰﾌﾟ
  6
Continuous
 62
     6
370
    25
100
AcDbCircle
 10
369.0068864894981
 20
108.8936147443518
 30
0.0
 40
63.41078758044904
100
AcDbArc
 50
124.9790011868954
 51
43.69424883519827
  0
INSERT
  5
385
330
1F
100
AcDbEntity
  8
基準ﾚｲﾔｸﾞﾙｰﾌﾟ
  6
Continuous
 62
     7
370
    25
100
AcDbBlockReference
  2
BLKF027
 10
0.0
 20
0.0
 30
0.0
  0
LINE
  5
38C
330
1F
100
AcDbEntity
  8
基準ﾚｲﾔｸﾞﾙｰﾌﾟ
  6
Continuous
 62
     3
370
    50
100
AcDbLine
 10
351.506886489498
 20
356.0636147443519
 30
0.0
 11
354.006886489498
 21
356.0636147443519
 31
0.0
  0
LINE
  5
38D
330
1F
100
AcDbEntity
  8
基準ﾚｲﾔｸﾞﾙｰﾌﾟ
  6
Continuous
 62
     3
370
    50
100
AcDbLine
 10
307.19733387581
 20
351.0636147443519
 30
0.0
 11
355.006886489498
 21
351.0636147443518
 31
0.0
  0
ARC
  5
38E
330
1F
100
AcDbEntity
  8
基準ﾚｲﾔｸﾞﾙｰﾌﾟ
  6
Continuous
 62
     3
370
    50
100
AcDbCircle
 10
354.006886489498
 20
357.0636147443519
 30
0.0
 40
1.0
100
AcDbArc
 50
270.0
 51
0.0
  0
ARC
  5
38F
330
1F
100
AcDbEntity
  8
基準ﾚｲﾔｸﾞﾙｰﾌﾟ
  6
Continuous
 62
     3
370
    50
100
AcDbCircle
 10
504.006886489498
 20
332.0636147443518
 30
0.0
 40
200.0
100
AcDbArc
 50
175.2076781370253
 51
184.7923218629746
  0
LINE
  5
390
330
1F
100
AcDbEntity
  8
基準ﾚｲﾔｸﾞﾙｰﾌﾟ
  6
Continuous
 62
     3
370
    50
100
AcDbLine
 10
349.006886489498
 20
351.633926798323
 30
0.0
 11
349.006886489498
 21
353.5636147443519
 31
0.0
  0
ARC
  5
391
330
1F
100
AcDbEntity
  8
基準ﾚｲﾔｸﾞﾙｰﾌﾟ
  6
Continuous
 62
     3
370
    50
100
AcDbCircle
 10
334.006886489498
 20
351.633926798323
 30
0.0
 40
15.0
100
AcDbArc
 50
357.8210432283516
 51
0.0
  0
ARC
  5
392
330
1F
100
AcDbEntity
  8
基準ﾚｲﾔｸﾞﾙｰﾌﾟ
  6
Continuous
 62
     3
370
    50
100
AcDbCircle
 10
351.506886489498
 20
353.5636147443519
 30
0.0
 40
2.5
100
AcDbArc
 50
89.99999999999996
 51
180.0
  0
ARC
  5
393
330
1F
100
AcDbEntity
  8
基準ﾚｲﾔｸﾞﾙｰﾌﾟ
  6
Continuous
 62
     3
370
    50
100
AcDbCircle
 10
307.19733387581
 20
315.5636147443519
 30
0.0
 40
2.5
100
AcDbArc
 50
184.7923218629747
 51
270.0000000000003
  0
ARC
  5
394
330
1F
100
AcDbEntity
  8
基準ﾚｲﾔｸﾞﾙｰﾌﾟ
  6
Continuous
 62
     3
370
    50
100
AcDbCircle
 10
307.19733387581
 20
348.5636147443519
 30
0.0
 40
2.5
100
AcDbArc
 50
89.99999999999966
 51
175.2076781370252
  0
LINE
  5
395
330
1F
100
AcDbEntity
  8
基準ﾚｲﾔｸﾞﾙｰﾌﾟ
  6
Continuous
 62
     3
370
    50
100
AcDbLine
 10
351.506886489498
 20
308.0636147443518
 30
0.0
 11
354.006886489498
 21
308.0636147443518
 31
0.0
  0
LINE
  5
396
330
1F
100
AcDbEntity
  8
基準ﾚｲﾔｸﾞﾙｰﾌﾟ
  6
Continuous
 62
     3
370
    50
100
AcDbLine
 10
307.19733387581
 20
313.0636147443518
 30
0.0
 11
355.006886489498
 21
313.0636147443518
 31
0.0
  0
LINE
  5
397
330
1F
100
AcDbEntity
  8
基準ﾚｲﾔｸﾞﾙｰﾌﾟ
  6
Continuous
 62
     3
370
    50
100
AcDbLine
 10
349.006886489498
 20
312.4933026903806
 30
0.0
 11
349.006886489498
 21
310.5636147443518
 31
0.0
  0
ARC
  5
398
330
1F
100
AcDbEntity
  8
基準ﾚｲﾔｸﾞﾙｰﾌﾟ
  6
Continuous
 62
     3
370
    50
100
AcDbCircle
 10
334.006886489498
 20
312.4933026903806
 30
0.0
 40
15.0
100
AcDbArc
 50
0.0
 51
2.178956771648245
  0
ARC
  5
399
330
1F
100
AcDbEntity
  8
基準ﾚｲﾔｸﾞﾙｰﾌﾟ
  6
Continuous
 62
     3
370
    50
100
AcDbCircle
 10
351.506886489498
 20
310.5636147443518
 30
0.0
 40
2.5
100
AcDbArc
 50
180.0
 51
270.0
  0
LINE
  5
39A
330
1F
100
AcDbEntity
  8
基準ﾚｲﾔｸﾞﾙｰﾌﾟ
  6
Continuous
 62
     3
370
    50
100
AcDbLine
 10
355.006886489498
 20
307.0636147443518
 30
0.0
 11
355.006886489498
 21
305.8136147443516
 31
0.0
  0
ARC
  5
39B
330
1F
100
AcDbEntity
  8
基準ﾚｲﾔｸﾞﾙｰﾌﾟ
  6
Continuous
 62
     3
370
    50
100
AcDbCircle
 10
354.006886489498
 20
307.0636147443518
 30
0.0
 40
1.0
100
AcDbArc
 50
0.0
 51
90.0
  0
LINE
  5
39C
330
1F
100
AcDbEntity
  8
基準ﾚｲﾔｸﾞﾙｰﾌﾟ
  6
Continuous
 62
     3
370
    50
100
AcDbLine
 10
190.6322458215986
 20
185.5365435884378
 30
0.0
 11
190.6322458215986
 21
185.3936147443518
 31
0.0
  0
LINE
  5
39D
330
1F
100
AcDbEntity
  8
基準ﾚｲﾔｸﾞﾙｰﾌﾟ
  6
Continuous
 62
     3
370
    50
100
AcDbLine
 10
189.6322458215985
 20
178.2506859002659
 30
0.0
 11
189.6322458215986
 21
179.3936147443518
 31
0.0
  0
LINE
  5
39E
330
1F
100
AcDbEntity
  8
基準ﾚｲﾔｸﾞﾙｰﾌﾟ
  6
Continuous
 62
     3
370
    50
100
AcDbLine
 10
189.6322458215985
 20
185.5436147443518
 30
0.0
 11
188.6822458215985
 21
185.5436147443518
 31
0.0
  0
ARC
  5
39F
330
1F
100
AcDbEntity
  8
基準ﾚｲﾔｸﾞﾙｰﾌﾟ
  6
Continuous
 62
     3
370
    50
100
AcDbCircle
 10
189.6322458215986
 20
185.5365435884378
 30
0.0
 40
1.0
100
AcDbArc
 50
0.0
 51
90.0
  0
LINE
  5
3A0
330
1F
100
AcDbEntity
  8
基準ﾚｲﾔｸﾞﾙｰﾌﾟ
  6
Continuous
 62
     3
370
    50
100
AcDbLine
 10
189.6322458215985
 20
178.2506859002658
 30
0.0
 11
190.6322458215986
 21
178.2506859002658
 31
0.0
  0
LINE
  5
3A1
330
1F
100
AcDbEntity
  8
基準ﾚｲﾔｸﾞﾙｰﾌﾟ
  6
Continuous
 62
     3
370
    50
100
AcDbLine
 10
190.6322458215986
 20
179.3936147443518
 30
0.0
 11
190.6322458215986
 21
178.2506859002658
 31
0.0
  0
LINE
  5
3A2
330
1F
100
AcDbEntity
  8
基準ﾚｲﾔｸﾞﾙｰﾌﾟ
  6
Continuous
 62
     3
370
    50
100
AcDbLine
 10
189.6322458215985
 20
185.3936147443519
 30
0.0
 11
189.6322458215985
 21
185.5436147443518
 31
0.0
  0
LINE
  5
3A3
330
1F
100
AcDbEntity
  8
基準ﾚｲﾔｸﾞﾙｰﾌﾟ
  6
Continuous
 62
     3
370
    50
100
AcDbLine
 10
150.3822458215959
 20
173.3113609456363
 30
0.0
 11
150.3822458215959
 21
173.8936107632384
 31
0.0
  0
LINE
  5
3A4
330
1F
100
AcDbEntity
  8
基準ﾚｲﾔｸﾞﾙｰﾌﾟ
  6
Continuous
 62
     3
370
    50
100
AcDbLine
 10
180.8822458216013
 20
173.3113609456363
 30
0.0
 11
180.8822458216013
 21
173.8936107632384
 31
0.0
  0
ENDSEC
  0
SECTION
  2
OBJECTS
  0
DICTIONARY
  5
C
330
0
100
AcDbDictionary
281
     1
  3
ACAD_GROUP
350
D
  3
ACAD_LAYOUT
350
1A
  3
ACAD_MATERIAL
350
43
  3
ACAD_MLEADERSTYLE
350
6B
  3
ACAD_MLINESTYLE
350
17
  3
ACAD_PLOTSETTINGS
350
19
  3
ACAD_PLOTSTYLENAME
350
E
  3
ACAD_SCALELIST
350
47
  3
ACAD_TABLESTYLE
350
69
  3
ACAD_VISUALSTYLE
350
2A
  3
AcDbVariableDictionary
350
3A5
  0
DICTIONARY
  5
3AF
330
8
100
AcDbDictionary
280
     1
281
     1
  3
ACAD_XREC_ROUNDTRIP
360
3B0
  0
DICTIONARY
  5
D
102
{ACAD_REACTORS
330
C
102
}
330
C
100
AcDbDictionary
281
     1
  0
DICTIONARY
  5
1A
102
{ACAD_REACTORS
330
C
102
}
330
C
100
AcDbDictionary
281
     1
  3
Layout1
350
1E
  3
Layout2
350
26
  3
Model
350
22
  0
DICTIONARY
  5
43
102
{ACAD_REACTORS
330
C
102
}
330
C
100
AcDbDictionary
281
     1
  3
ByBlock
350
45
  3
ByLayer
350
44
  3
Global
350
46
  0
DICTIONARY
  5
6B
102
{ACAD_REACTORS
330
C
102
}
330
C
100
AcDbDictionary
281
     1
  3
Standard
350
6C
  0
DICTIONARY
  5
17
102
{ACAD_REACTORS
330
C
102
}
330
C
100
AcDbDictionary
281
     1
  3
Standard
350
18
  0
DICTIONARY
  5
19
102
{ACAD_REACTORS
330
C
102
}
330
C
100
AcDbDictionary
281
     1
  0
ACDBDICTIONARYWDFLT
  5
E
102
{ACAD_REACTORS
330
C
102
}
330
C
100
AcDbDictionary
281
     1
  3
Normal
350
F
100
AcDbDictionaryWithDefault
340
F
  0
DICTIONARY
  5
47
102
{ACAD_REACTORS
330
C
102
}
330
C
100
AcDbDictionary
281
     1
  3
A0
350
48
  3
A1
350
49
  3
A2
350
4A
  3
A3
350
4B
  3
A4
350
4C
  3
A5
350
4D
  3
A6
350
4E
  3
A7
350
4F
  3
A8
350
50
  3
A9
350
51
  3
B0
350
52
  3
B1
350
53
  3
B2
350
54
  3
B3
350
55
  3
B4
350
56
  3
B5
350
57
  3
B6
350
58
  3
B7
350
59
  3
B8
350
5A
  3
B9
350
5B
  3
C0
350
5C
  3
C1
350
5D
  3
C2
350
5E
  3
C3
350
5F
  3
C4
350
60
  3
C5
350
61
  3
C6
350
62
  3
C7
350
63
  3
C8
350
64
  3
C9
350
65
  3
D0
350
66
  3
D1
350
67
  3
D2
350
68
  0
DICTIONARY
  5
69
102
{ACAD_REACTORS
330
C
102
}
330
C
100
AcDbDictionary
281
     1
  3
Standard
350
6A
  0
DICTIONARY
  5
2A
102
{ACAD_REACTORS
330
C
102
}
330
C
100
AcDbDictionary
281
     1
  3
2dWireframe
350
2F
  3
Basic
350
32
  3
Brighten
350
36
  3
ColorChange
350
3A
  3
Conceptual
350
34
  3
Dim
350
35
  3
EdgeColorOff
350
3D
  3
Facepattern
350
39
  3
Flat
350
2B
  3
FlatWithEdges
350
2C
  3
Gouraud
350
2D
  3
GouraudWithEdges
350
2E
  3
Hidden
350
31
  3
JitterOff
350
3B
  3
Linepattern
350
38
  3
OverhangOff
350
3C
  3
Realistic
350
33
  3
Shaded
350
42
  3
Shaded with edges
350
41
  3
Shades of Gray
350
3E
  3
Sketchy
350
3F
  3
Thicken
350
37
  3
Wireframe
350
30
  3
X-Ray
350
40
  0
DICTIONARY
  5
3A5
102
{ACAD_REACTORS
330
C
102
}
330
C
100
AcDbDictionary
281
     1
  3
CANNOSCALE
350
3B1
  3
CMLEADERSTYLE
350
3A7
  3
CTABLESTYLE
350
3A6
  3
DIMASSOC
350
3AD
  3
HIDETEXT
350
3AE
  3
MSLTSCALE
350
3B2
  3
PSOLHEIGHT
350
3A9
  3
PSOLWIDTH
350
3A8
  3
SECTIONTHICKNESSINC
350
3AC
  0
XRECORD
  5
3B0
102
{ACAD_REACTORS
330
3AF
102
}
330
3AF
100
AcDbXrecord
280
     1
102
VTR_0.000_0.000_1.000_1.000_VISUALSTYLE
340
2F
102
VTR_0.000_0.000_1.000_1.000_GRIDDISPLAY
 70
     3
102
VTR_0.000_0.000_1.000_1.000_GRIDMAJOR
 70
     5
102
VTR_0.000_0.000_1.000_1.000_DEFAULTLIGHTING
280
     1
102
VTR_0.000_0.000_1.000_1.000_DEFAULTLIGHTINGTYPE
 70
     1
102
VTR_0.000_0.000_1.000_1.000_BRIGHTNESS
141
0.0
102
VTR_0.000_0.000_1.000_1.000_CONTRAST
142
0.0
  0
LAYOUT
  5
1E
102
{ACAD_REACTORS
330
1A
102
}
330
1A
100
AcDbPlotSettings
  1

  2
none_device
  4

  6

 40
0.0
 41
0.0
 42
0.0
 43
0.0
 44
0.0
 45
0.0
 46
0.0
 47
0.0
 48
0.0
 49
0.0
140
0.0
141
0.0
142
1.0
143
1.0
 70
   688
 72
     1
 73
     0
 74
     5
  7

 75
    16
147
1.0
148
0.0
149
0.0
100
AcDbLayout
  1
Layout1
 70
     1
 71
     1
 10
0.0
 20
0.0
 11
420.0
 21
297.0
 12
0.0
 22
0.0
 32
0.0
 14
1.000000000000000E+20
 24
1.000000000000000E+20
 34
1.000000000000000E+20
 15
-1.000000000000000E+20
 25
-1.000000000000000E+20
 35
-1.000000000000000E+20
146
0.0
 13
0.0
 23
0.0
 33
0.0
 16
1.0
 26
0.0
 36
0.0
 17
0.0
 27
1.0
 37
0.0
 76
     0
330
1B
  0
LAYOUT
  5
26
102
{ACAD_REACTORS
330
1A
102
}
330
1A
100
AcDbPlotSettings
  1

  2
none_device
  4

  6

 40
0.0
 41
0.0
 42
0.0
 43
0.0
 44
0.0
 45
0.0
 46
0.0
 47
0.0
 48
0.0
 49
0.0
140
0.0
141
0.0
142
1.0
143
1.0
 70
   688
 72
     1
 73
     0
 74
     5
  7

 75
    16
147
1.0
148
0.0
149
0.0
100
AcDbLayout
  1
Layout2
 70
     1
 71
     2
 10
0.0
 20
0.0
 11
0.0
 21
0.0
 12
0.0
 22
0.0
 32
0.0
 14
0.0
 24
0.0
 34
0.0
 15
0.0
 25
0.0
 35
0.0
146
0.0
 13
0.0
 23
0.0
 33
0.0
 16
1.0
 26
0.0
 36
0.0
 17
0.0
 27
1.0
 37
0.0
 76
     0
330
23
  0
LAYOUT
  5
22
102
{ACAD_REACTORS
330
1A
102
}
330
1A
100
AcDbPlotSettings
  1

  2
none_device
  4
Letter_(8.50_x_11.00_Inches)
  6

 40
6.35
 41
6.35
 42
6.35000508
 43
6.35000508
 44
215.9
 45
279.4
 46
0.0
 47
0.0
 48
0.0
 49
0.0
140
0.0
141
0.0
142
1.0
143
1.0
 70
  1712
 72
     1
 73
     0
 74
     0
  7

 75
     0
147
1.0
148
0.0
149
0.0
100
AcDbLayout
  1
Model
 70
     1
 71
     0
 10
0.0
 20
0.0
 11
594.0
 21
420.0
 12
0.0
 22
0.0
 32
0.0
 14
0.0
 24
0.0
 34
0.0
 15
594.0
 25
420.0
 35
0.0
146
0.0
 13
0.0
 23
0.0
 33
0.0
 16
1.0
 26
0.0
 36
0.0
 17
0.0
 27
1.0
 37
0.0
 76
     0
330
1F
331
29
  0
MATERIAL
  5
45
102
{ACAD_REACTORS
330
43
102
}
102
{ACAD_XDICTIONARY
360
3E5
102
}
330
43
100
AcDbMaterial
  1
ByBlock
  0
MATERIAL
  5
44
102
{ACAD_REACTORS
330
43
102
}
102
{ACAD_XDICTIONARY
360
3E3
102
}
330
43
100
AcDbMaterial
  1
ByLayer
  0
MATERIAL
  5
46
102
{ACAD_REACTORS
330
43
102
}
102
{ACAD_XDICTIONARY
360
3E7
102
}
330
43
100
AcDbMaterial
  1
Global
  0
MLEADERSTYLE
  5
6C
102
{ACAD_REACTORS
330
6B
102
}
102
{ACAD_XDICTIONARY
360
3EA
102
}
330
6B
100
AcDbMLeaderStyle
170
     2
171
     1
172
     0
 90
        2
 40
0.0
 41
0.0
173
     1
 91
-1056964608
340
14
 92
       -2
290
     1
 42
2.0
291
     1
 43
8.0
  3
Standard
341
0
 44
4.0
300

342
11
174
     1
178
     6
175
     1
176
     0
 93
-1056964608
 45
4.0
292
     0
297
     0
 46
4.0
343
0
 94
-1056964608
 47
1.0
 49
1.0
140
1.0
293
     1
141
0.0
294
     1
177
     0
142
1.0
295
     0
296
     0
143
3.75
1001
ACAD_MLEADERVER
1070
     2
  0
MLINESTYLE
  5
18
102
{ACAD_REACTORS
330
17
102
}
330
17
100
AcDbMlineStyle
  2
Standard
 70
     0
  3

 62
   256
 51
90.0
 52
90.0
 71
     2
 49
0.5
 62
   256
  6
BYLAYER
 49
-0.5
 62
   256
  6
BYLAYER
  0
ACDBPLACEHOLDER
  5
F
102
{ACAD_REACTORS
330
E
102
}
330
E
  0
SCALE
  5
48
102
{ACAD_REACTORS
330
47
102
}
330
47
100
AcDbScale
 70
     0
300
1:1
140
1.0
141
1.0
290
     1
  0
SCALE
  5
49
102
{ACAD_REACTORS
330
47
102
}
330
47
100
AcDbScale
 70
     0
300
1:2
140
1.0
141
2.0
290
     0
  0
SCALE
  5
4A
102
{ACAD_REACTORS
330
47
102
}
330
47
100
AcDbScale
 70
     0
300
1:4
140
1.0
141
4.0
290
     0
  0
SCALE
  5
4B
102
{ACAD_REACTORS
330
47
102
}
330
47
100
AcDbScale
 70
     0
300
1:5
140
1.0
141
5.0
290
     0
  0
SCALE
  5
4C
102
{ACAD_REACTORS
330
47
102
}
330
47
100
AcDbScale
 70
     0
300
1:8
140
1.0
141
8.0
290
     0
  0
SCALE
  5
4D
102
{ACAD_REACTORS
330
47
102
}
330
47
100
AcDbScale
 70
     0
300
1:10
140
1.0
141
10.0
290
     0
  0
SCALE
  5
4E
102
{ACAD_REACTORS
330
47
102
}
330
47
100
AcDbScale
 70
     0
300
1:16
140
1.0
141
16.0
290
     0
  0
SCALE
  5
4F
102
{ACAD_REACTORS
330
47
102
}
330
47
100
AcDbScale
 70
     0
300
1:20
140
1.0
141
20.0
290
     0
  0
SCALE
  5
50
102
{ACAD_REACTORS
330
47
102
}
330
47
100
AcDbScale
 70
     0
300
1:30
140
1.0
141
30.0
290
     0
  0
SCALE
  5
51
102
{ACAD_REACTORS
330
47
102
}
330
47
100
AcDbScale
 70
     0
300
1:40
140
1.0
141
40.0
290
     0
  0
SCALE
  5
52
102
{ACAD_REACTORS
330
47
102
}
330
47
100
AcDbScale
 70
     0
300
1:50
140
1.0
141
50.0
290
     0
  0
SCALE
  5
53
102
{ACAD_REACTORS
330
47
102
}
330
47
100
AcDbScale
 70
     0
300
1:100
140
1.0
141
100.0
290
     0
  0
SCALE
  5
54
102
{ACAD_REACTORS
330
47
102
}
330
47
100
AcDbScale
 70
     0
300
2:1
140
2.0
141
1.0
290
     0
  0
SCALE
  5
55
102
{ACAD_REACTORS
330
47
102
}
330
47
100
AcDbScale
 70
     0
300
4:1
140
4.0
141
1.0
290
     0
  0
SCALE
  5
56
102
{ACAD_REACTORS
330
47
102
}
330
47
100
AcDbScale
 70
     0
300
8:1
140
8.0
141
1.0
290
     0
  0
SCALE
  5
57
102
{ACAD_REACTORS
330
47
102
}
330
47
100
AcDbScale
 70
     0
300
10:1
140
10.0
141
1.0
290
     0
  0
SCALE
  5
58
102
{ACAD_REACTORS
330
47
102
}
330
47
100
AcDbScale
 70
     0
300
100:1
140
100.0
141
1.0
290
     0
  0
SCALE
  5
59
102
{ACAD_REACTORS
330
47
102
}
330
47
100
AcDbScale
 70
     0
300
1/128" = 1'-0"
140
0.0078125
141
12.0
290
     0
  0
SCALE
  5
5A
102
{ACAD_REACTORS
330
47
102
}
330
47
100
AcDbScale
 70
     0
300
1/64" = 1'-0"
140
0.015625
141
12.0
290
     0
  0
SCALE
  5
5B
102
{ACAD_REACTORS
330
47
102
}
330
47
100
AcDbScale
 70
     0
300
1/32" = 1'-0"
140
0.03125
141
12.0
290
     0
  0
SCALE
  5
5C
102
{ACAD_REACTORS
330
47
102
}
330
47
100
AcDbScale
 70
     0
300
1/16" = 1'-0"
140
0.0625
141
12.0
290
     0
  0
SCALE
  5
5D
102
{ACAD_REACTORS
330
47
102
}
330
47
100
AcDbScale
 70
     0
300
3/32" = 1'-0"
140
0.09375
141
12.0
290
     0
  0
SCALE
  5
5E
102
{ACAD_REACTORS
330
47
102
}
330
47
100
AcDbScale
 70
     0
300
1/8" = 1'-0"
140
0.125
141
12.0
290
     0
  0
SCALE
  5
5F
102
{ACAD_REACTORS
330
47
102
}
330
47
100
AcDbScale
 70
     0
300
3/16" = 1'-0"
140
0.1875
141
12.0
290
     0
  0
SCALE
  5
60
102
{ACAD_REACTORS
330
47
102
}
330
47
100
AcDbScale
 70
     0
300
1/4" = 1'-0"
140
0.25
141
12.0
290
     0
  0
SCALE
  5
61
102
{ACAD_REACTORS
330
47
102
}
330
47
100
AcDbScale
 70
     0
300
3/8" = 1'-0"
140
0.375
141
12.0
290
     0
  0
SCALE
  5
62
102
{ACAD_REACTORS
330
47
102
}
330
47
100
AcDbScale
 70
     0
300
1/2" = 1'-0"
140
0.5
141
12.0
290
     0
  0
SCALE
  5
63
102
{ACAD_REACTORS
330
47
102
}
330
47
100
AcDbScale
 70
     0
300
3/4" = 1'-0"
140
0.75
141
12.0
290
     0
  0
SCALE
  5
64
102
{ACAD_REACTORS
330
47
102
}
330
47
100
AcDbScale
 70
     0
300
1" = 1'-0"
140
1.0
141
12.0
290
     0
  0
SCALE
  5
65
102
{ACAD_REACTORS
330
47
102
}
330
47
100
AcDbScale
 70
     0
300
1-1/2" = 1'-0"
140
1.5
141
12.0
290
     0
  0
SCALE
  5
66
102
{ACAD_REACTORS
330
47
102
}
330
47
100
AcDbScale
 70
     0
300
3" = 1'-0"
140
3.0
141
12.0
290
     0
  0
SCALE
  5
67
102
{ACAD_REACTORS
330
47
102
}
330
47
100
AcDbScale
 70
     0
300
6" = 1'-0"
140
6.0
141
12.0
290
     0
  0
SCALE
  5
68
102
{ACAD_REACTORS
330
47
102
}
330
47
100
AcDbScale
 70
     0
300
1'-0" = 1'-0"
140
12.0
141
12.0
290
     0
  0
TABLESTYLE
  5
6A
102
{ACAD_REACTORS
330
69
102
}
330
69
100
AcDbTableStyle
  3
Standard
 70
     0
 71
     0
 40
1.5
 41
1.5
280
     0
281
     0
  7
Standard
140
4.5
170
     2
 62
     0
 63
   257
283
     0
274
    -2
284
     1
 64
     0
275
    -2
285
     1
 65
     0
276
    -2
286
     1
 66
     0
277
    -2
287
     1
 67
     0
278
    -2
288
     1
 68
     0
279
    -2
289
     1
 69
     0
  7
Standard
140
6.0
170
     5
 62
     0
 63
   257
283
     0
274
    -2
284
     1
 64
     0
275
    -2
285
     1
 65
     0
276
    -2
286
     1
 66
     0
277
    -2
287
     1
 67
     0
278
    -2
288
     1
 68
     0
279
    -2
289
     1
 69
     0
  7
Standard
140
4.5
170
     5
 62
     0
 63
   257
283
     0
274
    -2
284
     1
 64
     0
275
    -2
285
     1
 65
     0
276
    -2
286
     1
 66
     0
277
    -2
287
     1
 67
     0
278
    -2
288
     1
 68
     0
279
    -2
289
     1
 69
     0
  0
VISUALSTYLE
  5
2F
102
{ACAD_REACTORS
330
2A
102
}
102
{ACAD_XDICTIONARY
360
3BB
102
}
330
2A
100
AcDbVisualStyle
  2
2dWireframe
 70
     4
 71
     0
 72
     2
 73
     0
 90
        0
 40
0.6
 41
30.0
 62
     5
 63
     7
 74
     1
 91
        4
 64
     7
 65
   257
 75
     1
175
     1
 42
1.0
 92
        0
 66
   257
 43
1.0
 76
     1
 77
     6
 78
     2
 67
     7
 79
     5
170
     0
171
     0
290
     0
174
     0
 93
        1
 44
0.0
173
     0
291
     0
 45
0.0
1001
ACAD
1000
AcDbSavedByObjectVersion
1070
     0
  0
VISUALSTYLE
  5
32
102
{ACAD_REACTORS
330
2A
102
}
102
{ACAD_XDICTIONARY
360
3C1
102
}
330
2A
100
AcDbVisualStyle
  2
Basic
 70
     7
 71
     1
 72
     0
 73
     1
 90
        0
 40
0.6
 41
30.0
 62
     5
 63
     7
 74
     0
 91
        4
 64
     7
 65
   257
 75
     1
175
     1
 42
1.0
 92
        8
 66
     7
 43
1.0
 76
     1
 77
     6
 78
     2
 67
     7
 79
     5
170
     0
171
     0
290
     0
174
     0
 93
        1
 44
0.0
173
     0
291
     1
 45
0.0
1001
ACAD
1000
AcDbSavedByObjectVersion
1070
     0
  0
VISUALSTYLE
  5
36
102
{ACAD_REACTORS
330
2A
102
}
102
{ACAD_XDICTIONARY
360
3C9
102
}
330
2A
100
AcDbVisualStyle
  2
Brighten
 70
    12
 71
     2
 72
     2
 73
     0
 90
        0
 40
0.6
 41
30.0
 62
     5
 63
     7
 74
     1
 91
        4
 64
     7
 65
   257
 75
     1
175
     1
 42
1.0
 92
        8
 66
     7
 43
1.0
 76
     1
 77
     6
 78
     2
 67
     7
 79
     5
170
     0
171
     0
290
     0
174
     0
 93
        1
 44
50.0
173
     0
291
     1
 45
0.0
1001
ACAD
1000
AcDbSavedByObjectVersion
1070
     0
  0
VISUALSTYLE
  5
3A
102
{ACAD_REACTORS
330
2A
102
}
102
{ACAD_XDICTIONARY
360
3D1
102
}
330
2A
100
AcDbVisualStyle
  2
ColorChange
 70
    16
 71
     2
 72
     2
 73
     3
 90
        0
 40
0.6
 41
30.0
 62
     5
 63
     8
 74
     1
 91
        4
 64
     7
 65
   257
 75
     1
175
     1
 42
1.0
 92
        8
 66
     8
 43
1.0
 76
     1
 77
     6
 78
     2
 67
     7
 79
     5
170
     0
171
     0
290
     0
174
     0
 93
        1
 44
0.0
173
     0
291
     1
 45
0.0
1001
ACAD
1000
AcDbSavedByObjectVersion
1070
     0
  0
VISUALSTYLE
  5
34
102
{ACAD_REACTORS
330
2A
102
}
102
{ACAD_XDICTIONARY
360
3C5
102
}
330
2A
100
AcDbVisualStyle
  2
Conceptual
 70
     9
 71
     3
 72
     2
 73
     0
 90
        0
 40
0.6
 41
30.0
 62
     5
 63
     7
 74
     2
 91
        2
 64
     7
 65
   257
 75
     1
175
     1
 42
179.0
 92
        8
 66
     7
 43
1.0
 76
     1
 77
     6
 78
     2
 67
     7
 79
     3
170
     0
171
     0
290
     0
174
     0
 93
        1
 44
0.0
173
     0
291
     0
 45
0.0
1001
ACAD
1000
AcDbSavedByObjectVersion
1070
     0
  0
VISUALSTYLE
  5
35
102
{ACAD_REACTORS
330
2A
102
}
102
{ACAD_XDICTIONARY
360
3C7
102
}
330
2A
100
AcDbVisualStyle
  2
Dim
 70
    11
 71
     2
 72
     2
 73
     0
 90
        0
 40
0.6
 41
30.0
 62
     5
 63
     7
 74
     1
 91
        4
 64
     7
 65
   257
 75
     1
175
     1
 42
1.0
 92
        8
 66
     7
 43
1.0
 76
     1
 77
     6
 78
     2
 67
     7
 79
     5
170
     0
171
     0
290
     0
174
     0
 93
        1
 44
-50.0
173
     0
291
     1
 45
0.0
1001
ACAD
1000
AcDbSavedByObjectVersion
1070
     0
  0
VISUALSTYLE
  5
3D
102
{ACAD_REACTORS
330
2A
102
}
102
{ACAD_XDICTIONARY
360
3D7
102
}
330
2A
100
AcDbVisualStyle
  2
EdgeColorOff
 70
    22
 71
     2
 72
     2
 73
     0
 90
        0
 40
0.6
 41
30.0
 62
     5
 63
     7
 74
     1
 91
        4
 64
     7
 65
   257
 75
     1
175
     1
 42
1.0
 92
        8
 66
     7
 43
1.0
 76
     1
 77
     6
 78
     2
 67
     7
 79
     5
170
     0
171
     0
290
     0
174
     0
 93
        1
 44
0.0
173
     0
291
     1
 45
0.0
1001
ACAD
1000
AcDbSavedByObjectVersion
1070
     0
  0
VISUALSTYLE
  5
39
102
{ACAD_REACTORS
330
2A
102
}
102
{ACAD_XDICTIONARY
360
3CF
102
}
330
2A
100
AcDbVisualStyle
  2
Facepattern
 70
    15
 71
     2
 72
     2
 73
     0
 90
        0
 40
0.6
 41
30.0
 62
     5
 63
     7
 74
     1
 91
        4
 64
     7
 65
   257
 75
     1
175
     1
 42
1.0
 92
        8
 66
     7
 43
1.0
 76
     1
 77
     6
 78
     2
 67
     7
 79
     5
170
     0
171
     0
290
     0
174
     0
 93
        1
 44
0.0
173
     0
291
     1
 45
0.0
1001
ACAD
1000
AcDbSavedByObjectVersion
1070
     0
  0
VISUALSTYLE
  5
2B
102
{ACAD_REACTORS
330
2A
102
}
102
{ACAD_XDICTIONARY
360
3B3
102
}
330
2A
100
AcDbVisualStyle
  2
Flat
 70
     0
 71
     2
 72
     1
 73
     1
 90
        2
 40
0.6
 41
30.0
 62
     5
 63
     7
 74
     0
 91
        0
 64
     7
 65
   257
 75
     1
175
     1
 42
1.0
 92
        8
 66
     7
 43
1.0
 76
     1
 77
     6
 78
     2
 67
     7
 79
     5
170
     0
171
     0
290
     0
174
     0
 93
       13
 44
0.0
173
     0
291
     1
 45
0.0
1001
ACAD
1000
AcDbSavedByObjectVersion
1070
     0
  0
VISUALSTYLE
  5
2C
102
{ACAD_REACTORS
330
2A
102
}
102
{ACAD_XDICTIONARY
360
3B5
102
}
330
2A
100
AcDbVisualStyle
  2
FlatWithEdges
 70
     1
 71
     2
 72
     1
 73
     1
 90
        2
 40
0.6
 41
30.0
 62
     5
 63
     7
 74
     1
 91
        0
 64
     7
 65
   257
 75
     1
175
     1
 42
1.0
 92
        0
 66
   257
 43
1.0
 76
     1
 77
     6
 78
     2
 67
     7
 79
     5
170
     0
171
     0
290
     0
174
     0
 93
       13
 44
0.0
173
     0
291
     1
 45
0.0
1001
ACAD
1000
AcDbSavedByObjectVersion
1070
     0
  0
VISUALSTYLE
  5
2D
102
{ACAD_REACTORS
330
2A
102
}
102
{ACAD_XDICTIONARY
360
3B7
102
}
330
2A
100
AcDbVisualStyle
  2
Gouraud
 70
     2
 71
     2
 72
     2
 73
     1
 90
        2
 40
0.6
 41
30.0
 62
     5
 63
     7
 74
     0
 91
        0
 64
     7
 65
   257
 75
     1
175
     1
 42
1.0
 92
        0
 66
     7
 43
1.0
 76
     1
 77
     6
 78
     2
 67
     7
 79
     5
170
     0
171
     0
290
     0
174
     0
 93
       13
 44
0.0
173
     0
291
     1
 45
0.0
1001
ACAD
1000
AcDbSavedByObjectVersion
1070
     0
  0
VISUALSTYLE
  5
2E
102
{ACAD_REACTORS
330
2A
102
}
102
{ACAD_XDICTIONARY
360
3B9
102
}
330
2A
100
AcDbVisualStyle
  2
GouraudWithEdges
 70
     3
 71
     2
 72
     2
 73
     1
 90
        2
 40
0.6
 41
30.0
 62
     5
 63
     7
 74
     1
 91
        0
 64
     7
 65
   257
 75
     1
175
     1
 42
1.0
 92
        0
 66
   257
 43
1.0
 76
     1
 77
     6
 78
     2
 67
     7
 79
     5
170
     0
171
     0
290
     0
174
     0
 93
       13
 44
0.0
173
     0
291
     1
 45
0.0
1001
ACAD
1000
AcDbSavedByObjectVersion
1070
     0
  0
VISUALSTYLE
  5
31
102
{ACAD_REACTORS
330
2A
102
}
102
{ACAD_XDICTIONARY
360
3BF
102
}
330
2A
100
AcDbVisualStyle
  2
Hidden
 70
     6
 71
     1
 72
     2
 73
     2
 90
        0
 40
0.6
 41
30.0
 62
     5
 63
     7
 74
     2
 91
        2
 64
     7
 65
   257
 75
     2
175
     1
 42
40.0
 92
        0
 66
   257
 43
1.0
 76
     1
 77
     6
 78
     2
 67
     7
 79
     3
170
     0
171
     0
290
     0
174
     0
 93
        1
 44
0.0
173
     0
291
     0
 45
0.0
1001
ACAD
1000
AcDbSavedByObjectVersion
1070
     0
  0
VISUALSTYLE
  5
3B
102
{ACAD_REACTORS
330
2A
102
}
102
{ACAD_XDICTIONARY
360
3D3
102
}
330
2A
100
AcDbVisualStyle
  2
JitterOff
 70
    20
 71
     2
 72
     2
 73
     0
 90
        0
 40
0.6
 41
30.0
 62
     5
 63
     7
 74
     1
 91
        4
 64
     7
 65
   257
 75
     1
175
     1
 42
1.0
 92
       10
 66
     7
 43
1.0
 76
     1
 77
     6
 78
     2
 67
     7
 79
     5
170
     0
171
     0
290
     0
174
     0
 93
        1
 44
0.0
173
     0
291
     1
 45
0.0
1001
ACAD
1000
AcDbSavedByObjectVersion
1070
     0
  0
VISUALSTYLE
  5
38
102
{ACAD_REACTORS
330
2A
102
}
102
{ACAD_XDICTIONARY
360
3CD
102
}
330
2A
100
AcDbVisualStyle
  2
Linepattern
 70
    14
 71
     2
 72
     2
 73
     0
 90
        0
 40
0.6
 41
30.0
 62
     5
 63
     7
 74
     1
 91
        4
 64
     7
 65
   257
 75
     7
175
     7
 42
1.0
 92
        8
 66
     7
 43
1.0
 76
     1
 77
     6
 78
     2
 67
     7
 79
     5
170
     0
171
     0
290
     0
174
     0
 93
        1
 44
0.0
173
     0
291
     1
 45
0.0
1001
ACAD
1000
AcDbSavedByObjectVersion
1070
     0
  0
VISUALSTYLE
  5
3C
102
{ACAD_REACTORS
330
2A
102
}
102
{ACAD_XDICTIONARY
360
3D5
102
}
330
2A
100
AcDbVisualStyle
  2
OverhangOff
 70
    21
 71
     2
 72
     2
 73
     0
 90
        0
 40
0.6
 41
30.0
 62
     5
 63
     7
 74
     1
 91
        4
 64
     7
 65
   257
 75
     1
175
     1
 42
1.0
 92
        9
 66
     7
 43
1.0
 76
     1
 77
     6
 78
     2
 67
     7
 79
     5
170
     0
171
     0
290
     0
174
     0
 93
        1
 44
0.0
173
     0
291
     1
 45
0.0
1001
ACAD
1000
AcDbSavedByObjectVersion
1070
     0
  0
VISUALSTYLE
  5
33
102
{ACAD_REACTORS
330
2A
102
}
102
{ACAD_XDICTIONARY
360
3C3
102
}
330
2A
100
AcDbVisualStyle
  2
Realistic
 70
     8
 71
     2
 72
     3
 73
     0
 90
        2
 40
0.6
 41
30.0
 62
     5
 63
     7
 74
     0
 91
        0
 64
     7
 65
   257
 75
     1
175
     1
 42
1.0
 92
        8
 66
   257
 43
1.0
 76
     1
 77
     6
 78
     2
 67
     7
 79
     3
170
     0
171
     0
290
     0
174
     0
 93
       13
 44
0.0
173
     0
291
     0
 45
0.0
1001
ACAD
1000
AcDbSavedByObjectVersion
1070
     0
  0
VISUALSTYLE
  5
42
102
{ACAD_REACTORS
330
2A
102
}
102
{ACAD_XDICTIONARY
360
3E1
102
}
330
2A
100
AcDbVisualStyle
  2
Shaded
 70
    27
 71
     2
 72
     2
 73
     1
 90
        2
 40
0.6
 41
30.0
 62
     5
 63
     7
 74
     0
 91
        4
 64
     7
 65
   257
 75
     1
175
     1
 42
1.0
 92
        8
 66
   257
 43
1.0
 76
     1
 77
     6
 78
     2
 67
     8
 79
     3
170
     0
171
     0
290
     0
174
     0
 93
        5
 44
0.0
173
     0
291
     0
 45
0.0
1001
ACAD
1000
AcDbSavedByObjectVersion
1070
     0
  0
VISUALSTYLE
  5
41
102
{ACAD_REACTORS
330
2A
102
}
102
{ACAD_XDICTIONARY
360
3DF
102
}
330
2A
100
AcDbVisualStyle
  2
Shaded with edges
 70
    26
 71
     2
 72
     2
 73
     1
 90
        2
 40
0.6
 41
30.0
 62
     5
 63
     7
 74
     1
 91
       10
 64
     7
 65
   257
 75
     2
175
     1
 42
1.0
 92
        8
 66
   257
 43
1.0
 76
     1
 77
     6
 78
     2
 67
     7
 79
     3
170
     0
171
     0
290
     0
174
     0
 93
        5
 44
0.0
173
     0
291
     0
 45
0.0
1001
ACAD
1000
AcDbSavedByObjectVersion
1070
     0
  0
VISUALSTYLE
  5
3E
102
{ACAD_REACTORS
330
2A
102
}
102
{ACAD_XDICTIONARY
360
3D9
102
}
330
2A
100
AcDbVisualStyle
  2
Shades of Gray
 70
    23
 71
     2
 72
     2
 73
     3
 90
        0
 40
0.6
 41
30.0
 62
     5
 63
     7
 74
     2
 91
        2
 64
     7
 65
     7
 75
     1
175
     1
 42
40.0
 92
        8
 66
     7
 43
1.0
 76
     1
 77
     6
 78
     2
 67
     7
 79
     3
170
     0
171
     0
290
     0
174
     0
 93
        1
 44
0.0
173
     0
291
     0
 45
0.0
1001
ACAD
1000
AcDbSavedByObjectVersion
1070
     0
  0
VISUALSTYLE
  5
3F
102
{ACAD_REACTORS
330
2A
102
}
102
{ACAD_XDICTIONARY
360
3DB
102
}
330
2A
100
AcDbVisualStyle
  2
Sketchy
 70
    24
 71
     1
 72
     2
 73
     2
 90
        0
 40
0.6
 41
30.0
 62
     5
 63
     7
 74
     2
 91
        2
 64
     7
 65
     7
 75
     1
175
     1
 42
40.0
 92
       11
 66
     7
 43
1.0
 76
     1
 77
     6
 78
     2
 67
     7
 79
     6
170
     0
171
     0
290
     0
174
     0
 93
        1
 44
0.0
173
     0
291
     0
 45
0.0
1001
ACAD
1000
AcDbSavedByObjectVersion
1070
     0
  0
VISUALSTYLE
  5
37
102
{ACAD_REACTORS
330
2A
102
}
102
{ACAD_XDICTIONARY
360
3CB
102
}
330
2A
100
AcDbVisualStyle
  2
Thicken
 70
    13
 71
     2
 72
     2
 73
     0
 90
        0
 40
0.6
 41
30.0
 62
     5
 63
     7
 74
     1
 91
        4
 64
     7
 65
   257
 75
     1
175
     1
 42
1.0
 92
       12
 66
     7
 43
1.0
 76
     1
 77
     6
 78
     2
 67
     7
 79
     5
170
     0
171
     0
290
     0
174
     0
 93
        1
 44
0.0
173
     0
291
     1
 45
0.0
1001
ACAD
1000
AcDbSavedByObjectVersion
1070
     0
  0
VISUALSTYLE
  5
30
102
{ACAD_REACTORS
330
2A
102
}
102
{ACAD_XDICTIONARY
360
3BD
102
}
330
2A
100
AcDbVisualStyle
  2
Wireframe
 70
     5
 71
     0
 72
     2
 73
     0
 90
        0
 40
0.6
 41
30.0
 62
     5
 63
     7
 74
     1
 91
        4
 64
     7
 65
   257
 75
     1
175
     1
 42
1.0
 92
        0
 66
   257
 43
1.0
 76
     1
 77
     6
 78
     2
 67
     7
 79
     3
170
     0
171
     0
290
     0
174
     0
 93
        1
 44
0.0
173
     0
291
     0
 45
0.0
1001
ACAD
1000
AcDbSavedByObjectVersion
1070
     0
  0
VISUALSTYLE
  5
40
102
{ACAD_REACTORS
330
2A
102
}
102
{ACAD_XDICTIONARY
360
3DD
102
}
330
2A
100
AcDbVisualStyle
  2
X-Ray
 70
    25
 71
     2
 72
     2
 73
     1
 90
        1
 40
0.5
 41
30.0
 62
     5
 63
     7
 74
     1
 91
        0
 64
     7
 65
   257
 75
     1
175
     1
 42
1.0
 92
        8
 66
     7
 43
1.0
 76
     1
 77
     6
 78
     2
 67
     7
 79
     3
170
     0
171
     0
290
     0
174
     0
 93
       13
 44
0.0
173
     0
291
     0
 45
0.0
1001
ACAD
1000
AcDbSavedByObjectVersion
1070
     0
  0
DICTIONARYVAR
  5
3B1
102
{ACAD_REACTORS
330
3A5
102
}
330
3A5
100
DictionaryVariables
280
     0
  1
1:1
  0
DICTIONARYVAR
  5
3A7
102
{ACAD_REACTORS
330
3A5
102
}
330
3A5
100
DictionaryVariables
280
     0
  1
Standard
  0
DICTIONARYVAR
  5
3A6
102
{ACAD_REACTORS
330
3A5
102
}
330
3A5
100
DictionaryVariables
280
     0
  1
Standard
  0
DICTIONARYVAR
  5
3AD
102
{ACAD_REACTORS
330
3A5
102
}
330
3A5
100
DictionaryVariables
280
     0
  1
2
  0
DICTIONARYVAR
  5
3AE
102
{ACAD_REACTORS
330
3A5
102
}
330
3A5
100
DictionaryVariables
280
     0
  1
1
  0
DICTIONARYVAR
  5
3B2
102
{ACAD_REACTORS
330
3A5
102
}
330
3A5
100
DictionaryVariables
280
     0
  1
1
  0
DICTIONARYVAR
  5
3A9
102
{ACAD_REACTORS
330
3A5
102
}
330
3A5
100
DictionaryVariables
280
     0
  1
80.000000
  0
DICTIONARYVAR
  5
3A8
102
{ACAD_REACTORS
330
3A5
102
}
330
3A5
100
DictionaryVariables
280
     0
  1
5.000000
  0
DICTIONARYVAR
  5
3AC
102
{ACAD_REACTORS
330
3A5
102
}
330
3A5
100
DictionaryVariables
280
     0
  1
6.000000
  0
DICTIONARY
  5
3E5
330
45
100
AcDbDictionary
280
     1
281
     1
  3
ACAD_XREC_ROUNDTRIP
360
3E6
  0
DICTIONARY
  5
3E3
330
44
100
AcDbDictionary
280
     1
281
     1
  3
ACAD_XREC_ROUNDTRIP
360
3E4
  0
DICTIONARY
  5
3E7
330
46
100
AcDbDictionary
280
     1
281
     1
  3
ACAD_XREC_ROUNDTRIP
360
3E8
  0
DICTIONARY
  5
3EA
330
6C
100
AcDbDictionary
280
     1
281
     1
  3
ACAD_XREC_ROUNDTRIP
360
3EB
  0
DICTIONARY
  5
3BB
330
2F
100
AcDbDictionary
280
     1
281
     1
  3
ACAD_XREC_ROUNDTRIP
360
3BC
  0
DICTIONARY
  5
3C1
330
32
100
AcDbDictionary
280
     1
281
     1
  3
ACAD_XREC_ROUNDTRIP
360
3C2
  0
DICTIONARY
  5
3C9
330
36
100
AcDbDictionary
280
     1
281
     1
  3
ACAD_XREC_ROUNDTRIP
360
3CA
  0
DICTIONARY
  5
3D1
330
3A
100
AcDbDictionary
280
     1
281
     1
  3
ACAD_XREC_ROUNDTRIP
360
3D2
  0
DICTIONARY
  5
3C5
330
34
100
AcDbDictionary
280
     1
281
     1
  3
ACAD_XREC_ROUNDTRIP
360
3C6
  0
DICTIONARY
  5
3C7
330
35
100
AcDbDictionary
280
     1
281
     1
  3
ACAD_XREC_ROUNDTRIP
360
3C8
  0
DICTIONARY
  5
3D7
330
3D
100
AcDbDictionary
280
     1
281
     1
  3
ACAD_XREC_ROUNDTRIP
360
3D8
  0
DICTIONARY
  5
3CF
330
39
100
AcDbDictionary
280
     1
281
     1
  3
ACAD_XREC_ROUNDTRIP
360
3D0
  0
DICTIONARY
  5
3B3
330
2B
100
AcDbDictionary
280
     1
281
     1
  3
ACAD_XREC_ROUNDTRIP
360
3B4
  0
DICTIONARY
  5
3B5
330
2C
100
AcDbDictionary
280
     1
281
     1
  3
ACAD_XREC_ROUNDTRIP
360
3B6
  0
DICTIONARY
  5
3B7
330
2D
100
AcDbDictionary
280
     1
281
     1
  3
ACAD_XREC_ROUNDTRIP
360
3B8
  0
DICTIONARY
  5
3B9
330
2E
100
AcDbDictionary
280
     1
281
     1
  3
ACAD_XREC_ROUNDTRIP
360
3BA
  0
DICTIONARY
  5
3BF
330
31
100
AcDbDictionary
280
     1
281
     1
  3
ACAD_XREC_ROUNDTRIP
360
3C0
  0
DICTIONARY
  5
3D3
330
3B
100
AcDbDictionary
280
     1
281
     1
  3
ACAD_XREC_ROUNDTRIP
360
3D4
  0
DICTIONARY
  5
3CD
330
38
100
AcDbDictionary
280
     1
281
     1
  3
ACAD_XREC_ROUNDTRIP
360
3CE
  0
DICTIONARY
  5
3D5
330
3C
100
AcDbDictionary
280
     1
281
     1
  3
ACAD_XREC_ROUNDTRIP
360
3D6
  0
DICTIONARY
  5
3C3
330
33
100
AcDbDictionary
280
     1
281
     1
  3
ACAD_XREC_ROUNDTRIP
360
3C4
  0
DICTIONARY
  5
3E1
330
42
100
AcDbDictionary
280
     1
281
     1
  3
ACAD_XREC_ROUNDTRIP
360
3E2
  0
DICTIONARY
  5
3DF
330
41
100
AcDbDictionary
280
     1
281
     1
  3
ACAD_XREC_ROUNDTRIP
360
3E0
  0
DICTIONARY
  5
3D9
330
3E
100
AcDbDictionary
280
     1
281
     1
  3
ACAD_XREC_ROUNDTRIP
360
3DA
  0
DICTIONARY
  5
3DB
330
3F
100
AcDbDictionary
280
     1
281
     1
  3
ACAD_XREC_ROUNDTRIP
360
3DC
  0
DICTIONARY
  5
3CB
330
37
100
AcDbDictionary
280
     1
281
     1
  3
ACAD_XREC_ROUNDTRIP
360
3CC
  0
DICTIONARY
  5
3BD
330
30
100
AcDbDictionary
280
     1
281
     1
  3
ACAD_XREC_ROUNDTRIP
360
3BE
  0
DICTIONARY
  5
3DD
330
40
100
AcDbDictionary
280
     1
281
     1
  3
ACAD_XREC_ROUNDTRIP
360
3DE
  0
XRECORD
  5
3E6
102
{ACAD_REACTORS
330
3E5
102
}
330
3E5
100
AcDbXrecord
280
     1
102
MATERIAL
148
0.0
149
0.0
149
0.0
 93
        0
 94
      127
282
     0
 72
     1
 77
     1
171
     1
175
     1
179
     1
273
     0
  0
XRECORD
  5
3E4
102
{ACAD_REACTORS
330
3E3
102
}
330
3E3
100
AcDbXrecord
280
     1
102
MATERIAL
148
0.0
149
0.0
149
0.0
 93
        0
 94
      127
282
     0
 72
     1
 77
     1
171
     1
175
     1
179
     1
273
     0
  0
XRECORD
  5
3E8
102
{ACAD_REACTORS
330
3E7
102
}
330
3E7
100
AcDbXrecord
280
     1
102
MATERIAL
148
0.0
149
0.0
149
0.0
 93
        0
 94
      127
282
     0
 72
     1
 77
     1
171
     1
175
     1
179
     1
273
     0
  0
XRECORD
  5
3EB
102
{ACAD_REACTORS
330
3EA
102
}
330
3EA
100
AcDbXrecord
280
     1
102
ACAD_ROUNDTRIP_2010_MLEADER_STYLE
  0
XRECORD
  5
3BC
102
{ACAD_REACTORS
330
3BB
102
}
330
3BB
100
AcDbXrecord
280
     1
102
RTVSPropertyOp0
 70
     1
102
RTVSPropertyOp1
 70
     1
102
RTVSPropertyOp2
 70
     1
102
RTVSPropertyOp3
 70
     1
102
RTVSPropertyOp4
 70
     1
102
RTVSPropertyOp5
 70
     1
102
RTVSPropertyOp6
 70
     1
102
RTVSPropertyOp7
 70
     1
102
RTVSPropertyOp8
 70
     1
102
RTVSPropertyOp9
 70
     1
102
RTVSPropertyOp10
 70
     1
102
RTVSPropertyOp11
 70
     1
102
RTVSPropertyOp12
 70
     1
102
RTVSPropertyOp13
 70
     1
102
RTVSPropertyOp14
 70
     1
102
RTVSPropertyOp15
 70
     1
102
RTVSPropertyOp16
 70
     1
102
RTVSPropertyOp17
 70
     1
102
RTVSPropertyOp18
 70
     1
102
RTVSPropertyOp19
 70
     1
102
RTVSPropertyOp20
 70
     1
102
RTVSPropertyOp21
 70
     1
102
RTVSPropertyOp22
 70
     1
102
RTVSPropertyOp23
 70
     1
102
RTVSPropertyOp24
 70
     1
102
RTVSPropertyOp25
 70
     1
102
RTVSPropertyOp26
 70
     1
102
RTVSPropertyOp27
 70
     1
102
RTVSPropertyOp28
 70
     1
102
RTVSPropertyOp29
 70
     1
102
RTVSPropertyOp30
 70
     1
102
RTVSPropertyOp31
 70
     1
102
RTVSPropertyOp32
 70
     1
102
RTVSPropertyOp33
 70
     1
102
RTVSPropertyOp34
 70
     1
102
RTVSPropertyOp35
 70
     1
102
RTVSPropertyOp36
 70
     1
102
RTVSPropertyOp37
 70
     1
102
RTVSPropertyOp38
 70
     1
102
RTVSPropertyOp39
 70
     1
102
RTVSPropertyOp40
 70
     1
102
RTVSPropertyOp41
 70
     1
102
RTVSPropertyOp42
 70
     1
102
RTVSPropertyOp43
 70
     1
102
RTVSPropertyOp44
 70
     1
102
RTVSPropertyOp45
 70
     1
102
RTVSPropertyOp46
 70
     1
102
RTVSPropertyOp47
 70
     1
102
RTVSPropertyOp48
 70
     1
102
RTVSPropertyOp49
 70
     1
102
RTVSPropertyOp50
 70
     1
102
RTVSPropertyOp51
 70
     0
102
RTVSPropertyOp52
 70
     0
102
RTVSPropertyOp53
 70
     1
102
RTVSPropertyOp54
 70
     1
102
RTVSPropertyOp55
 70
     1
102
RTVSPropertyOp56
 70
     1
102
RTVSPropertyOp57
 70
     1
102
RTVSPost2010Prop28
280
     1
102
RTVSPost2010PropOp28
 70
     1
102
RTVSPost2010Prop29
280
     1
102
RTVSPost2010PropOp29
 70
     1
102
RTVSPost2010Prop30
280
     0
102
RTVSPost2010PropOp30
 70
     1
102
RTVSPost2010Prop31
280
     0
102
RTVSPost2010PropOp31
 70
     1
102
RTVSPost2010Prop32
280
     0
102
RTVSPost2010PropOp32
 70
     1
102
RTVSPost2010Prop33
280
     0
102
RTVSPost2010PropOp33
 70
     1
102
RTVSPost2010Prop34
280
     0
102
RTVSPost2010PropOp34
 70
     1
102
RTVSPost2010Prop35
280
     0
102
RTVSPost2010PropOp35
 70
     1
102
RTVSPost2010Prop36
280
     0
102
RTVSPost2010PropOp36
 70
     1
102
RTVSPost2010Prop37
 90
       50
102
RTVSPost2010PropOp37
 70
     1
102
RTVSPost2010Prop38
140
0.0
102
RTVSPost2010PropOp38
 70
     1
102
RTVSPost2010Prop39
140
1.0
102
RTVSPost2010PropOp39
 70
     1
102
RTVSPost2010Prop40
 90
        0
102
RTVSPost2010PropOp40
 70
     1
102
RTVSPost2010Prop41ColorIndex
 90
       18
102
RTVSPost2010Prop41ColorRGB
 90
        0
102
RTVSPost2010PropOp41
 70
     1
102
RTVSPost2010Prop42
 90
       50
102
RTVSPost2010PropOp42
 70
     1
102
RTVSPost2010Prop43
 90
        3
102
RTVSPost2010PropOp43
 70
     1
102
RTVSPost2010Prop44ColorIndex
 90
        5
102
RTVSPost2010Prop44ColorRGB
 90
      255
102
RTVSPost2010PropOp44
 70
     1
102
RTVSPost2010Prop45
280
     0
102
RTVSPost2010PropOp45
 70
     1
102
RTVSPost2010Prop46
 90
       50
102
RTVSPost2010PropOp46
 70
     1
102
RTVSPost2010Prop47
 90
       50
102
RTVSPost2010PropOp47
 70
     1
102
RTVSPost2010Prop48
 90
       50
102
RTVSPost2010PropOp48
 70
     1
102
RTVSPost2010Prop49
280
     0
102
RTVSPost2010PropOp49
 70
     1
102
RTVSPost2010Prop50
 90
       50
102
RTVSPost2010PropOp50
 70
     1
102
RTVSPost2010Prop51ColorIndex
 90
      256
102
RTVSPost2010Prop51ColorRGB
 90
-16777216
102
RTVSPost2010PropOp51
 70
     0
102
RTVSPost2010Prop52
140
1.0
102
RTVSPost2010PropOp52
 70
     0
102
RTVSPost2010Prop53
 90
        2
102
RTVSPost2010PropOp53
 70
     1
102
RTVSPost2010Prop54
  1
strokes_ogs.tif
102
RTVSPost2010PropOp54
 70
     1
102
RTVSPost2010Prop55
280
     0
102
RTVSPost2010PropOp55
 70
     1
102
RTVSPost2010Prop56
140
1.0
102
RTVSPost2010PropOp56
 70
     1
102
RTVSPost2010Prop57
140
1.0
102
RTVSPost2010PropOp57
 70
     1
  0
XRECORD
  5
3C2
102
{ACAD_REACTORS
330
3C1
102
}
330
3C1
100
AcDbXrecord
280
     1
102
RTVSPropertyOp0
 70
     1
102
RTVSPropertyOp1
 70
     1
102
RTVSPropertyOp2
 70
     1
102
RTVSPropertyOp3
 70
     1
102
RTVSPropertyOp4
 70
     1
102
RTVSPropertyOp5
 70
     1
102
RTVSPropertyOp6
 70
     1
102
RTVSPropertyOp7
 70
     1
102
RTVSPropertyOp8
 70
     1
102
RTVSPropertyOp9
 70
     1
102
RTVSPropertyOp10
 70
     1
102
RTVSPropertyOp11
 70
     1
102
RTVSPropertyOp12
 70
     1
102
RTVSPropertyOp13
 70
     1
102
RTVSPropertyOp14
 70
     1
102
RTVSPropertyOp15
 70
     1
102
RTVSPropertyOp16
 70
     1
102
RTVSPropertyOp17
 70
     1
102
RTVSPropertyOp18
 70
     1
102
RTVSPropertyOp19
 70
     1
102
RTVSPropertyOp20
 70
     1
102
RTVSPropertyOp21
 70
     1
102
RTVSPropertyOp22
 70
     1
102
RTVSPropertyOp23
 70
     1
102
RTVSPropertyOp24
 70
     1
102
RTVSPropertyOp25
 70
     1
102
RTVSPropertyOp26
 70
     1
102
RTVSPropertyOp27
 70
     1
102
RTVSPropertyOp28
 70
     1
102
RTVSPropertyOp29
 70
     1
102
RTVSPropertyOp30
 70
     1
102
RTVSPropertyOp31
 70
     1
102
RTVSPropertyOp32
 70
     1
102
RTVSPropertyOp33
 70
     1
102
RTVSPropertyOp34
 70
     1
102
RTVSPropertyOp35
 70
     1
102
RTVSPropertyOp36
 70
     1
102
RTVSPropertyOp37
 70
     1
102
RTVSPropertyOp38
 70
     1
102
RTVSPropertyOp39
 70
     1
102
RTVSPropertyOp40
 70
     1
102
RTVSPropertyOp41
 70
     1
102
RTVSPropertyOp42
 70
     1
102
RTVSPropertyOp43
 70
     1
102
RTVSPropertyOp44
 70
     1
102
RTVSPropertyOp45
 70
     1
102
RTVSPropertyOp46
 70
     1
102
RTVSPropertyOp47
 70
     1
102
RTVSPropertyOp48
 70
     1
102
RTVSPropertyOp49
 70
     1
102
RTVSPropertyOp50
 70
     1
102
RTVSPropertyOp51
 70
     0
102
RTVSPropertyOp52
 70
     0
102
RTVSPropertyOp53
 70
     1
102
RTVSPropertyOp54
 70
     1
102
RTVSPropertyOp55
 70
     1
102
RTVSPropertyOp56
 70
     1
102
RTVSPropertyOp57
 70
     1
102
RTVSPost2010Prop28
280
     0
102
RTVSPost2010PropOp28
 70
     1
102
RTVSPost2010Prop29
280
     1
102
RTVSPost2010PropOp29
 70
     1
102
RTVSPost2010Prop30
280
     1
102
RTVSPost2010PropOp30
 70
     1
102
RTVSPost2010Prop31
280
     0
102
RTVSPost2010PropOp31
 70
     1
102
RTVSPost2010Prop32
280
     0
102
RTVSPost2010PropOp32
 70
     1
102
RTVSPost2010Prop33
280
     0
102
RTVSPost2010PropOp33
 70
     1
102
RTVSPost2010Prop34
280
     0
102
RTVSPost2010PropOp34
 70
     1
102
RTVSPost2010Prop35
280
     0
102
RTVSPost2010PropOp35
 70
     1
102
RTVSPost2010Prop36
280
     0
102
RTVSPost2010PropOp36
 70
     1
102
RTVSPost2010Prop37
 90
       50
102
RTVSPost2010PropOp37
 70
     1
102
RTVSPost2010Prop38
140
0.0
102
RTVSPost2010PropOp38
 70
     1
102
RTVSPost2010Prop39
140
1.0
102
RTVSPost2010PropOp39
 70
     1
102
RTVSPost2010Prop40
 90
        0
102
RTVSPost2010PropOp40
 70
     1
102
RTVSPost2010Prop41ColorIndex
 90
       18
102
RTVSPost2010Prop41ColorRGB
 90
        0
102
RTVSPost2010PropOp41
 70
     1
102
RTVSPost2010Prop42
 90
       50
102
RTVSPost2010PropOp42
 70
     1
102
RTVSPost2010Prop43
 90
        3
102
RTVSPost2010PropOp43
 70
     1
102
RTVSPost2010Prop44ColorIndex
 90
        5
102
RTVSPost2010Prop44ColorRGB
 90
      255
102
RTVSPost2010PropOp44
 70
     1
102
RTVSPost2010Prop45
280
     0
102
RTVSPost2010PropOp45
 70
     1
102
RTVSPost2010Prop46
 90
       50
102
RTVSPost2010PropOp46
 70
     1
102
RTVSPost2010Prop47
 90
       50
102
RTVSPost2010PropOp47
 70
     1
102
RTVSPost2010Prop48
 90
       50
102
RTVSPost2010PropOp48
 70
     1
102
RTVSPost2010Prop49
280
     0
102
RTVSPost2010PropOp49
 70
     1
102
RTVSPost2010Prop50
 90
       50
102
RTVSPost2010PropOp50
 70
     1
102
RTVSPost2010Prop51ColorIndex
 90
      256
102
RTVSPost2010Prop51ColorRGB
 90
-16777216
102
RTVSPost2010PropOp51
 70
     0
102
RTVSPost2010Prop52
140
1.0
102
RTVSPost2010PropOp52
 70
     0
102
RTVSPost2010Prop53
 90
        2
102
RTVSPost2010PropOp53
 70
     1
102
RTVSPost2010Prop54
  1
strokes_ogs.tif
102
RTVSPost2010PropOp54
 70
     1
102
RTVSPost2010Prop55
280
     0
102
RTVSPost2010PropOp55
 70
     1
102
RTVSPost2010Prop56
140
1.0
102
RTVSPost2010PropOp56
 70
     1
102
RTVSPost2010Prop57
140
1.0
102
RTVSPost2010PropOp57
 70
     1
  0
XRECORD
  5
3CA
102
{ACAD_REACTORS
330
3C9
102
}
330
3C9
100
AcDbXrecord
280
     1
102
RTVSPropertyOp0
 70
     1
102
RTVSPropertyOp1
 70
     1
102
RTVSPropertyOp2
 70
     1
102
RTVSPropertyOp3
 70
     1
102
RTVSPropertyOp4
 70
     1
102
RTVSPropertyOp5
 70
     1
102
RTVSPropertyOp6
 70
     1
102
RTVSPropertyOp7
 70
     1
102
RTVSPropertyOp8
 70
     1
102
RTVSPropertyOp9
 70
     1
102
RTVSPropertyOp10
 70
     1
102
RTVSPropertyOp11
 70
     1
102
RTVSPropertyOp12
 70
     1
102
RTVSPropertyOp13
 70
     1
102
RTVSPropertyOp14
 70
     1
102
RTVSPropertyOp15
 70
     1
102
RTVSPropertyOp16
 70
     1
102
RTVSPropertyOp17
 70
     1
102
RTVSPropertyOp18
 70
     1
102
RTVSPropertyOp19
 70
     1
102
RTVSPropertyOp20
 70
     1
102
RTVSPropertyOp21
 70
     1
102
RTVSPropertyOp22
 70
     1
102
RTVSPropertyOp23
 70
     1
102
RTVSPropertyOp24
 70
     1
102
RTVSPropertyOp25
 70
     1
102
RTVSPropertyOp26
 70
     1
102
RTVSPropertyOp27
 70
     1
102
RTVSPropertyOp28
 70
     1
102
RTVSPropertyOp29
 70
     1
102
RTVSPropertyOp30
 70
     1
102
RTVSPropertyOp31
 70
     1
102
RTVSPropertyOp32
 70
     1
102
RTVSPropertyOp33
 70
     1
102
RTVSPropertyOp34
 70
     1
102
RTVSPropertyOp35
 70
     1
102
RTVSPropertyOp36
 70
     1
102
RTVSPropertyOp37
 70
     1
102
RTVSPropertyOp38
 70
     1
102
RTVSPropertyOp39
 70
     1
102
RTVSPropertyOp40
 70
     1
102
RTVSPropertyOp41
 70
     1
102
RTVSPropertyOp42
 70
     1
102
RTVSPropertyOp43
 70
     1
102
RTVSPropertyOp44
 70
     1
102
RTVSPropertyOp45
 70
     1
102
RTVSPropertyOp46
 70
     1
102
RTVSPropertyOp47
 70
     1
102
RTVSPropertyOp48
 70
     1
102
RTVSPropertyOp49
 70
     1
102
RTVSPropertyOp50
 70
     1
102
RTVSPropertyOp51
 70
     0
102
RTVSPropertyOp52
 70
     0
102
RTVSPropertyOp53
 70
     1
102
RTVSPropertyOp54
 70
     1
102
RTVSPropertyOp55
 70
     1
102
RTVSPropertyOp56
 70
     1
102
RTVSPropertyOp57
 70
     1
102
RTVSPost2010Prop28
280
     0
102
RTVSPost2010PropOp28
 70
     1
102
RTVSPost2010Prop29
280
     1
102
RTVSPost2010PropOp29
 70
     1
102
RTVSPost2010Prop30
280
     1
102
RTVSPost2010PropOp30
 70
     1
102
RTVSPost2010Prop31
280
     0
102
RTVSPost2010PropOp31
 70
     1
102
RTVSPost2010Prop32
280
     0
102
RTVSPost2010PropOp32
 70
     1
102
RTVSPost2010Prop33
280
     0
102
RTVSPost2010PropOp33
 70
     1
102
RTVSPost2010Prop34
280
     0
102
RTVSPost2010PropOp34
 70
     1
102
RTVSPost2010Prop35
280
     0
102
RTVSPost2010PropOp35
 70
     1
102
RTVSPost2010Prop36
280
     0
102
RTVSPost2010PropOp36
 70
     1
102
RTVSPost2010Prop37
 90
       50
102
RTVSPost2010PropOp37
 70
     1
102
RTVSPost2010Prop38
140
0.0
102
RTVSPost2010PropOp38
 70
     1
102
RTVSPost2010Prop39
140
1.0
102
RTVSPost2010PropOp39
 70
     1
102
RTVSPost2010Prop40
 90
        0
102
RTVSPost2010PropOp40
 70
     1
102
RTVSPost2010Prop41ColorIndex
 90
       18
102
RTVSPost2010Prop41ColorRGB
 90
        0
102
RTVSPost2010PropOp41
 70
     1
102
RTVSPost2010Prop42
 90
       50
102
RTVSPost2010PropOp42
 70
     1
102
RTVSPost2010Prop43
 90
        3
102
RTVSPost2010PropOp43
 70
     1
102
RTVSPost2010Prop44ColorIndex
 90
        5
102
RTVSPost2010Prop44ColorRGB
 90
      255
102
RTVSPost2010PropOp44
 70
     1
102
RTVSPost2010Prop45
280
     0
102
RTVSPost2010PropOp45
 70
     1
102
RTVSPost2010Prop46
 90
       50
102
RTVSPost2010PropOp46
 70
     1
102
RTVSPost2010Prop47
 90
       50
102
RTVSPost2010PropOp47
 70
     1
102
RTVSPost2010Prop48
 90
       50
102
RTVSPost2010PropOp48
 70
     1
102
RTVSPost2010Prop49
280
     0
102
RTVSPost2010PropOp49
 70
     1
102
RTVSPost2010Prop50
 90
       50
102
RTVSPost2010PropOp50
 70
     1
102
RTVSPost2010Prop51ColorIndex
 90
      256
102
RTVSPost2010Prop51ColorRGB
 90
-16777216
102
RTVSPost2010PropOp51
 70
     0
102
RTVSPost2010Prop52
140
1.0
102
RTVSPost2010PropOp52
 70
     0
102
RTVSPost2010Prop53
 90
        2
102
RTVSPost2010PropOp53
 70
     1
102
RTVSPost2010Prop54
  1
strokes_ogs.tif
102
RTVSPost2010PropOp54
 70
     1
102
RTVSPost2010Prop55
280
     0
102
RTVSPost2010PropOp55
 70
     1
102
RTVSPost2010Prop56
140
1.0
102
RTVSPost2010PropOp56
 70
     1
102
RTVSPost2010Prop57
140
1.0
102
RTVSPost2010PropOp57
 70
     1
  0
XRECORD
  5
3D2
102
{ACAD_REACTORS
330
3D1
102
}
330
3D1
100
AcDbXrecord
280
     1
102
RTVSPropertyOp0
 70
     1
102
RTVSPropertyOp1
 70
     1
102
RTVSPropertyOp2
 70
     1
102
RTVSPropertyOp3
 70
     1
102
RTVSPropertyOp4
 70
     1
102
RTVSPropertyOp5
 70
     1
102
RTVSPropertyOp6
 70
     1
102
RTVSPropertyOp7
 70
     1
102
RTVSPropertyOp8
 70
     1
102
RTVSPropertyOp9
 70
     1
102
RTVSPropertyOp10
 70
     1
102
RTVSPropertyOp11
 70
     1
102
RTVSPropertyOp12
 70
     1
102
RTVSPropertyOp13
 70
     1
102
RTVSPropertyOp14
 70
     1
102
RTVSPropertyOp15
 70
     1
102
RTVSPropertyOp16
 70
     1
102
RTVSPropertyOp17
 70
     1
102
RTVSPropertyOp18
 70
     1
102
RTVSPropertyOp19
 70
     1
102
RTVSPropertyOp20
 70
     1
102
RTVSPropertyOp21
 70
     1
102
RTVSPropertyOp22
 70
     1
102
RTVSPropertyOp23
 70
     1
102
RTVSPropertyOp24
 70
     1
102
RTVSPropertyOp25
 70
     1
102
RTVSPropertyOp26
 70
     1
102
RTVSPropertyOp27
 70
     1
102
RTVSPropertyOp28
 70
     1
102
RTVSPropertyOp29
 70
     1
102
RTVSPropertyOp30
 70
     1
102
RTVSPropertyOp31
 70
     1
102
RTVSPropertyOp32
 70
     1
102
RTVSPropertyOp33
 70
     1
102
RTVSPropertyOp34
 70
     1
102
RTVSPropertyOp35
 70
     1
102
RTVSPropertyOp36
 70
     1
102
RTVSPropertyOp37
 70
     1
102
RTVSPropertyOp38
 70
     1
102
RTVSPropertyOp39
 70
     1
102
RTVSPropertyOp40
 70
     1
102
RTVSPropertyOp41
 70
     1
102
RTVSPropertyOp42
 70
     1
102
RTVSPropertyOp43
 70
     1
102
RTVSPropertyOp44
 70
     1
102
RTVSPropertyOp45
 70
     1
102
RTVSPropertyOp46
 70
     1
102
RTVSPropertyOp47
 70
     1
102
RTVSPropertyOp48
 70
     1
102
RTVSPropertyOp49
 70
     1
102
RTVSPropertyOp50
 70
     1
102
RTVSPropertyOp51
 70
     0
102
RTVSPropertyOp52
 70
     0
102
RTVSPropertyOp53
 70
     1
102
RTVSPropertyOp54
 70
     1
102
RTVSPropertyOp55
 70
     1
102
RTVSPropertyOp56
 70
     1
102
RTVSPropertyOp57
 70
     1
102
RTVSPost2010Prop28
280
     0
102
RTVSPost2010PropOp28
 70
     1
102
RTVSPost2010Prop29
280
     1
102
RTVSPost2010PropOp29
 70
     1
102
RTVSPost2010Prop30
280
     1
102
RTVSPost2010PropOp30
 70
     1
102
RTVSPost2010Prop31
280
     0
102
RTVSPost2010PropOp31
 70
     1
102
RTVSPost2010Prop32
280
     0
102
RTVSPost2010PropOp32
 70
     1
102
RTVSPost2010Prop33
280
     0
102
RTVSPost2010PropOp33
 70
     1
102
RTVSPost2010Prop34
280
     0
102
RTVSPost2010PropOp34
 70
     1
102
RTVSPost2010Prop35
280
     0
102
RTVSPost2010PropOp35
 70
     1
102
RTVSPost2010Prop36
280
     0
102
RTVSPost2010PropOp36
 70
     1
102
RTVSPost2010Prop37
 90
       50
102
RTVSPost2010PropOp37
 70
     1
102
RTVSPost2010Prop38
140
0.0
102
RTVSPost2010PropOp38
 70
     1
102
RTVSPost2010Prop39
140
1.0
102
RTVSPost2010PropOp39
 70
     1
102
RTVSPost2010Prop40
 90
        0
102
RTVSPost2010PropOp40
 70
     1
102
RTVSPost2010Prop41ColorIndex
 90
       18
102
RTVSPost2010Prop41ColorRGB
 90
        0
102
RTVSPost2010PropOp41
 70
     1
102
RTVSPost2010Prop42
 90
       50
102
RTVSPost2010PropOp42
 70
     1
102
RTVSPost2010Prop43
 90
        3
102
RTVSPost2010PropOp43
 70
     1
102
RTVSPost2010Prop44ColorIndex
 90
        5
102
RTVSPost2010Prop44ColorRGB
 90
      255
102
RTVSPost2010PropOp44
 70
     1
102
RTVSPost2010Prop45
280
     0
102
RTVSPost2010PropOp45
 70
     1
102
RTVSPost2010Prop46
 90
       50
102
RTVSPost2010PropOp46
 70
     1
102
RTVSPost2010Prop47
 90
       50
102
RTVSPost2010PropOp47
 70
     1
102
RTVSPost2010Prop48
 90
       50
102
RTVSPost2010PropOp48
 70
     1
102
RTVSPost2010Prop49
280
     0
102
RTVSPost2010PropOp49
 70
     1
102
RTVSPost2010Prop50
 90
       50
102
RTVSPost2010PropOp50
 70
     1
102
RTVSPost2010Prop51ColorIndex
 90
      256
102
RTVSPost2010Prop51ColorRGB
 90
-16777216
102
RTVSPost2010PropOp51
 70
     0
102
RTVSPost2010Prop52
140
1.0
102
RTVSPost2010PropOp52
 70
     0
102
RTVSPost2010Prop53
 90
        2
102
RTVSPost2010PropOp53
 70
     1
102
RTVSPost2010Prop54
  1
strokes_ogs.tif
102
RTVSPost2010PropOp54
 70
     1
102
RTVSPost2010Prop55
280
     0
102
RTVSPost2010PropOp55
 70
     1
102
RTVSPost2010Prop56
140
1.0
102
RTVSPost2010PropOp56
 70
     1
102
RTVSPost2010Prop57
140
1.0
102
RTVSPost2010PropOp57
 70
     1
  0
XRECORD
  5
3C6
102
{ACAD_REACTORS
330
3C5
102
}
330
3C5
100
AcDbXrecord
280
     1
102
RTVSPropertyOp0
 70
     1
102
RTVSPropertyOp1
 70
     1
102
RTVSPropertyOp2
 70
     1
102
RTVSPropertyOp3
 70
     1
102
RTVSPropertyOp4
 70
     1
102
RTVSPropertyOp5
 70
     1
102
RTVSPropertyOp6
 70
     1
102
RTVSPropertyOp7
 70
     1
102
RTVSPropertyOp8
 70
     1
102
RTVSPropertyOp9
 70
     1
102
RTVSPropertyOp10
 70
     1
102
RTVSPropertyOp11
 70
     1
102
RTVSPropertyOp12
 70
     1
102
RTVSPropertyOp13
 70
     1
102
RTVSPropertyOp14
 70
     1
102
RTVSPropertyOp15
 70
     1
102
RTVSPropertyOp16
 70
     1
102
RTVSPropertyOp17
 70
     1
102
RTVSPropertyOp18
 70
     1
102
RTVSPropertyOp19
 70
     1
102
RTVSPropertyOp20
 70
     1
102
RTVSPropertyOp21
 70
     1
102
RTVSPropertyOp22
 70
     1
102
RTVSPropertyOp23
 70
     1
102
RTVSPropertyOp24
 70
     1
102
RTVSPropertyOp25
 70
     1
102
RTVSPropertyOp26
 70
     1
102
RTVSPropertyOp27
 70
     1
102
RTVSPropertyOp28
 70
     1
102
RTVSPropertyOp29
 70
     1
102
RTVSPropertyOp30
 70
     1
102
RTVSPropertyOp31
 70
     1
102
RTVSPropertyOp32
 70
     1
102
RTVSPropertyOp33
 70
     1
102
RTVSPropertyOp34
 70
     1
102
RTVSPropertyOp35
 70
     1
102
RTVSPropertyOp36
 70
     1
102
RTVSPropertyOp37
 70
     1
102
RTVSPropertyOp38
 70
     1
102
RTVSPropertyOp39
 70
     1
102
RTVSPropertyOp40
 70
     1
102
RTVSPropertyOp41
 70
     1
102
RTVSPropertyOp42
 70
     1
102
RTVSPropertyOp43
 70
     1
102
RTVSPropertyOp44
 70
     1
102
RTVSPropertyOp45
 70
     1
102
RTVSPropertyOp46
 70
     1
102
RTVSPropertyOp47
 70
     1
102
RTVSPropertyOp48
 70
     1
102
RTVSPropertyOp49
 70
     1
102
RTVSPropertyOp50
 70
     1
102
RTVSPropertyOp51
 70
     0
102
RTVSPropertyOp52
 70
     0
102
RTVSPropertyOp53
 70
     1
102
RTVSPropertyOp54
 70
     1
102
RTVSPropertyOp55
 70
     1
102
RTVSPropertyOp56
 70
     1
102
RTVSPropertyOp57
 70
     1
102
RTVSPost2010Prop28
280
     0
102
RTVSPost2010PropOp28
 70
     1
102
RTVSPost2010Prop29
280
     1
102
RTVSPost2010PropOp29
 70
     1
102
RTVSPost2010Prop30
280
     1
102
RTVSPost2010PropOp30
 70
     1
102
RTVSPost2010Prop31
280
     0
102
RTVSPost2010PropOp31
 70
     1
102
RTVSPost2010Prop32
280
     0
102
RTVSPost2010PropOp32
 70
     1
102
RTVSPost2010Prop33
280
     0
102
RTVSPost2010PropOp33
 70
     1
102
RTVSPost2010Prop34
280
     0
102
RTVSPost2010PropOp34
 70
     1
102
RTVSPost2010Prop35
280
     0
102
RTVSPost2010PropOp35
 70
     1
102
RTVSPost2010Prop36
280
     0
102
RTVSPost2010PropOp36
 70
     1
102
RTVSPost2010Prop37
 90
       50
102
RTVSPost2010PropOp37
 70
     1
102
RTVSPost2010Prop38
140
0.0
102
RTVSPost2010PropOp38
 70
     1
102
RTVSPost2010Prop39
140
1.0
102
RTVSPost2010PropOp39
 70
     1
102
RTVSPost2010Prop40
 90
        0
102
RTVSPost2010PropOp40
 70
     1
102
RTVSPost2010Prop41ColorIndex
 90
       18
102
RTVSPost2010Prop41ColorRGB
 90
        0
102
RTVSPost2010PropOp41
 70
     1
102
RTVSPost2010Prop42
 90
       50
102
RTVSPost2010PropOp42
 70
     1
102
RTVSPost2010Prop43
 90
        3
102
RTVSPost2010PropOp43
 70
     1
102
RTVSPost2010Prop44ColorIndex
 90
        5
102
RTVSPost2010Prop44ColorRGB
 90
      255
102
RTVSPost2010PropOp44
 70
     1
102
RTVSPost2010Prop45
280
     0
102
RTVSPost2010PropOp45
 70
     1
102
RTVSPost2010Prop46
 90
       50
102
RTVSPost2010PropOp46
 70
     1
102
RTVSPost2010Prop47
 90
       50
102
RTVSPost2010PropOp47
 70
     1
102
RTVSPost2010Prop48
 90
       50
102
RTVSPost2010PropOp48
 70
     1
102
RTVSPost2010Prop49
280
     0
102
RTVSPost2010PropOp49
 70
     1
102
RTVSPost2010Prop50
 90
       50
102
RTVSPost2010PropOp50
 70
     1
102
RTVSPost2010Prop51ColorIndex
 90
      256
102
RTVSPost2010Prop51ColorRGB
 90
-16777216
102
RTVSPost2010PropOp51
 70
     0
102
RTVSPost2010Prop52
140
1.0
102
RTVSPost2010PropOp52
 70
     0
102
RTVSPost2010Prop53
 90
        2
102
RTVSPost2010PropOp53
 70
     1
102
RTVSPost2010Prop54
  1
strokes_ogs.tif
102
RTVSPost2010PropOp54
 70
     1
102
RTVSPost2010Prop55
280
     0
102
RTVSPost2010PropOp55
 70
     1
102
RTVSPost2010Prop56
140
1.0
102
RTVSPost2010PropOp56
 70
     1
102
RTVSPost2010Prop57
140
1.0
102
RTVSPost2010PropOp57
 70
     1
  0
XRECORD
  5
3C8
102
{ACAD_REACTORS
330
3C7
102
}
330
3C7
100
AcDbXrecord
280
     1
102
RTVSPropertyOp0
 70
     1
102
RTVSPropertyOp1
 70
     1
102
RTVSPropertyOp2
 70
     1
102
RTVSPropertyOp3
 70
     1
102
RTVSPropertyOp4
 70
     1
102
RTVSPropertyOp5
 70
     1
102
RTVSPropertyOp6
 70
     1
102
RTVSPropertyOp7
 70
     1
102
RTVSPropertyOp8
 70
     1
102
RTVSPropertyOp9
 70
     1
102
RTVSPropertyOp10
 70
     1
102
RTVSPropertyOp11
 70
     1
102
RTVSPropertyOp12
 70
     1
102
RTVSPropertyOp13
 70
     1
102
RTVSPropertyOp14
 70
     1
102
RTVSPropertyOp15
 70
     1
102
RTVSPropertyOp16
 70
     1
102
RTVSPropertyOp17
 70
     1
102
RTVSPropertyOp18
 70
     1
102
RTVSPropertyOp19
 70
     1
102
RTVSPropertyOp20
 70
     1
102
RTVSPropertyOp21
 70
     1
102
RTVSPropertyOp22
 70
     1
102
RTVSPropertyOp23
 70
     1
102
RTVSPropertyOp24
 70
     1
102
RTVSPropertyOp25
 70
     1
102
RTVSPropertyOp26
 70
     1
102
RTVSPropertyOp27
 70
     1
102
RTVSPropertyOp28
 70
     1
102
RTVSPropertyOp29
 70
     1
102
RTVSPropertyOp30
 70
     1
102
RTVSPropertyOp31
 70
     1
102
RTVSPropertyOp32
 70
     1
102
RTVSPropertyOp33
 70
     1
102
RTVSPropertyOp34
 70
     1
102
RTVSPropertyOp35
 70
     1
102
RTVSPropertyOp36
 70
     1
102
RTVSPropertyOp37
 70
     1
102
RTVSPropertyOp38
 70
     1
102
RTVSPropertyOp39
 70
     1
102
RTVSPropertyOp40
 70
     1
102
RTVSPropertyOp41
 70
     1
102
RTVSPropertyOp42
 70
     1
102
RTVSPropertyOp43
 70
     1
102
RTVSPropertyOp44
 70
     1
102
RTVSPropertyOp45
 70
     1
102
RTVSPropertyOp46
 70
     1
102
RTVSPropertyOp47
 70
     1
102
RTVSPropertyOp48
 70
     1
102
RTVSPropertyOp49
 70
     1
102
RTVSPropertyOp50
 70
     1
102
RTVSPropertyOp51
 70
     0
102
RTVSPropertyOp52
 70
     0
102
RTVSPropertyOp53
 70
     1
102
RTVSPropertyOp54
 70
     1
102
RTVSPropertyOp55
 70
     1
102
RTVSPropertyOp56
 70
     1
102
RTVSPropertyOp57
 70
     1
102
RTVSPost2010Prop28
280
     0
102
RTVSPost2010PropOp28
 70
     1
102
RTVSPost2010Prop29
280
     1
102
RTVSPost2010PropOp29
 70
     1
102
RTVSPost2010Prop30
280
     1
102
RTVSPost2010PropOp30
 70
     1
102
RTVSPost2010Prop31
280
     0
102
RTVSPost2010PropOp31
 70
     1
102
RTVSPost2010Prop32
280
     0
102
RTVSPost2010PropOp32
 70
     1
102
RTVSPost2010Prop33
280
     0
102
RTVSPost2010PropOp33
 70
     1
102
RTVSPost2010Prop34
280
     0
102
RTVSPost2010PropOp34
 70
     1
102
RTVSPost2010Prop35
280
     0
102
RTVSPost2010PropOp35
 70
     1
102
RTVSPost2010Prop36
280
     0
102
RTVSPost2010PropOp36
 70
     1
102
RTVSPost2010Prop37
 90
       50
102
RTVSPost2010PropOp37
 70
     1
102
RTVSPost2010Prop38
140
0.0
102
RTVSPost2010PropOp38
 70
     1
102
RTVSPost2010Prop39
140
1.0
102
RTVSPost2010PropOp39
 70
     1
102
RTVSPost2010Prop40
 90
        0
102
RTVSPost2010PropOp40
 70
     1
102
RTVSPost2010Prop41ColorIndex
 90
       18
102
RTVSPost2010Prop41ColorRGB
 90
        0
102
RTVSPost2010PropOp41
 70
     1
102
RTVSPost2010Prop42
 90
       50
102
RTVSPost2010PropOp42
 70
     1
102
RTVSPost2010Prop43
 90
        3
102
RTVSPost2010PropOp43
 70
     1
102
RTVSPost2010Prop44ColorIndex
 90
        5
102
RTVSPost2010Prop44ColorRGB
 90
      255
102
RTVSPost2010PropOp44
 70
     1
102
RTVSPost2010Prop45
280
     0
102
RTVSPost2010PropOp45
 70
     1
102
RTVSPost2010Prop46
 90
       50
102
RTVSPost2010PropOp46
 70
     1
102
RTVSPost2010Prop47
 90
       50
102
RTVSPost2010PropOp47
 70
     1
102
RTVSPost2010Prop48
 90
       50
102
RTVSPost2010PropOp48
 70
     1
102
RTVSPost2010Prop49
280
     0
102
RTVSPost2010PropOp49
 70
     1
102
RTVSPost2010Prop50
 90
       50
102
RTVSPost2010PropOp50
 70
     1
102
RTVSPost2010Prop51ColorIndex
 90
      256
102
RTVSPost2010Prop51ColorRGB
 90
-16777216
102
RTVSPost2010PropOp51
 70
     0
102
RTVSPost2010Prop52
140
1.0
102
RTVSPost2010PropOp52
 70
     0
102
RTVSPost2010Prop53
 90
        2
102
RTVSPost2010PropOp53
 70
     1
102
RTVSPost2010Prop54
  1
strokes_ogs.tif
102
RTVSPost2010PropOp54
 70
     1
102
RTVSPost2010Prop55
280
     0
102
RTVSPost2010PropOp55
 70
     1
102
RTVSPost2010Prop56
140
1.0
102
RTVSPost2010PropOp56
 70
     1
102
RTVSPost2010Prop57
140
1.0
102
RTVSPost2010PropOp57
 70
     1
  0
XRECORD
  5
3D8
102
{ACAD_REACTORS
330
3D7
102
}
330
3D7
100
AcDbXrecord
280
     1
102
RTVSPropertyOp0
 70
     0
102
RTVSPropertyOp1
 70
     0
102
RTVSPropertyOp2
 70
     0
102
RTVSPropertyOp3
 70
     0
102
RTVSPropertyOp4
 70
     0
102
RTVSPropertyOp5
 70
     0
102
RTVSPropertyOp6
 70
     0
102
RTVSPropertyOp7
 70
     0
102
RTVSPropertyOp8
 70
     0
102
RTVSPropertyOp9
 70
     0
102
RTVSPropertyOp10
 70
     0
102
RTVSPropertyOp11
 70
     0
102
RTVSPropertyOp12
 70
     0
102
RTVSPropertyOp13
 70
     0
102
RTVSPropertyOp14
 70
     2
102
RTVSPropertyOp15
 70
     0
102
RTVSPropertyOp16
 70
     0
102
RTVSPropertyOp17
 70
     0
102
RTVSPropertyOp18
 70
     0
102
RTVSPropertyOp19
 70
     0
102
RTVSPropertyOp20
 70
     0
102
RTVSPropertyOp21
 70
     0
102
RTVSPropertyOp22
 70
     0
102
RTVSPropertyOp23
 70
     0
102
RTVSPropertyOp24
 70
     0
102
RTVSPropertyOp25
 70
     0
102
RTVSPropertyOp26
 70
     0
102
RTVSPropertyOp27
 70
     0
102
RTVSPropertyOp28
 70
     0
102
RTVSPropertyOp29
 70
     0
102
RTVSPropertyOp30
 70
     0
102
RTVSPropertyOp31
 70
     0
102
RTVSPropertyOp32
 70
     0
102
RTVSPropertyOp33
 70
     0
102
RTVSPropertyOp34
 70
     0
102
RTVSPropertyOp35
 70
     0
102
RTVSPropertyOp36
 70
     0
102
RTVSPropertyOp37
 70
     0
102
RTVSPropertyOp38
 70
     0
102
RTVSPropertyOp39
 70
     0
102
RTVSPropertyOp40
 70
     0
102
RTVSPropertyOp41
 70
     0
102
RTVSPropertyOp42
 70
     0
102
RTVSPropertyOp43
 70
     0
102
RTVSPropertyOp44
 70
     0
102
RTVSPropertyOp45
 70
     0
102
RTVSPropertyOp46
 70
     0
102
RTVSPropertyOp47
 70
     0
102
RTVSPropertyOp48
 70
     0
102
RTVSPropertyOp49
 70
     0
102
RTVSPropertyOp50
 70
     0
102
RTVSPropertyOp51
 70
     0
102
RTVSPropertyOp52
 70
     0
102
RTVSPropertyOp53
 70
     0
102
RTVSPropertyOp54
 70
     0
102
RTVSPropertyOp55
 70
     0
102
RTVSPropertyOp56
 70
     0
102
RTVSPropertyOp57
 70
     0
102
RTVSPost2010Prop28
280
     0
102
RTVSPost2010PropOp28
 70
     0
102
RTVSPost2010Prop29
280
     1
102
RTVSPost2010PropOp29
 70
     0
102
RTVSPost2010Prop30
280
     1
102
RTVSPost2010PropOp30
 70
     0
102
RTVSPost2010Prop31
280
     0
102
RTVSPost2010PropOp31
 70
     0
102
RTVSPost2010Prop32
280
     0
102
RTVSPost2010PropOp32
 70
     0
102
RTVSPost2010Prop33
280
     0
102
RTVSPost2010PropOp33
 70
     0
102
RTVSPost2010Prop34
280
     0
102
RTVSPost2010PropOp34
 70
     0
102
RTVSPost2010Prop35
280
     0
102
RTVSPost2010PropOp35
 70
     0
102
RTVSPost2010Prop36
280
     0
102
RTVSPost2010PropOp36
 70
     0
102
RTVSPost2010Prop37
 90
       50
102
RTVSPost2010PropOp37
 70
     0
102
RTVSPost2010Prop38
140
0.0
102
RTVSPost2010PropOp38
 70
     0
102
RTVSPost2010Prop39
140
1.0
102
RTVSPost2010PropOp39
 70
     0
102
RTVSPost2010Prop40
 90
        0
102
RTVSPost2010PropOp40
 70
     0
102
RTVSPost2010Prop41ColorIndex
 90
       18
102
RTVSPost2010Prop41ColorRGB
 90
        0
102
RTVSPost2010PropOp41
 70
     0
102
RTVSPost2010Prop42
 90
       50
102
RTVSPost2010PropOp42
 70
     0
102
RTVSPost2010Prop43
 90
        3
102
RTVSPost2010PropOp43
 70
     0
102
RTVSPost2010Prop44ColorIndex
 90
        5
102
RTVSPost2010Prop44ColorRGB
 90
      255
102
RTVSPost2010PropOp44
 70
     0
102
RTVSPost2010Prop45
280
     0
102
RTVSPost2010PropOp45
 70
     0
102
RTVSPost2010Prop46
 90
       50
102
RTVSPost2010PropOp46
 70
     0
102
RTVSPost2010Prop47
 90
       50
102
RTVSPost2010PropOp47
 70
     0
102
RTVSPost2010Prop48
 90
       50
102
RTVSPost2010PropOp48
 70
     0
102
RTVSPost2010Prop49
280
     0
102
RTVSPost2010PropOp49
 70
     0
102
RTVSPost2010Prop50
 90
       50
102
RTVSPost2010PropOp50
 70
     0
102
RTVSPost2010Prop51ColorIndex
 90
      256
102
RTVSPost2010Prop51ColorRGB
 90
-16777216
102
RTVSPost2010PropOp51
 70
     0
102
RTVSPost2010Prop52
140
1.0
102
RTVSPost2010PropOp52
 70
     0
102
RTVSPost2010Prop53
 90
        2
102
RTVSPost2010PropOp53
 70
     0
102
RTVSPost2010Prop54
  1
strokes_ogs.tif
102
RTVSPost2010PropOp54
 70
     0
102
RTVSPost2010Prop55
280
     0
102
RTVSPost2010PropOp55
 70
     0
102
RTVSPost2010Prop56
140
1.0
102
RTVSPost2010PropOp56
 70
     0
102
RTVSPost2010Prop57
140
1.0
102
RTVSPost2010PropOp57
 70
     0
  0
XRECORD
  5
3D0
102
{ACAD_REACTORS
330
3CF
102
}
330
3CF
100
AcDbXrecord
280
     1
102
RTVSPropertyOp0
 70
     1
102
RTVSPropertyOp1
 70
     1
102
RTVSPropertyOp2
 70
     1
102
RTVSPropertyOp3
 70
     1
102
RTVSPropertyOp4
 70
     1
102
RTVSPropertyOp5
 70
     1
102
RTVSPropertyOp6
 70
     1
102
RTVSPropertyOp7
 70
     1
102
RTVSPropertyOp8
 70
     1
102
RTVSPropertyOp9
 70
     1
102
RTVSPropertyOp10
 70
     1
102
RTVSPropertyOp11
 70
     1
102
RTVSPropertyOp12
 70
     1
102
RTVSPropertyOp13
 70
     1
102
RTVSPropertyOp14
 70
     1
102
RTVSPropertyOp15
 70
     1
102
RTVSPropertyOp16
 70
     1
102
RTVSPropertyOp17
 70
     1
102
RTVSPropertyOp18
 70
     1
102
RTVSPropertyOp19
 70
     1
102
RTVSPropertyOp20
 70
     1
102
RTVSPropertyOp21
 70
     1
102
RTVSPropertyOp22
 70
     1
102
RTVSPropertyOp23
 70
     1
102
RTVSPropertyOp24
 70
     1
102
RTVSPropertyOp25
 70
     1
102
RTVSPropertyOp26
 70
     1
102
RTVSPropertyOp27
 70
     1
102
RTVSPropertyOp28
 70
     1
102
RTVSPropertyOp29
 70
     1
102
RTVSPropertyOp30
 70
     1
102
RTVSPropertyOp31
 70
     1
102
RTVSPropertyOp32
 70
     1
102
RTVSPropertyOp33
 70
     1
102
RTVSPropertyOp34
 70
     1
102
RTVSPropertyOp35
 70
     1
102
RTVSPropertyOp36
 70
     1
102
RTVSPropertyOp37
 70
     1
102
RTVSPropertyOp38
 70
     1
102
RTVSPropertyOp39
 70
     1
102
RTVSPropertyOp40
 70
     1
102
RTVSPropertyOp41
 70
     1
102
RTVSPropertyOp42
 70
     1
102
RTVSPropertyOp43
 70
     1
102
RTVSPropertyOp44
 70
     1
102
RTVSPropertyOp45
 70
     1
102
RTVSPropertyOp46
 70
     1
102
RTVSPropertyOp47
 70
     1
102
RTVSPropertyOp48
 70
     1
102
RTVSPropertyOp49
 70
     1
102
RTVSPropertyOp50
 70
     1
102
RTVSPropertyOp51
 70
     0
102
RTVSPropertyOp52
 70
     0
102
RTVSPropertyOp53
 70
     1
102
RTVSPropertyOp54
 70
     1
102
RTVSPropertyOp55
 70
     1
102
RTVSPropertyOp56
 70
     1
102
RTVSPropertyOp57
 70
     1
102
RTVSPost2010Prop28
280
     0
102
RTVSPost2010PropOp28
 70
     1
102
RTVSPost2010Prop29
280
     1
102
RTVSPost2010PropOp29
 70
     1
102
RTVSPost2010Prop30
280
     1
102
RTVSPost2010PropOp30
 70
     1
102
RTVSPost2010Prop31
280
     0
102
RTVSPost2010PropOp31
 70
     1
102
RTVSPost2010Prop32
280
     0
102
RTVSPost2010PropOp32
 70
     1
102
RTVSPost2010Prop33
280
     0
102
RTVSPost2010PropOp33
 70
     1
102
RTVSPost2010Prop34
280
     0
102
RTVSPost2010PropOp34
 70
     1
102
RTVSPost2010Prop35
280
     0
102
RTVSPost2010PropOp35
 70
     1
102
RTVSPost2010Prop36
280
     0
102
RTVSPost2010PropOp36
 70
     1
102
RTVSPost2010Prop37
 90
       50
102
RTVSPost2010PropOp37
 70
     1
102
RTVSPost2010Prop38
140
0.0
102
RTVSPost2010PropOp38
 70
     1
102
RTVSPost2010Prop39
140
1.0
102
RTVSPost2010PropOp39
 70
     1
102
RTVSPost2010Prop40
 90
        0
102
RTVSPost2010PropOp40
 70
     1
102
RTVSPost2010Prop41ColorIndex
 90
       18
102
RTVSPost2010Prop41ColorRGB
 90
        0
102
RTVSPost2010PropOp41
 70
     1
102
RTVSPost2010Prop42
 90
       50
102
RTVSPost2010PropOp42
 70
     1
102
RTVSPost2010Prop43
 90
        3
102
RTVSPost2010PropOp43
 70
     1
102
RTVSPost2010Prop44ColorIndex
 90
        5
102
RTVSPost2010Prop44ColorRGB
 90
      255
102
RTVSPost2010PropOp44
 70
     1
102
RTVSPost2010Prop45
280
     0
102
RTVSPost2010PropOp45
 70
     1
102
RTVSPost2010Prop46
 90
       50
102
RTVSPost2010PropOp46
 70
     1
102
RTVSPost2010Prop47
 90
       50
102
RTVSPost2010PropOp47
 70
     1
102
RTVSPost2010Prop48
 90
       50
102
RTVSPost2010PropOp48
 70
     1
102
RTVSPost2010Prop49
280
     0
102
RTVSPost2010PropOp49
 70
     1
102
RTVSPost2010Prop50
 90
       50
102
RTVSPost2010PropOp50
 70
     1
102
RTVSPost2010Prop51ColorIndex
 90
      256
102
RTVSPost2010Prop51ColorRGB
 90
-16777216
102
RTVSPost2010PropOp51
 70
     0
102
RTVSPost2010Prop52
140
1.0
102
RTVSPost2010PropOp52
 70
     0
102
RTVSPost2010Prop53
 90
        2
102
RTVSPost2010PropOp53
 70
     1
102
RTVSPost2010Prop54
  1
strokes_ogs.tif
102
RTVSPost2010PropOp54
 70
     1
102
RTVSPost2010Prop55
280
     0
102
RTVSPost2010PropOp55
 70
     1
102
RTVSPost2010Prop56
140
1.0
102
RTVSPost2010PropOp56
 70
     1
102
RTVSPost2010Prop57
140
1.0
102
RTVSPost2010PropOp57
 70
     1
  0
XRECORD
  5
3B4
102
{ACAD_REACTORS
330
3B3
102
}
330
3B3
100
AcDbXrecord
280
     1
102
RTVSPropertyOp0
 70
     1
102
RTVSPropertyOp1
 70
     1
102
RTVSPropertyOp2
 70
     1
102
RTVSPropertyOp3
 70
     1
102
RTVSPropertyOp4
 70
     1
102
RTVSPropertyOp5
 70
     1
102
RTVSPropertyOp6
 70
     1
102
RTVSPropertyOp7
 70
     1
102
RTVSPropertyOp8
 70
     1
102
RTVSPropertyOp9
 70
     1
102
RTVSPropertyOp10
 70
     1
102
RTVSPropertyOp11
 70
     1
102
RTVSPropertyOp12
 70
     1
102
RTVSPropertyOp13
 70
     1
102
RTVSPropertyOp14
 70
     1
102
RTVSPropertyOp15
 70
     1
102
RTVSPropertyOp16
 70
     1
102
RTVSPropertyOp17
 70
     1
102
RTVSPropertyOp18
 70
     1
102
RTVSPropertyOp19
 70
     1
102
RTVSPropertyOp20
 70
     1
102
RTVSPropertyOp21
 70
     1
102
RTVSPropertyOp22
 70
     1
102
RTVSPropertyOp23
 70
     1
102
RTVSPropertyOp24
 70
     1
102
RTVSPropertyOp25
 70
     1
102
RTVSPropertyOp26
 70
     1
102
RTVSPropertyOp27
 70
     1
102
RTVSPropertyOp28
 70
     1
102
RTVSPropertyOp29
 70
     1
102
RTVSPropertyOp30
 70
     1
102
RTVSPropertyOp31
 70
     1
102
RTVSPropertyOp32
 70
     1
102
RTVSPropertyOp33
 70
     1
102
RTVSPropertyOp34
 70
     1
102
RTVSPropertyOp35
 70
     1
102
RTVSPropertyOp36
 70
     1
102
RTVSPropertyOp37
 70
     1
102
RTVSPropertyOp38
 70
     1
102
RTVSPropertyOp39
 70
     1
102
RTVSPropertyOp40
 70
     1
102
RTVSPropertyOp41
 70
     1
102
RTVSPropertyOp42
 70
     1
102
RTVSPropertyOp43
 70
     1
102
RTVSPropertyOp44
 70
     1
102
RTVSPropertyOp45
 70
     1
102
RTVSPropertyOp46
 70
     1
102
RTVSPropertyOp47
 70
     1
102
RTVSPropertyOp48
 70
     1
102
RTVSPropertyOp49
 70
     1
102
RTVSPropertyOp50
 70
     1
102
RTVSPropertyOp51
 70
     0
102
RTVSPropertyOp52
 70
     0
102
RTVSPropertyOp53
 70
     1
102
RTVSPropertyOp54
 70
     1
102
RTVSPropertyOp55
 70
     1
102
RTVSPropertyOp56
 70
     1
102
RTVSPropertyOp57
 70
     1
102
RTVSPost2010Prop28
280
     0
102
RTVSPost2010PropOp28
 70
     1
102
RTVSPost2010Prop29
280
     1
102
RTVSPost2010PropOp29
 70
     1
102
RTVSPost2010Prop30
280
     1
102
RTVSPost2010PropOp30
 70
     1
102
RTVSPost2010Prop31
280
     0
102
RTVSPost2010PropOp31
 70
     1
102
RTVSPost2010Prop32
280
     0
102
RTVSPost2010PropOp32
 70
     1
102
RTVSPost2010Prop33
280
     0
102
RTVSPost2010PropOp33
 70
     1
102
RTVSPost2010Prop34
280
     0
102
RTVSPost2010PropOp34
 70
     1
102
RTVSPost2010Prop35
280
     0
102
RTVSPost2010PropOp35
 70
     1
102
RTVSPost2010Prop36
280
     0
102
RTVSPost2010PropOp36
 70
     1
102
RTVSPost2010Prop37
 90
       50
102
RTVSPost2010PropOp37
 70
     1
102
RTVSPost2010Prop38
140
0.0
102
RTVSPost2010PropOp38
 70
     1
102
RTVSPost2010Prop39
140
1.0
102
RTVSPost2010PropOp39
 70
     1
102
RTVSPost2010Prop40
 90
        0
102
RTVSPost2010PropOp40
 70
     1
102
RTVSPost2010Prop41ColorIndex
 90
       18
102
RTVSPost2010Prop41ColorRGB
 90
        0
102
RTVSPost2010PropOp41
 70
     1
102
RTVSPost2010Prop42
 90
       50
102
RTVSPost2010PropOp42
 70
     1
102
RTVSPost2010Prop43
 90
        3
102
RTVSPost2010PropOp43
 70
     1
102
RTVSPost2010Prop44ColorIndex
 90
        5
102
RTVSPost2010Prop44ColorRGB
 90
      255
102
RTVSPost2010PropOp44
 70
     1
102
RTVSPost2010Prop45
280
     0
102
RTVSPost2010PropOp45
 70
     1
102
RTVSPost2010Prop46
 90
       50
102
RTVSPost2010PropOp46
 70
     1
102
RTVSPost2010Prop47
 90
       50
102
RTVSPost2010PropOp47
 70
     1
102
RTVSPost2010Prop48
 90
       50
102
RTVSPost2010PropOp48
 70
     1
102
RTVSPost2010Prop49
280
     0
102
RTVSPost2010PropOp49
 70
     1
102
RTVSPost2010Prop50
 90
       50
102
RTVSPost2010PropOp50
 70
     1
102
RTVSPost2010Prop51ColorIndex
 90
      256
102
RTVSPost2010Prop51ColorRGB
 90
-16777216
102
RTVSPost2010PropOp51
 70
     0
102
RTVSPost2010Prop52
140
1.0
102
RTVSPost2010PropOp52
 70
     0
102
RTVSPost2010Prop53
 90
        2
102
RTVSPost2010PropOp53
 70
     1
102
RTVSPost2010Prop54
  1
strokes_ogs.tif
102
RTVSPost2010PropOp54
 70
     1
102
RTVSPost2010Prop55
280
     0
102
RTVSPost2010PropOp55
 70
     1
102
RTVSPost2010Prop56
140
1.0
102
RTVSPost2010PropOp56
 70
     1
102
RTVSPost2010Prop57
140
1.0
102
RTVSPost2010PropOp57
 70
     1
  0
XRECORD
  5
3B6
102
{ACAD_REACTORS
330
3B5
102
}
330
3B5
100
AcDbXrecord
280
     1
102
RTVSPropertyOp0
 70
     1
102
RTVSPropertyOp1
 70
     1
102
RTVSPropertyOp2
 70
     1
102
RTVSPropertyOp3
 70
     1
102
RTVSPropertyOp4
 70
     1
102
RTVSPropertyOp5
 70
     1
102
RTVSPropertyOp6
 70
     1
102
RTVSPropertyOp7
 70
     1
102
RTVSPropertyOp8
 70
     1
102
RTVSPropertyOp9
 70
     1
102
RTVSPropertyOp10
 70
     1
102
RTVSPropertyOp11
 70
     1
102
RTVSPropertyOp12
 70
     1
102
RTVSPropertyOp13
 70
     1
102
RTVSPropertyOp14
 70
     1
102
RTVSPropertyOp15
 70
     1
102
RTVSPropertyOp16
 70
     1
102
RTVSPropertyOp17
 70
     1
102
RTVSPropertyOp18
 70
     1
102
RTVSPropertyOp19
 70
     1
102
RTVSPropertyOp20
 70
     1
102
RTVSPropertyOp21
 70
     1
102
RTVSPropertyOp22
 70
     1
102
RTVSPropertyOp23
 70
     1
102
RTVSPropertyOp24
 70
     1
102
RTVSPropertyOp25
 70
     1
102
RTVSPropertyOp26
 70
     1
102
RTVSPropertyOp27
 70
     1
102
RTVSPropertyOp28
 70
     1
102
RTVSPropertyOp29
 70
     1
102
RTVSPropertyOp30
 70
     1
102
RTVSPropertyOp31
 70
     1
102
RTVSPropertyOp32
 70
     1
102
RTVSPropertyOp33
 70
     1
102
RTVSPropertyOp34
 70
     1
102
RTVSPropertyOp35
 70
     1
102
RTVSPropertyOp36
 70
     1
102
RTVSPropertyOp37
 70
     1
102
RTVSPropertyOp38
 70
     1
102
RTVSPropertyOp39
 70
     1
102
RTVSPropertyOp40
 70
     1
102
RTVSPropertyOp41
 70
     1
102
RTVSPropertyOp42
 70
     1
102
RTVSPropertyOp43
 70
     1
102
RTVSPropertyOp44
 70
     1
102
RTVSPropertyOp45
 70
     1
102
RTVSPropertyOp46
 70
     1
102
RTVSPropertyOp47
 70
     1
102
RTVSPropertyOp48
 70
     1
102
RTVSPropertyOp49
 70
     1
102
RTVSPropertyOp50
 70
     1
102
RTVSPropertyOp51
 70
     0
102
RTVSPropertyOp52
 70
     0
102
RTVSPropertyOp53
 70
     1
102
RTVSPropertyOp54
 70
     1
102
RTVSPropertyOp55
 70
     1
102
RTVSPropertyOp56
 70
     1
102
RTVSPropertyOp57
 70
     1
102
RTVSPost2010Prop28
280
     0
102
RTVSPost2010PropOp28
 70
     1
102
RTVSPost2010Prop29
280
     1
102
RTVSPost2010PropOp29
 70
     1
102
RTVSPost2010Prop30
280
     1
102
RTVSPost2010PropOp30
 70
     1
102
RTVSPost2010Prop31
280
     0
102
RTVSPost2010PropOp31
 70
     1
102
RTVSPost2010Prop32
280
     0
102
RTVSPost2010PropOp32
 70
     1
102
RTVSPost2010Prop33
280
     0
102
RTVSPost2010PropOp33
 70
     1
102
RTVSPost2010Prop34
280
     0
102
RTVSPost2010PropOp34
 70
     1
102
RTVSPost2010Prop35
280
     0
102
RTVSPost2010PropOp35
 70
     1
102
RTVSPost2010Prop36
280
     0
102
RTVSPost2010PropOp36
 70
     1
102
RTVSPost2010Prop37
 90
       50
102
RTVSPost2010PropOp37
 70
     1
102
RTVSPost2010Prop38
140
0.0
102
RTVSPost2010PropOp38
 70
     1
102
RTVSPost2010Prop39
140
1.0
102
RTVSPost2010PropOp39
 70
     1
102
RTVSPost2010Prop40
 90
        0
102
RTVSPost2010PropOp40
 70
     1
102
RTVSPost2010Prop41ColorIndex
 90
       18
102
RTVSPost2010Prop41ColorRGB
 90
        0
102
RTVSPost2010PropOp41
 70
     1
102
RTVSPost2010Prop42
 90
       50
102
RTVSPost2010PropOp42
 70
     1
102
RTVSPost2010Prop43
 90
        3
102
RTVSPost2010PropOp43
 70
     1
102
RTVSPost2010Prop44ColorIndex
 90
        5
102
RTVSPost2010Prop44ColorRGB
 90
      255
102
RTVSPost2010PropOp44
 70
     1
102
RTVSPost2010Prop45
280
     0
102
RTVSPost2010PropOp45
 70
     1
102
RTVSPost2010Prop46
 90
       50
102
RTVSPost2010PropOp46
 70
     1
102
RTVSPost2010Prop47
 90
       50
102
RTVSPost2010PropOp47
 70
     1
102
RTVSPost2010Prop48
 90
       50
102
RTVSPost2010PropOp48
 70
     1
102
RTVSPost2010Prop49
280
     0
102
RTVSPost2010PropOp49
 70
     1
102
RTVSPost2010Prop50
 90
       50
102
RTVSPost2010PropOp50
 70
     1
102
RTVSPost2010Prop51ColorIndex
 90
      256
102
RTVSPost2010Prop51ColorRGB
 90
-16777216
102
RTVSPost2010PropOp51
 70
     0
102
RTVSPost2010Prop52
140
1.0
102
RTVSPost2010PropOp52
 70
     0
102
RTVSPost2010Prop53
 90
        2
102
RTVSPost2010PropOp53
 70
     1
102
RTVSPost2010Prop54
  1
strokes_ogs.tif
102
RTVSPost2010PropOp54
 70
     1
102
RTVSPost2010Prop55
280
     0
102
RTVSPost2010PropOp55
 70
     1
102
RTVSPost2010Prop56
140
1.0
102
RTVSPost2010PropOp56
 70
     1
102
RTVSPost2010Prop57
140
1.0
102
RTVSPost2010PropOp57
 70
     1
  0
XRECORD
  5
3B8
102
{ACAD_REACTORS
330
3B7
102
}
330
3B7
100
AcDbXrecord
280
     1
102
RTVSPropertyOp0
 70
     1
102
RTVSPropertyOp1
 70
     1
102
RTVSPropertyOp2
 70
     1
102
RTVSPropertyOp3
 70
     1
102
RTVSPropertyOp4
 70
     1
102
RTVSPropertyOp5
 70
     1
102
RTVSPropertyOp6
 70
     1
102
RTVSPropertyOp7
 70
     1
102
RTVSPropertyOp8
 70
     1
102
RTVSPropertyOp9
 70
     1
102
RTVSPropertyOp10
 70
     1
102
RTVSPropertyOp11
 70
     1
102
RTVSPropertyOp12
 70
     1
102
RTVSPropertyOp13
 70
     1
102
RTVSPropertyOp14
 70
     1
102
RTVSPropertyOp15
 70
     1
102
RTVSPropertyOp16
 70
     1
102
RTVSPropertyOp17
 70
     1
102
RTVSPropertyOp18
 70
     1
102
RTVSPropertyOp19
 70
     1
102
RTVSPropertyOp20
 70
     1
102
RTVSPropertyOp21
 70
     1
102
RTVSPropertyOp22
 70
     1
102
RTVSPropertyOp23
 70
     1
102
RTVSPropertyOp24
 70
     1
102
RTVSPropertyOp25
 70
     1
102
RTVSPropertyOp26
 70
     1
102
RTVSPropertyOp27
 70
     1
102
RTVSPropertyOp28
 70
     1
102
RTVSPropertyOp29
 70
     1
102
RTVSPropertyOp30
 70
     1
102
RTVSPropertyOp31
 70
     1
102
RTVSPropertyOp32
 70
     1
102
RTVSPropertyOp33
 70
     1
102
RTVSPropertyOp34
 70
     1
102
RTVSPropertyOp35
 70
     1
102
RTVSPropertyOp36
 70
     1
102
RTVSPropertyOp37
 70
     1
102
RTVSPropertyOp38
 70
     1
102
RTVSPropertyOp39
 70
     1
102
RTVSPropertyOp40
 70
     1
102
RTVSPropertyOp41
 70
     1
102
RTVSPropertyOp42
 70
     1
102
RTVSPropertyOp43
 70
     1
102
RTVSPropertyOp44
 70
     1
102
RTVSPropertyOp45
 70
     1
102
RTVSPropertyOp46
 70
     1
102
RTVSPropertyOp47
 70
     1
102
RTVSPropertyOp48
 70
     1
102
RTVSPropertyOp49
 70
     1
102
RTVSPropertyOp50
 70
     1
102
RTVSPropertyOp51
 70
     0
102
RTVSPropertyOp52
 70
     0
102
RTVSPropertyOp53
 70
     1
102
RTVSPropertyOp54
 70
     1
102
RTVSPropertyOp55
 70
     1
102
RTVSPropertyOp56
 70
     1
102
RTVSPropertyOp57
 70
     1
102
RTVSPost2010Prop28
280
     0
102
RTVSPost2010PropOp28
 70
     1
102
RTVSPost2010Prop29
280
     1
102
RTVSPost2010PropOp29
 70
     1
102
RTVSPost2010Prop30
280
     1
102
RTVSPost2010PropOp30
 70
     1
102
RTVSPost2010Prop31
280
     0
102
RTVSPost2010PropOp31
 70
     1
102
RTVSPost2010Prop32
280
     0
102
RTVSPost2010PropOp32
 70
     1
102
RTVSPost2010Prop33
280
     0
102
RTVSPost2010PropOp33
 70
     1
102
RTVSPost2010Prop34
280
     0
102
RTVSPost2010PropOp34
 70
     1
102
RTVSPost2010Prop35
280
     0
102
RTVSPost2010PropOp35
 70
     1
102
RTVSPost2010Prop36
280
     0
102
RTVSPost2010PropOp36
 70
     1
102
RTVSPost2010Prop37
 90
       50
102
RTVSPost2010PropOp37
 70
     1
102
RTVSPost2010Prop38
140
0.0
102
RTVSPost2010PropOp38
 70
     1
102
RTVSPost2010Prop39
140
1.0
102
RTVSPost2010PropOp39
 70
     1
102
RTVSPost2010Prop40
 90
        0
102
RTVSPost2010PropOp40
 70
     1
102
RTVSPost2010Prop41ColorIndex
 90
       18
102
RTVSPost2010Prop41ColorRGB
 90
        0
102
RTVSPost2010PropOp41
 70
     1
102
RTVSPost2010Prop42
 90
       50
102
RTVSPost2010PropOp42
 70
     1
102
RTVSPost2010Prop43
 90
        3
102
RTVSPost2010PropOp43
 70
     1
102
RTVSPost2010Prop44ColorIndex
 90
        5
102
RTVSPost2010Prop44ColorRGB
 90
      255
102
RTVSPost2010PropOp44
 70
     1
102
RTVSPost2010Prop45
280
     0
102
RTVSPost2010PropOp45
 70
     1
102
RTVSPost2010Prop46
 90
       50
102
RTVSPost2010PropOp46
 70
     1
102
RTVSPost2010Prop47
 90
       50
102
RTVSPost2010PropOp47
 70
     1
102
RTVSPost2010Prop48
 90
       50
102
RTVSPost2010PropOp48
 70
     1
102
RTVSPost2010Prop49
280
     0
102
RTVSPost2010PropOp49
 70
     1
102
RTVSPost2010Prop50
 90
       50
102
RTVSPost2010PropOp50
 70
     1
102
RTVSPost2010Prop51ColorIndex
 90
      256
102
RTVSPost2010Prop51ColorRGB
 90
-16777216
102
RTVSPost2010PropOp51
 70
     0
102
RTVSPost2010Prop52
140
1.0
102
RTVSPost2010PropOp52
 70
     0
102
RTVSPost2010Prop53
 90
        2
102
RTVSPost2010PropOp53
 70
     1
102
RTVSPost2010Prop54
  1
strokes_ogs.tif
102
RTVSPost2010PropOp54
 70
     1
102
RTVSPost2010Prop55
280
     0
102
RTVSPost2010PropOp55
 70
     1
102
RTVSPost2010Prop56
140
1.0
102
RTVSPost2010PropOp56
 70
     1
102
RTVSPost2010Prop57
140
1.0
102
RTVSPost2010PropOp57
 70
     1
  0
XRECORD
  5
3BA
102
{ACAD_REACTORS
330
3B9
102
}
330
3B9
100
AcDbXrecord
280
     1
102
RTVSPropertyOp0
 70
     1
102
RTVSPropertyOp1
 70
     1
102
RTVSPropertyOp2
 70
     1
102
RTVSPropertyOp3
 70
     1
102
RTVSPropertyOp4
 70
     1
102
RTVSPropertyOp5
 70
     1
102
RTVSPropertyOp6
 70
     1
102
RTVSPropertyOp7
 70
     1
102
RTVSPropertyOp8
 70
     1
102
RTVSPropertyOp9
 70
     1
102
RTVSPropertyOp10
 70
     1
102
RTVSPropertyOp11
 70
     1
102
RTVSPropertyOp12
 70
     1
102
RTVSPropertyOp13
 70
     1
102
RTVSPropertyOp14
 70
     1
102
RTVSPropertyOp15
 70
     1
102
RTVSPropertyOp16
 70
     1
102
RTVSPropertyOp17
 70
     1
102
RTVSPropertyOp18
 70
     1
102
RTVSPropertyOp19
 70
     1
102
RTVSPropertyOp20
 70
     1
102
RTVSPropertyOp21
 70
     1
102
RTVSPropertyOp22
 70
     1
102
RTVSPropertyOp23
 70
     1
102
RTVSPropertyOp24
 70
     1
102
RTVSPropertyOp25
 70
     1
102
RTVSPropertyOp26
 70
     1
102
RTVSPropertyOp27
 70
     1
102
RTVSPropertyOp28
 70
     1
102
RTVSPropertyOp29
 70
     1
102
RTVSPropertyOp30
 70
     1
102
RTVSPropertyOp31
 70
     1
102
RTVSPropertyOp32
 70
     1
102
RTVSPropertyOp33
 70
     1
102
RTVSPropertyOp34
 70
     1
102
RTVSPropertyOp35
 70
     1
102
RTVSPropertyOp36
 70
     1
102
RTVSPropertyOp37
 70
     1
102
RTVSPropertyOp38
 70
     1
102
RTVSPropertyOp39
 70
     1
102
RTVSPropertyOp40
 70
     1
102
RTVSPropertyOp41
 70
     1
102
RTVSPropertyOp42
 70
     1
102
RTVSPropertyOp43
 70
     1
102
RTVSPropertyOp44
 70
     1
102
RTVSPropertyOp45
 70
     1
102
RTVSPropertyOp46
 70
     1
102
RTVSPropertyOp47
 70
     1
102
RTVSPropertyOp48
 70
     1
102
RTVSPropertyOp49
 70
     1
102
RTVSPropertyOp50
 70
     1
102
RTVSPropertyOp51
 70
     0
102
RTVSPropertyOp52
 70
     0
102
RTVSPropertyOp53
 70
     1
102
RTVSPropertyOp54
 70
     1
102
RTVSPropertyOp55
 70
     1
102
RTVSPropertyOp56
 70
     1
102
RTVSPropertyOp57
 70
     1
102
RTVSPost2010Prop28
280
     0
102
RTVSPost2010PropOp28
 70
     1
102
RTVSPost2010Prop29
280
     1
102
RTVSPost2010PropOp29
 70
     1
102
RTVSPost2010Prop30
280
     1
102
RTVSPost2010PropOp30
 70
     1
102
RTVSPost2010Prop31
280
     0
102
RTVSPost2010PropOp31
 70
     1
102
RTVSPost2010Prop32
280
     0
102
RTVSPost2010PropOp32
 70
     1
102
RTVSPost2010Prop33
280
     0
102
RTVSPost2010PropOp33
 70
     1
102
RTVSPost2010Prop34
280
     0
102
RTVSPost2010PropOp34
 70
     1
102
RTVSPost2010Prop35
280
     0
102
RTVSPost2010PropOp35
 70
     1
102
RTVSPost2010Prop36
280
     0
102
RTVSPost2010PropOp36
 70
     1
102
RTVSPost2010Prop37
 90
       50
102
RTVSPost2010PropOp37
 70
     1
102
RTVSPost2010Prop38
140
0.0
102
RTVSPost2010PropOp38
 70
     1
102
RTVSPost2010Prop39
140
1.0
102
RTVSPost2010PropOp39
 70
     1
102
RTVSPost2010Prop40
 90
        0
102
RTVSPost2010PropOp40
 70
     1
102
RTVSPost2010Prop41ColorIndex
 90
       18
102
RTVSPost2010Prop41ColorRGB
 90
        0
102
RTVSPost2010PropOp41
 70
     1
102
RTVSPost2010Prop42
 90
       50
102
RTVSPost2010PropOp42
 70
     1
102
RTVSPost2010Prop43
 90
        3
102
RTVSPost2010PropOp43
 70
     1
102
RTVSPost2010Prop44ColorIndex
 90
        5
102
RTVSPost2010Prop44ColorRGB
 90
      255
102
RTVSPost2010PropOp44
 70
     1
102
RTVSPost2010Prop45
280
     0
102
RTVSPost2010PropOp45
 70
     1
102
RTVSPost2010Prop46
 90
       50
102
RTVSPost2010PropOp46
 70
     1
102
RTVSPost2010Prop47
 90
       50
102
RTVSPost2010PropOp47
 70
     1
102
RTVSPost2010Prop48
 90
       50
102
RTVSPost2010PropOp48
 70
     1
102
RTVSPost2010Prop49
280
     0
102
RTVSPost2010PropOp49
 70
     1
102
RTVSPost2010Prop50
 90
       50
102
RTVSPost2010PropOp50
 70
     1
102
RTVSPost2010Prop51ColorIndex
 90
      256
102
RTVSPost2010Prop51ColorRGB
 90
-16777216
102
RTVSPost2010PropOp51
 70
     0
102
RTVSPost2010Prop52
140
1.0
102
RTVSPost2010PropOp52
 70
     0
102
RTVSPost2010Prop53
 90
        2
102
RTVSPost2010PropOp53
 70
     1
102
RTVSPost2010Prop54
  1
strokes_ogs.tif
102
RTVSPost2010PropOp54
 70
     1
102
RTVSPost2010Prop55
280
     0
102
RTVSPost2010PropOp55
 70
     1
102
RTVSPost2010Prop56
140
1.0
102
RTVSPost2010PropOp56
 70
     1
102
RTVSPost2010Prop57
140
1.0
102
RTVSPost2010PropOp57
 70
     1
  0
XRECORD
  5
3C0
102
{ACAD_REACTORS
330
3BF
102
}
330
3BF
100
AcDbXrecord
280
     1
102
RTVSPropertyOp0
 70
     1
102
RTVSPropertyOp1
 70
     1
102
RTVSPropertyOp2
 70
     1
102
RTVSPropertyOp3
 70
     1
102
RTVSPropertyOp4
 70
     1
102
RTVSPropertyOp5
 70
     1
102
RTVSPropertyOp6
 70
     1
102
RTVSPropertyOp7
 70
     1
102
RTVSPropertyOp8
 70
     1
102
RTVSPropertyOp9
 70
     1
102
RTVSPropertyOp10
 70
     1
102
RTVSPropertyOp11
 70
     1
102
RTVSPropertyOp12
 70
     1
102
RTVSPropertyOp13
 70
     1
102
RTVSPropertyOp14
 70
     1
102
RTVSPropertyOp15
 70
     1
102
RTVSPropertyOp16
 70
     1
102
RTVSPropertyOp17
 70
     1
102
RTVSPropertyOp18
 70
     1
102
RTVSPropertyOp19
 70
     1
102
RTVSPropertyOp20
 70
     1
102
RTVSPropertyOp21
 70
     1
102
RTVSPropertyOp22
 70
     1
102
RTVSPropertyOp23
 70
     1
102
RTVSPropertyOp24
 70
     1
102
RTVSPropertyOp25
 70
     1
102
RTVSPropertyOp26
 70
     1
102
RTVSPropertyOp27
 70
     1
102
RTVSPropertyOp28
 70
     1
102
RTVSPropertyOp29
 70
     1
102
RTVSPropertyOp30
 70
     1
102
RTVSPropertyOp31
 70
     1
102
RTVSPropertyOp32
 70
     1
102
RTVSPropertyOp33
 70
     1
102
RTVSPropertyOp34
 70
     1
102
RTVSPropertyOp35
 70
     1
102
RTVSPropertyOp36
 70
     1
102
RTVSPropertyOp37
 70
     1
102
RTVSPropertyOp38
 70
     1
102
RTVSPropertyOp39
 70
     1
102
RTVSPropertyOp40
 70
     1
102
RTVSPropertyOp41
 70
     1
102
RTVSPropertyOp42
 70
     1
102
RTVSPropertyOp43
 70
     1
102
RTVSPropertyOp44
 70
     1
102
RTVSPropertyOp45
 70
     1
102
RTVSPropertyOp46
 70
     1
102
RTVSPropertyOp47
 70
     1
102
RTVSPropertyOp48
 70
     1
102
RTVSPropertyOp49
 70
     1
102
RTVSPropertyOp50
 70
     1
102
RTVSPropertyOp51
 70
     0
102
RTVSPropertyOp52
 70
     0
102
RTVSPropertyOp53
 70
     1
102
RTVSPropertyOp54
 70
     1
102
RTVSPropertyOp55
 70
     1
102
RTVSPropertyOp56
 70
     1
102
RTVSPropertyOp57
 70
     1
102
RTVSPost2010Prop28
280
     0
102
RTVSPost2010PropOp28
 70
     1
102
RTVSPost2010Prop29
280
     1
102
RTVSPost2010PropOp29
 70
     1
102
RTVSPost2010Prop30
280
     1
102
RTVSPost2010PropOp30
 70
     1
102
RTVSPost2010Prop31
280
     0
102
RTVSPost2010PropOp31
 70
     1
102
RTVSPost2010Prop32
280
     0
102
RTVSPost2010PropOp32
 70
     1
102
RTVSPost2010Prop33
280
     0
102
RTVSPost2010PropOp33
 70
     1
102
RTVSPost2010Prop34
280
     0
102
RTVSPost2010PropOp34
 70
     1
102
RTVSPost2010Prop35
280
     0
102
RTVSPost2010PropOp35
 70
     1
102
RTVSPost2010Prop36
280
     0
102
RTVSPost2010PropOp36
 70
     1
102
RTVSPost2010Prop37
 90
       50
102
RTVSPost2010PropOp37
 70
     1
102
RTVSPost2010Prop38
140
0.0
102
RTVSPost2010PropOp38
 70
     1
102
RTVSPost2010Prop39
140
1.0
102
RTVSPost2010PropOp39
 70
     1
102
RTVSPost2010Prop40
 90
        0
102
RTVSPost2010PropOp40
 70
     1
102
RTVSPost2010Prop41ColorIndex
 90
       18
102
RTVSPost2010Prop41ColorRGB
 90
        0
102
RTVSPost2010PropOp41
 70
     1
102
RTVSPost2010Prop42
 90
       50
102
RTVSPost2010PropOp42
 70
     1
102
RTVSPost2010Prop43
 90
        3
102
RTVSPost2010PropOp43
 70
     1
102
RTVSPost2010Prop44ColorIndex
 90
        5
102
RTVSPost2010Prop44ColorRGB
 90
      255
102
RTVSPost2010PropOp44
 70
     1
102
RTVSPost2010Prop45
280
     0
102
RTVSPost2010PropOp45
 70
     1
102
RTVSPost2010Prop46
 90
       50
102
RTVSPost2010PropOp46
 70
     1
102
RTVSPost2010Prop47
 90
       50
102
RTVSPost2010PropOp47
 70
     1
102
RTVSPost2010Prop48
 90
       50
102
RTVSPost2010PropOp48
 70
     1
102
RTVSPost2010Prop49
280
     0
102
RTVSPost2010PropOp49
 70
     1
102
RTVSPost2010Prop50
 90
       50
102
RTVSPost2010PropOp50
 70
     1
102
RTVSPost2010Prop51ColorIndex
 90
      256
102
RTVSPost2010Prop51ColorRGB
 90
-16777216
102
RTVSPost2010PropOp51
 70
     0
102
RTVSPost2010Prop52
140
1.0
102
RTVSPost2010PropOp52
 70
     0
102
RTVSPost2010Prop53
 90
        2
102
RTVSPost2010PropOp53
 70
     1
102
RTVSPost2010Prop54
  1
strokes_ogs.tif
102
RTVSPost2010PropOp54
 70
     1
102
RTVSPost2010Prop55
280
     0
102
RTVSPost2010PropOp55
 70
     1
102
RTVSPost2010Prop56
140
1.0
102
RTVSPost2010PropOp56
 70
     1
102
RTVSPost2010Prop57
140
1.0
102
RTVSPost2010PropOp57
 70
     1
  0
XRECORD
  5
3D4
102
{ACAD_REACTORS
330
3D3
102
}
330
3D3
100
AcDbXrecord
280
     1
102
RTVSPropertyOp0
 70
     0
102
RTVSPropertyOp1
 70
     0
102
RTVSPropertyOp2
 70
     0
102
RTVSPropertyOp3
 70
     0
102
RTVSPropertyOp4
 70
     0
102
RTVSPropertyOp5
 70
     0
102
RTVSPropertyOp6
 70
     0
102
RTVSPropertyOp7
 70
     0
102
RTVSPropertyOp8
 70
     0
102
RTVSPropertyOp9
 70
     0
102
RTVSPropertyOp10
 70
     0
102
RTVSPropertyOp11
 70
     0
102
RTVSPropertyOp12
 70
     0
102
RTVSPropertyOp13
 70
     0
102
RTVSPropertyOp14
 70
     2
102
RTVSPropertyOp15
 70
     0
102
RTVSPropertyOp16
 70
     0
102
RTVSPropertyOp17
 70
     0
102
RTVSPropertyOp18
 70
     0
102
RTVSPropertyOp19
 70
     0
102
RTVSPropertyOp20
 70
     0
102
RTVSPropertyOp21
 70
     0
102
RTVSPropertyOp22
 70
     0
102
RTVSPropertyOp23
 70
     0
102
RTVSPropertyOp24
 70
     0
102
RTVSPropertyOp25
 70
     0
102
RTVSPropertyOp26
 70
     0
102
RTVSPropertyOp27
 70
     0
102
RTVSPropertyOp28
 70
     0
102
RTVSPropertyOp29
 70
     0
102
RTVSPropertyOp30
 70
     0
102
RTVSPropertyOp31
 70
     0
102
RTVSPropertyOp32
 70
     0
102
RTVSPropertyOp33
 70
     0
102
RTVSPropertyOp34
 70
     0
102
RTVSPropertyOp35
 70
     0
102
RTVSPropertyOp36
 70
     0
102
RTVSPropertyOp37
 70
     0
102
RTVSPropertyOp38
 70
     0
102
RTVSPropertyOp39
 70
     0
102
RTVSPropertyOp40
 70
     0
102
RTVSPropertyOp41
 70
     0
102
RTVSPropertyOp42
 70
     0
102
RTVSPropertyOp43
 70
     0
102
RTVSPropertyOp44
 70
     0
102
RTVSPropertyOp45
 70
     0
102
RTVSPropertyOp46
 70
     0
102
RTVSPropertyOp47
 70
     0
102
RTVSPropertyOp48
 70
     0
102
RTVSPropertyOp49
 70
     0
102
RTVSPropertyOp50
 70
     0
102
RTVSPropertyOp51
 70
     0
102
RTVSPropertyOp52
 70
     0
102
RTVSPropertyOp53
 70
     0
102
RTVSPropertyOp54
 70
     0
102
RTVSPropertyOp55
 70
     0
102
RTVSPropertyOp56
 70
     0
102
RTVSPropertyOp57
 70
     0
102
RTVSPost2010Prop28
280
     0
102
RTVSPost2010PropOp28
 70
     0
102
RTVSPost2010Prop29
280
     1
102
RTVSPost2010PropOp29
 70
     0
102
RTVSPost2010Prop30
280
     1
102
RTVSPost2010PropOp30
 70
     0
102
RTVSPost2010Prop31
280
     0
102
RTVSPost2010PropOp31
 70
     0
102
RTVSPost2010Prop32
280
     0
102
RTVSPost2010PropOp32
 70
     0
102
RTVSPost2010Prop33
280
     0
102
RTVSPost2010PropOp33
 70
     0
102
RTVSPost2010Prop34
280
     0
102
RTVSPost2010PropOp34
 70
     0
102
RTVSPost2010Prop35
280
     0
102
RTVSPost2010PropOp35
 70
     0
102
RTVSPost2010Prop36
280
     0
102
RTVSPost2010PropOp36
 70
     0
102
RTVSPost2010Prop37
 90
       50
102
RTVSPost2010PropOp37
 70
     0
102
RTVSPost2010Prop38
140
0.0
102
RTVSPost2010PropOp38
 70
     0
102
RTVSPost2010Prop39
140
1.0
102
RTVSPost2010PropOp39
 70
     0
102
RTVSPost2010Prop40
 90
        0
102
RTVSPost2010PropOp40
 70
     0
102
RTVSPost2010Prop41ColorIndex
 90
       18
102
RTVSPost2010Prop41ColorRGB
 90
        0
102
RTVSPost2010PropOp41
 70
     0
102
RTVSPost2010Prop42
 90
       50
102
RTVSPost2010PropOp42
 70
     0
102
RTVSPost2010Prop43
 90
        3
102
RTVSPost2010PropOp43
 70
     0
102
RTVSPost2010Prop44ColorIndex
 90
        5
102
RTVSPost2010Prop44ColorRGB
 90
      255
102
RTVSPost2010PropOp44
 70
     0
102
RTVSPost2010Prop45
280
     0
102
RTVSPost2010PropOp45
 70
     0
102
RTVSPost2010Prop46
 90
       50
102
RTVSPost2010PropOp46
 70
     0
102
RTVSPost2010Prop47
 90
       50
102
RTVSPost2010PropOp47
 70
     0
102
RTVSPost2010Prop48
 90
       50
102
RTVSPost2010PropOp48
 70
     0
102
RTVSPost2010Prop49
280
     0
102
RTVSPost2010PropOp49
 70
     0
102
RTVSPost2010Prop50
 90
       50
102
RTVSPost2010PropOp50
 70
     0
102
RTVSPost2010Prop51ColorIndex
 90
      256
102
RTVSPost2010Prop51ColorRGB
 90
-16777216
102
RTVSPost2010PropOp51
 70
     0
102
RTVSPost2010Prop52
140
1.0
102
RTVSPost2010PropOp52
 70
     0
102
RTVSPost2010Prop53
 90
        2
102
RTVSPost2010PropOp53
 70
     0
102
RTVSPost2010Prop54
  1
strokes_ogs.tif
102
RTVSPost2010PropOp54
 70
     0
102
RTVSPost2010Prop55
280
     0
102
RTVSPost2010PropOp55
 70
     0
102
RTVSPost2010Prop56
140
1.0
102
RTVSPost2010PropOp56
 70
     0
102
RTVSPost2010Prop57
140
1.0
102
RTVSPost2010PropOp57
 70
     0
  0
XRECORD
  5
3CE
102
{ACAD_REACTORS
330
3CD
102
}
330
3CD
100
AcDbXrecord
280
     1
102
RTVSPropertyOp0
 70
     1
102
RTVSPropertyOp1
 70
     1
102
RTVSPropertyOp2
 70
     1
102
RTVSPropertyOp3
 70
     1
102
RTVSPropertyOp4
 70
     1
102
RTVSPropertyOp5
 70
     1
102
RTVSPropertyOp6
 70
     1
102
RTVSPropertyOp7
 70
     1
102
RTVSPropertyOp8
 70
     1
102
RTVSPropertyOp9
 70
     1
102
RTVSPropertyOp10
 70
     1
102
RTVSPropertyOp11
 70
     1
102
RTVSPropertyOp12
 70
     1
102
RTVSPropertyOp13
 70
     1
102
RTVSPropertyOp14
 70
     1
102
RTVSPropertyOp15
 70
     1
102
RTVSPropertyOp16
 70
     1
102
RTVSPropertyOp17
 70
     1
102
RTVSPropertyOp18
 70
     1
102
RTVSPropertyOp19
 70
     1
102
RTVSPropertyOp20
 70
     1
102
RTVSPropertyOp21
 70
     1
102
RTVSPropertyOp22
 70
     1
102
RTVSPropertyOp23
 70
     1
102
RTVSPropertyOp24
 70
     1
102
RTVSPropertyOp25
 70
     1
102
RTVSPropertyOp26
 70
     1
102
RTVSPropertyOp27
 70
     1
102
RTVSPropertyOp28
 70
     1
102
RTVSPropertyOp29
 70
     1
102
RTVSPropertyOp30
 70
     1
102
RTVSPropertyOp31
 70
     1
102
RTVSPropertyOp32
 70
     1
102
RTVSPropertyOp33
 70
     1
102
RTVSPropertyOp34
 70
     1
102
RTVSPropertyOp35
 70
     1
102
RTVSPropertyOp36
 70
     1
102
RTVSPropertyOp37
 70
     1
102
RTVSPropertyOp38
 70
     1
102
RTVSPropertyOp39
 70
     1
102
RTVSPropertyOp40
 70
     1
102
RTVSPropertyOp41
 70
     1
102
RTVSPropertyOp42
 70
     1
102
RTVSPropertyOp43
 70
     1
102
RTVSPropertyOp44
 70
     1
102
RTVSPropertyOp45
 70
     1
102
RTVSPropertyOp46
 70
     1
102
RTVSPropertyOp47
 70
     1
102
RTVSPropertyOp48
 70
     1
102
RTVSPropertyOp49
 70
     1
102
RTVSPropertyOp50
 70
     1
102
RTVSPropertyOp51
 70
     0
102
RTVSPropertyOp52
 70
     0
102
RTVSPropertyOp53
 70
     1
102
RTVSPropertyOp54
 70
     1
102
RTVSPropertyOp55
 70
     1
102
RTVSPropertyOp56
 70
     1
102
RTVSPropertyOp57
 70
     1
102
RTVSPost2010Prop28
280
     0
102
RTVSPost2010PropOp28
 70
     1
102
RTVSPost2010Prop29
280
     1
102
RTVSPost2010PropOp29
 70
     1
102
RTVSPost2010Prop30
280
     1
102
RTVSPost2010PropOp30
 70
     1
102
RTVSPost2010Prop31
280
     0
102
RTVSPost2010PropOp31
 70
     1
102
RTVSPost2010Prop32
280
     0
102
RTVSPost2010PropOp32
 70
     1
102
RTVSPost2010Prop33
280
     0
102
RTVSPost2010PropOp33
 70
     1
102
RTVSPost2010Prop34
280
     0
102
RTVSPost2010PropOp34
 70
     1
102
RTVSPost2010Prop35
280
     0
102
RTVSPost2010PropOp35
 70
     1
102
RTVSPost2010Prop36
280
     0
102
RTVSPost2010PropOp36
 70
     1
102
RTVSPost2010Prop37
 90
       50
102
RTVSPost2010PropOp37
 70
     1
102
RTVSPost2010Prop38
140
0.0
102
RTVSPost2010PropOp38
 70
     1
102
RTVSPost2010Prop39
140
1.0
102
RTVSPost2010PropOp39
 70
     1
102
RTVSPost2010Prop40
 90
        0
102
RTVSPost2010PropOp40
 70
     1
102
RTVSPost2010Prop41ColorIndex
 90
       18
102
RTVSPost2010Prop41ColorRGB
 90
        0
102
RTVSPost2010PropOp41
 70
     1
102
RTVSPost2010Prop42
 90
       50
102
RTVSPost2010PropOp42
 70
     1
102
RTVSPost2010Prop43
 90
        3
102
RTVSPost2010PropOp43
 70
     1
102
RTVSPost2010Prop44ColorIndex
 90
        5
102
RTVSPost2010Prop44ColorRGB
 90
      255
102
RTVSPost2010PropOp44
 70
     1
102
RTVSPost2010Prop45
280
     0
102
RTVSPost2010PropOp45
 70
     1
102
RTVSPost2010Prop46
 90
       50
102
RTVSPost2010PropOp46
 70
     1
102
RTVSPost2010Prop47
 90
       50
102
RTVSPost2010PropOp47
 70
     1
102
RTVSPost2010Prop48
 90
       50
102
RTVSPost2010PropOp48
 70
     1
102
RTVSPost2010Prop49
280
     0
102
RTVSPost2010PropOp49
 70
     1
102
RTVSPost2010Prop50
 90
       50
102
RTVSPost2010PropOp50
 70
     1
102
RTVSPost2010Prop51ColorIndex
 90
      256
102
RTVSPost2010Prop51ColorRGB
 90
-16777216
102
RTVSPost2010PropOp51
 70
     0
102
RTVSPost2010Prop52
140
1.0
102
RTVSPost2010PropOp52
 70
     0
102
RTVSPost2010Prop53
 90
        2
102
RTVSPost2010PropOp53
 70
     1
102
RTVSPost2010Prop54
  1
strokes_ogs.tif
102
RTVSPost2010PropOp54
 70
     1
102
RTVSPost2010Prop55
280
     0
102
RTVSPost2010PropOp55
 70
     1
102
RTVSPost2010Prop56
140
1.0
102
RTVSPost2010PropOp56
 70
     1
102
RTVSPost2010Prop57
140
1.0
102
RTVSPost2010PropOp57
 70
     1
  0
XRECORD
  5
3D6
102
{ACAD_REACTORS
330
3D5
102
}
330
3D5
100
AcDbXrecord
280
     1
102
RTVSPropertyOp0
 70
     0
102
RTVSPropertyOp1
 70
     0
102
RTVSPropertyOp2
 70
     0
102
RTVSPropertyOp3
 70
     0
102
RTVSPropertyOp4
 70
     0
102
RTVSPropertyOp5
 70
     0
102
RTVSPropertyOp6
 70
     0
102
RTVSPropertyOp7
 70
     0
102
RTVSPropertyOp8
 70
     0
102
RTVSPropertyOp9
 70
     0
102
RTVSPropertyOp10
 70
     0
102
RTVSPropertyOp11
 70
     0
102
RTVSPropertyOp12
 70
     0
102
RTVSPropertyOp13
 70
     0
102
RTVSPropertyOp14
 70
     2
102
RTVSPropertyOp15
 70
     0
102
RTVSPropertyOp16
 70
     0
102
RTVSPropertyOp17
 70
     0
102
RTVSPropertyOp18
 70
     0
102
RTVSPropertyOp19
 70
     0
102
RTVSPropertyOp20
 70
     0
102
RTVSPropertyOp21
 70
     0
102
RTVSPropertyOp22
 70
     0
102
RTVSPropertyOp23
 70
     0
102
RTVSPropertyOp24
 70
     0
102
RTVSPropertyOp25
 70
     0
102
RTVSPropertyOp26
 70
     0
102
RTVSPropertyOp27
 70
     0
102
RTVSPropertyOp28
 70
     0
102
RTVSPropertyOp29
 70
     0
102
RTVSPropertyOp30
 70
     0
102
RTVSPropertyOp31
 70
     0
102
RTVSPropertyOp32
 70
     0
102
RTVSPropertyOp33
 70
     0
102
RTVSPropertyOp34
 70
     0
102
RTVSPropertyOp35
 70
     0
102
RTVSPropertyOp36
 70
     0
102
RTVSPropertyOp37
 70
     0
102
RTVSPropertyOp38
 70
     0
102
RTVSPropertyOp39
 70
     0
102
RTVSPropertyOp40
 70
     0
102
RTVSPropertyOp41
 70
     0
102
RTVSPropertyOp42
 70
     0
102
RTVSPropertyOp43
 70
     0
102
RTVSPropertyOp44
 70
     0
102
RTVSPropertyOp45
 70
     0
102
RTVSPropertyOp46
 70
     0
102
RTVSPropertyOp47
 70
     0
102
RTVSPropertyOp48
 70
     0
102
RTVSPropertyOp49
 70
     0
102
RTVSPropertyOp50
 70
     0
102
RTVSPropertyOp51
 70
     0
102
RTVSPropertyOp52
 70
     0
102
RTVSPropertyOp53
 70
     0
102
RTVSPropertyOp54
 70
     0
102
RTVSPropertyOp55
 70
     0
102
RTVSPropertyOp56
 70
     0
102
RTVSPropertyOp57
 70
     0
102
RTVSPost2010Prop28
280
     0
102
RTVSPost2010PropOp28
 70
     0
102
RTVSPost2010Prop29
280
     1
102
RTVSPost2010PropOp29
 70
     0
102
RTVSPost2010Prop30
280
     1
102
RTVSPost2010PropOp30
 70
     0
102
RTVSPost2010Prop31
280
     0
102
RTVSPost2010PropOp31
 70
     0
102
RTVSPost2010Prop32
280
     0
102
RTVSPost2010PropOp32
 70
     0
102
RTVSPost2010Prop33
280
     0
102
RTVSPost2010PropOp33
 70
     0
102
RTVSPost2010Prop34
280
     0
102
RTVSPost2010PropOp34
 70
     0
102
RTVSPost2010Prop35
280
     0
102
RTVSPost2010PropOp35
 70
     0
102
RTVSPost2010Prop36
280
     0
102
RTVSPost2010PropOp36
 70
     0
102
RTVSPost2010Prop37
 90
       50
102
RTVSPost2010PropOp37
 70
     0
102
RTVSPost2010Prop38
140
0.0
102
RTVSPost2010PropOp38
 70
     0
102
RTVSPost2010Prop39
140
1.0
102
RTVSPost2010PropOp39
 70
     0
102
RTVSPost2010Prop40
 90
        0
102
RTVSPost2010PropOp40
 70
     0
102
RTVSPost2010Prop41ColorIndex
 90
       18
102
RTVSPost2010Prop41ColorRGB
 90
        0
102
RTVSPost2010PropOp41
 70
     0
102
RTVSPost2010Prop42
 90
       50
102
RTVSPost2010PropOp42
 70
     0
102
RTVSPost2010Prop43
 90
        3
102
RTVSPost2010PropOp43
 70
     0
102
RTVSPost2010Prop44ColorIndex
 90
        5
102
RTVSPost2010Prop44ColorRGB
 90
      255
102
RTVSPost2010PropOp44
 70
     0
102
RTVSPost2010Prop45
280
     0
102
RTVSPost2010PropOp45
 70
     0
102
RTVSPost2010Prop46
 90
       50
102
RTVSPost2010PropOp46
 70
     0
102
RTVSPost2010Prop47
 90
       50
102
RTVSPost2010PropOp47
 70
     0
102
RTVSPost2010Prop48
 90
       50
102
RTVSPost2010PropOp48
 70
     0
102
RTVSPost2010Prop49
280
     0
102
RTVSPost2010PropOp49
 70
     0
102
RTVSPost2010Prop50
 90
       50
102
RTVSPost2010PropOp50
 70
     0
102
RTVSPost2010Prop51ColorIndex
 90
      256
102
RTVSPost2010Prop51ColorRGB
 90
-16777216
102
RTVSPost2010PropOp51
 70
     0
102
RTVSPost2010Prop52
140
1.0
102
RTVSPost2010PropOp52
 70
     0
102
RTVSPost2010Prop53
 90
        2
102
RTVSPost2010PropOp53
 70
     0
102
RTVSPost2010Prop54
  1
strokes_ogs.tif
102
RTVSPost2010PropOp54
 70
     0
102
RTVSPost2010Prop55
280
     0
102
RTVSPost2010PropOp55
 70
     0
102
RTVSPost2010Prop56
140
1.0
102
RTVSPost2010PropOp56
 70
     0
102
RTVSPost2010Prop57
140
1.0
102
RTVSPost2010PropOp57
 70
     0
  0
XRECORD
  5
3C4
102
{ACAD_REACTORS
330
3C3
102
}
330
3C3
100
AcDbXrecord
280
     1
102
RTVSPropertyOp0
 70
     1
102
RTVSPropertyOp1
 70
     1
102
RTVSPropertyOp2
 70
     1
102
RTVSPropertyOp3
 70
     1
102
RTVSPropertyOp4
 70
     1
102
RTVSPropertyOp5
 70
     1
102
RTVSPropertyOp6
 70
     1
102
RTVSPropertyOp7
 70
     1
102
RTVSPropertyOp8
 70
     1
102
RTVSPropertyOp9
 70
     1
102
RTVSPropertyOp10
 70
     1
102
RTVSPropertyOp11
 70
     1
102
RTVSPropertyOp12
 70
     1
102
RTVSPropertyOp13
 70
     1
102
RTVSPropertyOp14
 70
     1
102
RTVSPropertyOp15
 70
     1
102
RTVSPropertyOp16
 70
     1
102
RTVSPropertyOp17
 70
     1
102
RTVSPropertyOp18
 70
     1
102
RTVSPropertyOp19
 70
     1
102
RTVSPropertyOp20
 70
     1
102
RTVSPropertyOp21
 70
     1
102
RTVSPropertyOp22
 70
     1
102
RTVSPropertyOp23
 70
     1
102
RTVSPropertyOp24
 70
     1
102
RTVSPropertyOp25
 70
     1
102
RTVSPropertyOp26
 70
     1
102
RTVSPropertyOp27
 70
     1
102
RTVSPropertyOp28
 70
     1
102
RTVSPropertyOp29
 70
     1
102
RTVSPropertyOp30
 70
     1
102
RTVSPropertyOp31
 70
     1
102
RTVSPropertyOp32
 70
     1
102
RTVSPropertyOp33
 70
     1
102
RTVSPropertyOp34
 70
     1
102
RTVSPropertyOp35
 70
     1
102
RTVSPropertyOp36
 70
     1
102
RTVSPropertyOp37
 70
     1
102
RTVSPropertyOp38
 70
     1
102
RTVSPropertyOp39
 70
     1
102
RTVSPropertyOp40
 70
     1
102
RTVSPropertyOp41
 70
     1
102
RTVSPropertyOp42
 70
     1
102
RTVSPropertyOp43
 70
     1
102
RTVSPropertyOp44
 70
     1
102
RTVSPropertyOp45
 70
     1
102
RTVSPropertyOp46
 70
     1
102
RTVSPropertyOp47
 70
     1
102
RTVSPropertyOp48
 70
     1
102
RTVSPropertyOp49
 70
     1
102
RTVSPropertyOp50
 70
     1
102
RTVSPropertyOp51
 70
     0
102
RTVSPropertyOp52
 70
     0
102
RTVSPropertyOp53
 70
     1
102
RTVSPropertyOp54
 70
     1
102
RTVSPropertyOp55
 70
     1
102
RTVSPropertyOp56
 70
     1
102
RTVSPropertyOp57
 70
     1
102
RTVSPost2010Prop28
280
     0
102
RTVSPost2010PropOp28
 70
     1
102
RTVSPost2010Prop29
280
     1
102
RTVSPost2010PropOp29
 70
     1
102
RTVSPost2010Prop30
280
     1
102
RTVSPost2010PropOp30
 70
     1
102
RTVSPost2010Prop31
280
     0
102
RTVSPost2010PropOp31
 70
     1
102
RTVSPost2010Prop32
280
     0
102
RTVSPost2010PropOp32
 70
     1
102
RTVSPost2010Prop33
280
     0
102
RTVSPost2010PropOp33
 70
     1
102
RTVSPost2010Prop34
280
     0
102
RTVSPost2010PropOp34
 70
     1
102
RTVSPost2010Prop35
280
     0
102
RTVSPost2010PropOp35
 70
     1
102
RTVSPost2010Prop36
280
     0
102
RTVSPost2010PropOp36
 70
     1
102
RTVSPost2010Prop37
 90
       50
102
RTVSPost2010PropOp37
 70
     1
102
RTVSPost2010Prop38
140
0.0
102
RTVSPost2010PropOp38
 70
     1
102
RTVSPost2010Prop39
140
1.0
102
RTVSPost2010PropOp39
 70
     1
102
RTVSPost2010Prop40
 90
        0
102
RTVSPost2010PropOp40
 70
     1
102
RTVSPost2010Prop41ColorIndex
 90
       18
102
RTVSPost2010Prop41ColorRGB
 90
        0
102
RTVSPost2010PropOp41
 70
     1
102
RTVSPost2010Prop42
 90
       50
102
RTVSPost2010PropOp42
 70
     1
102
RTVSPost2010Prop43
 90
        3
102
RTVSPost2010PropOp43
 70
     1
102
RTVSPost2010Prop44ColorIndex
 90
        5
102
RTVSPost2010Prop44ColorRGB
 90
      255
102
RTVSPost2010PropOp44
 70
     1
102
RTVSPost2010Prop45
280
     0
102
RTVSPost2010PropOp45
 70
     1
102
RTVSPost2010Prop46
 90
       50
102
RTVSPost2010PropOp46
 70
     1
102
RTVSPost2010Prop47
 90
       50
102
RTVSPost2010PropOp47
 70
     1
102
RTVSPost2010Prop48
 90
       50
102
RTVSPost2010PropOp48
 70
     1
102
RTVSPost2010Prop49
280
     0
102
RTVSPost2010PropOp49
 70
     1
102
RTVSPost2010Prop50
 90
       50
102
RTVSPost2010PropOp50
 70
     1
102
RTVSPost2010Prop51ColorIndex
 90
      256
102
RTVSPost2010Prop51ColorRGB
 90
-16777216
102
RTVSPost2010PropOp51
 70
     0
102
RTVSPost2010Prop52
140
1.0
102
RTVSPost2010PropOp52
 70
     0
102
RTVSPost2010Prop53
 90
        2
102
RTVSPost2010PropOp53
 70
     1
102
RTVSPost2010Prop54
  1
strokes_ogs.tif
102
RTVSPost2010PropOp54
 70
     1
102
RTVSPost2010Prop55
280
     0
102
RTVSPost2010PropOp55
 70
     1
102
RTVSPost2010Prop56
140
1.0
102
RTVSPost2010PropOp56
 70
     1
102
RTVSPost2010Prop57
140
1.0
102
RTVSPost2010PropOp57
 70
     1
  0
XRECORD
  5
3E2
102
{ACAD_REACTORS
330
3E1
102
}
330
3E1
100
AcDbXrecord
280
     1
102
RTVSPropertyOp0
 70
     1
102
RTVSPropertyOp1
 70
     1
102
RTVSPropertyOp2
 70
     1
102
RTVSPropertyOp3
 70
     1
102
RTVSPropertyOp4
 70
     1
102
RTVSPropertyOp5
 70
     1
102
RTVSPropertyOp6
 70
     1
102
RTVSPropertyOp7
 70
     1
102
RTVSPropertyOp8
 70
     1
102
RTVSPropertyOp9
 70
     1
102
RTVSPropertyOp10
 70
     1
102
RTVSPropertyOp11
 70
     1
102
RTVSPropertyOp12
 70
     1
102
RTVSPropertyOp13
 70
     1
102
RTVSPropertyOp14
 70
     1
102
RTVSPropertyOp15
 70
     1
102
RTVSPropertyOp16
 70
     1
102
RTVSPropertyOp17
 70
     1
102
RTVSPropertyOp18
 70
     1
102
RTVSPropertyOp19
 70
     1
102
RTVSPropertyOp20
 70
     1
102
RTVSPropertyOp21
 70
     1
102
RTVSPropertyOp22
 70
     1
102
RTVSPropertyOp23
 70
     1
102
RTVSPropertyOp24
 70
     1
102
RTVSPropertyOp25
 70
     1
102
RTVSPropertyOp26
 70
     1
102
RTVSPropertyOp27
 70
     1
102
RTVSPropertyOp28
 70
     1
102
RTVSPropertyOp29
 70
     1
102
RTVSPropertyOp30
 70
     1
102
RTVSPropertyOp31
 70
     1
102
RTVSPropertyOp32
 70
     1
102
RTVSPropertyOp33
 70
     1
102
RTVSPropertyOp34
 70
     1
102
RTVSPropertyOp35
 70
     1
102
RTVSPropertyOp36
 70
     1
102
RTVSPropertyOp37
 70
     1
102
RTVSPropertyOp38
 70
     1
102
RTVSPropertyOp39
 70
     1
102
RTVSPropertyOp40
 70
     1
102
RTVSPropertyOp41
 70
     1
102
RTVSPropertyOp42
 70
     1
102
RTVSPropertyOp43
 70
     1
102
RTVSPropertyOp44
 70
     1
102
RTVSPropertyOp45
 70
     1
102
RTVSPropertyOp46
 70
     1
102
RTVSPropertyOp47
 70
     1
102
RTVSPropertyOp48
 70
     1
102
RTVSPropertyOp49
 70
     1
102
RTVSPropertyOp50
 70
     1
102
RTVSPropertyOp51
 70
     0
102
RTVSPropertyOp52
 70
     0
102
RTVSPropertyOp53
 70
     1
102
RTVSPropertyOp54
 70
     1
102
RTVSPropertyOp55
 70
     1
102
RTVSPropertyOp56
 70
     1
102
RTVSPropertyOp57
 70
     1
102
RTVSPost2010Prop28
280
     0
102
RTVSPost2010PropOp28
 70
     1
102
RTVSPost2010Prop29
280
     1
102
RTVSPost2010PropOp29
 70
     1
102
RTVSPost2010Prop30
280
     1
102
RTVSPost2010PropOp30
 70
     1
102
RTVSPost2010Prop31
280
     0
102
RTVSPost2010PropOp31
 70
     1
102
RTVSPost2010Prop32
280
     0
102
RTVSPost2010PropOp32
 70
     1
102
RTVSPost2010Prop33
280
     0
102
RTVSPost2010PropOp33
 70
     1
102
RTVSPost2010Prop34
280
     0
102
RTVSPost2010PropOp34
 70
     1
102
RTVSPost2010Prop35
280
     0
102
RTVSPost2010PropOp35
 70
     1
102
RTVSPost2010Prop36
280
     0
102
RTVSPost2010PropOp36
 70
     1
102
RTVSPost2010Prop37
 90
       50
102
RTVSPost2010PropOp37
 70
     1
102
RTVSPost2010Prop38
140
0.0
102
RTVSPost2010PropOp38
 70
     1
102
RTVSPost2010Prop39
140
1.0
102
RTVSPost2010PropOp39
 70
     1
102
RTVSPost2010Prop40
 90
        0
102
RTVSPost2010PropOp40
 70
     1
102
RTVSPost2010Prop41ColorIndex
 90
       18
102
RTVSPost2010Prop41ColorRGB
 90
        0
102
RTVSPost2010PropOp41
 70
     1
102
RTVSPost2010Prop42
 90
       50
102
RTVSPost2010PropOp42
 70
     1
102
RTVSPost2010Prop43
 90
        3
102
RTVSPost2010PropOp43
 70
     1
102
RTVSPost2010Prop44ColorIndex
 90
        5
102
RTVSPost2010Prop44ColorRGB
 90
      255
102
RTVSPost2010PropOp44
 70
     1
102
RTVSPost2010Prop45
280
     0
102
RTVSPost2010PropOp45
 70
     1
102
RTVSPost2010Prop46
 90
       50
102
RTVSPost2010PropOp46
 70
     1
102
RTVSPost2010Prop47
 90
       50
102
RTVSPost2010PropOp47
 70
     1
102
RTVSPost2010Prop48
 90
       50
102
RTVSPost2010PropOp48
 70
     1
102
RTVSPost2010Prop49
280
     0
102
RTVSPost2010PropOp49
 70
     1
102
RTVSPost2010Prop50
 90
       50
102
RTVSPost2010PropOp50
 70
     1
102
RTVSPost2010Prop51ColorIndex
 90
      256
102
RTVSPost2010Prop51ColorRGB
 90
-16777216
102
RTVSPost2010PropOp51
 70
     0
102
RTVSPost2010Prop52
140
1.0
102
RTVSPost2010PropOp52
 70
     0
102
RTVSPost2010Prop53
 90
        2
102
RTVSPost2010PropOp53
 70
     1
102
RTVSPost2010Prop54
  1
strokes_ogs.tif
102
RTVSPost2010PropOp54
 70
     1
102
RTVSPost2010Prop55
280
     0
102
RTVSPost2010PropOp55
 70
     1
102
RTVSPost2010Prop56
140
1.0
102
RTVSPost2010PropOp56
 70
     1
102
RTVSPost2010Prop57
140
1.0
102
RTVSPost2010PropOp57
 70
     1
  0
XRECORD
  5
3E0
102
{ACAD_REACTORS
330
3DF
102
}
330
3DF
100
AcDbXrecord
280
     1
102
RTVSPropertyOp0
 70
     1
102
RTVSPropertyOp1
 70
     1
102
RTVSPropertyOp2
 70
     1
102
RTVSPropertyOp3
 70
     1
102
RTVSPropertyOp4
 70
     1
102
RTVSPropertyOp5
 70
     1
102
RTVSPropertyOp6
 70
     1
102
RTVSPropertyOp7
 70
     1
102
RTVSPropertyOp8
 70
     1
102
RTVSPropertyOp9
 70
     1
102
RTVSPropertyOp10
 70
     1
102
RTVSPropertyOp11
 70
     1
102
RTVSPropertyOp12
 70
     1
102
RTVSPropertyOp13
 70
     1
102
RTVSPropertyOp14
 70
     1
102
RTVSPropertyOp15
 70
     1
102
RTVSPropertyOp16
 70
     1
102
RTVSPropertyOp17
 70
     1
102
RTVSPropertyOp18
 70
     1
102
RTVSPropertyOp19
 70
     1
102
RTVSPropertyOp20
 70
     1
102
RTVSPropertyOp21
 70
     1
102
RTVSPropertyOp22
 70
     1
102
RTVSPropertyOp23
 70
     1
102
RTVSPropertyOp24
 70
     1
102
RTVSPropertyOp25
 70
     1
102
RTVSPropertyOp26
 70
     1
102
RTVSPropertyOp27
 70
     1
102
RTVSPropertyOp28
 70
     1
102
RTVSPropertyOp29
 70
     1
102
RTVSPropertyOp30
 70
     1
102
RTVSPropertyOp31
 70
     1
102
RTVSPropertyOp32
 70
     1
102
RTVSPropertyOp33
 70
     1
102
RTVSPropertyOp34
 70
     1
102
RTVSPropertyOp35
 70
     1
102
RTVSPropertyOp36
 70
     1
102
RTVSPropertyOp37
 70
     1
102
RTVSPropertyOp38
 70
     1
102
RTVSPropertyOp39
 70
     1
102
RTVSPropertyOp40
 70
     1
102
RTVSPropertyOp41
 70
     1
102
RTVSPropertyOp42
 70
     1
102
RTVSPropertyOp43
 70
     1
102
RTVSPropertyOp44
 70
     1
102
RTVSPropertyOp45
 70
     1
102
RTVSPropertyOp46
 70
     1
102
RTVSPropertyOp47
 70
     1
102
RTVSPropertyOp48
 70
     1
102
RTVSPropertyOp49
 70
     1
102
RTVSPropertyOp50
 70
     1
102
RTVSPropertyOp51
 70
     0
102
RTVSPropertyOp52
 70
     0
102
RTVSPropertyOp53
 70
     1
102
RTVSPropertyOp54
 70
     1
102
RTVSPropertyOp55
 70
     1
102
RTVSPropertyOp56
 70
     1
102
RTVSPropertyOp57
 70
     1
102
RTVSPost2010Prop28
280
     0
102
RTVSPost2010PropOp28
 70
     1
102
RTVSPost2010Prop29
280
     1
102
RTVSPost2010PropOp29
 70
     1
102
RTVSPost2010Prop30
280
     1
102
RTVSPost2010PropOp30
 70
     1
102
RTVSPost2010Prop31
280
     0
102
RTVSPost2010PropOp31
 70
     1
102
RTVSPost2010Prop32
280
     0
102
RTVSPost2010PropOp32
 70
     1
102
RTVSPost2010Prop33
280
     0
102
RTVSPost2010PropOp33
 70
     1
102
RTVSPost2010Prop34
280
     0
102
RTVSPost2010PropOp34
 70
     1
102
RTVSPost2010Prop35
280
     0
102
RTVSPost2010PropOp35
 70
     1
102
RTVSPost2010Prop36
280
     0
102
RTVSPost2010PropOp36
 70
     1
102
RTVSPost2010Prop37
 90
       50
102
RTVSPost2010PropOp37
 70
     1
102
RTVSPost2010Prop38
140
0.0
102
RTVSPost2010PropOp38
 70
     1
102
RTVSPost2010Prop39
140
1.0
102
RTVSPost2010PropOp39
 70
     1
102
RTVSPost2010Prop40
 90
        0
102
RTVSPost2010PropOp40
 70
     1
102
RTVSPost2010Prop41ColorIndex
 90
       18
102
RTVSPost2010Prop41ColorRGB
 90
        0
102
RTVSPost2010PropOp41
 70
     1
102
RTVSPost2010Prop42
 90
       50
102
RTVSPost2010PropOp42
 70
     1
102
RTVSPost2010Prop43
 90
        3
102
RTVSPost2010PropOp43
 70
     1
102
RTVSPost2010Prop44ColorIndex
 90
        5
102
RTVSPost2010Prop44ColorRGB
 90
      255
102
RTVSPost2010PropOp44
 70
     1
102
RTVSPost2010Prop45
280
     0
102
RTVSPost2010PropOp45
 70
     1
102
RTVSPost2010Prop46
 90
       50
102
RTVSPost2010PropOp46
 70
     1
102
RTVSPost2010Prop47
 90
       50
102
RTVSPost2010PropOp47
 70
     1
102
RTVSPost2010Prop48
 90
       50
102
RTVSPost2010PropOp48
 70
     1
102
RTVSPost2010Prop49
280
     0
102
RTVSPost2010PropOp49
 70
     1
102
RTVSPost2010Prop50
 90
       50
102
RTVSPost2010PropOp50
 70
     1
102
RTVSPost2010Prop51ColorIndex
 90
      256
102
RTVSPost2010Prop51ColorRGB
 90
-16777216
102
RTVSPost2010PropOp51
 70
     0
102
RTVSPost2010Prop52
140
1.0
102
RTVSPost2010PropOp52
 70
     0
102
RTVSPost2010Prop53
 90
        2
102
RTVSPost2010PropOp53
 70
     1
102
RTVSPost2010Prop54
  1
strokes_ogs.tif
102
RTVSPost2010PropOp54
 70
     1
102
RTVSPost2010Prop55
280
     0
102
RTVSPost2010PropOp55
 70
     1
102
RTVSPost2010Prop56
140
1.0
102
RTVSPost2010PropOp56
 70
     1
102
RTVSPost2010Prop57
140
1.0
102
RTVSPost2010PropOp57
 70
     1
  0
XRECORD
  5
3DA
102
{ACAD_REACTORS
330
3D9
102
}
330
3D9
100
AcDbXrecord
280
     1
102
RTVSPropertyOp0
 70
     1
102
RTVSPropertyOp1
 70
     1
102
RTVSPropertyOp2
 70
     1
102
RTVSPropertyOp3
 70
     1
102
RTVSPropertyOp4
 70
     1
102
RTVSPropertyOp5
 70
     1
102
RTVSPropertyOp6
 70
     1
102
RTVSPropertyOp7
 70
     1
102
RTVSPropertyOp8
 70
     1
102
RTVSPropertyOp9
 70
     1
102
RTVSPropertyOp10
 70
     1
102
RTVSPropertyOp11
 70
     1
102
RTVSPropertyOp12
 70
     1
102
RTVSPropertyOp13
 70
     1
102
RTVSPropertyOp14
 70
     1
102
RTVSPropertyOp15
 70
     1
102
RTVSPropertyOp16
 70
     1
102
RTVSPropertyOp17
 70
     1
102
RTVSPropertyOp18
 70
     1
102
RTVSPropertyOp19
 70
     1
102
RTVSPropertyOp20
 70
     1
102
RTVSPropertyOp21
 70
     1
102
RTVSPropertyOp22
 70
     1
102
RTVSPropertyOp23
 70
     1
102
RTVSPropertyOp24
 70
     1
102
RTVSPropertyOp25
 70
     1
102
RTVSPropertyOp26
 70
     1
102
RTVSPropertyOp27
 70
     1
102
RTVSPropertyOp28
 70
     1
102
RTVSPropertyOp29
 70
     1
102
RTVSPropertyOp30
 70
     1
102
RTVSPropertyOp31
 70
     1
102
RTVSPropertyOp32
 70
     1
102
RTVSPropertyOp33
 70
     1
102
RTVSPropertyOp34
 70
     1
102
RTVSPropertyOp35
 70
     1
102
RTVSPropertyOp36
 70
     1
102
RTVSPropertyOp37
 70
     1
102
RTVSPropertyOp38
 70
     1
102
RTVSPropertyOp39
 70
     1
102
RTVSPropertyOp40
 70
     1
102
RTVSPropertyOp41
 70
     1
102
RTVSPropertyOp42
 70
     1
102
RTVSPropertyOp43
 70
     1
102
RTVSPropertyOp44
 70
     1
102
RTVSPropertyOp45
 70
     1
102
RTVSPropertyOp46
 70
     1
102
RTVSPropertyOp47
 70
     1
102
RTVSPropertyOp48
 70
     1
102
RTVSPropertyOp49
 70
     1
102
RTVSPropertyOp50
 70
     1
102
RTVSPropertyOp51
 70
     0
102
RTVSPropertyOp52
 70
     0
102
RTVSPropertyOp53
 70
     1
102
RTVSPropertyOp54
 70
     1
102
RTVSPropertyOp55
 70
     1
102
RTVSPropertyOp56
 70
     1
102
RTVSPropertyOp57
 70
     1
102
RTVSPost2010Prop28
280
     0
102
RTVSPost2010PropOp28
 70
     1
102
RTVSPost2010Prop29
280
     1
102
RTVSPost2010PropOp29
 70
     1
102
RTVSPost2010Prop30
280
     1
102
RTVSPost2010PropOp30
 70
     1
102
RTVSPost2010Prop31
280
     0
102
RTVSPost2010PropOp31
 70
     1
102
RTVSPost2010Prop32
280
     0
102
RTVSPost2010PropOp32
 70
     1
102
RTVSPost2010Prop33
280
     0
102
RTVSPost2010PropOp33
 70
     1
102
RTVSPost2010Prop34
280
     0
102
RTVSPost2010PropOp34
 70
     1
102
RTVSPost2010Prop35
280
     0
102
RTVSPost2010PropOp35
 70
     1
102
RTVSPost2010Prop36
280
     0
102
RTVSPost2010PropOp36
 70
     1
102
RTVSPost2010Prop37
 90
       50
102
RTVSPost2010PropOp37
 70
     1
102
RTVSPost2010Prop38
140
0.0
102
RTVSPost2010PropOp38
 70
     1
102
RTVSPost2010Prop39
140
1.0
102
RTVSPost2010PropOp39
 70
     1
102
RTVSPost2010Prop40
 90
        0
102
RTVSPost2010PropOp40
 70
     1
102
RTVSPost2010Prop41ColorIndex
 90
       18
102
RTVSPost2010Prop41ColorRGB
 90
        0
102
RTVSPost2010PropOp41
 70
     1
102
RTVSPost2010Prop42
 90
       50
102
RTVSPost2010PropOp42
 70
     1
102
RTVSPost2010Prop43
 90
        3
102
RTVSPost2010PropOp43
 70
     1
102
RTVSPost2010Prop44ColorIndex
 90
        5
102
RTVSPost2010Prop44ColorRGB
 90
      255
102
RTVSPost2010PropOp44
 70
     1
102
RTVSPost2010Prop45
280
     0
102
RTVSPost2010PropOp45
 70
     1
102
RTVSPost2010Prop46
 90
       50
102
RTVSPost2010PropOp46
 70
     1
102
RTVSPost2010Prop47
 90
       50
102
RTVSPost2010PropOp47
 70
     1
102
RTVSPost2010Prop48
 90
       50
102
RTVSPost2010PropOp48
 70
     1
102
RTVSPost2010Prop49
280
     0
102
RTVSPost2010PropOp49
 70
     1
102
RTVSPost2010Prop50
 90
       50
102
RTVSPost2010PropOp50
 70
     1
102
RTVSPost2010Prop51ColorIndex
 90
      256
102
RTVSPost2010Prop51ColorRGB
 90
-16777216
102
RTVSPost2010PropOp51
 70
     0
102
RTVSPost2010Prop52
140
1.0
102
RTVSPost2010PropOp52
 70
     0
102
RTVSPost2010Prop53
 90
        2
102
RTVSPost2010PropOp53
 70
     1
102
RTVSPost2010Prop54
  1
strokes_ogs.tif
102
RTVSPost2010PropOp54
 70
     1
102
RTVSPost2010Prop55
280
     0
102
RTVSPost2010PropOp55
 70
     1
102
RTVSPost2010Prop56
140
1.0
102
RTVSPost2010PropOp56
 70
     1
102
RTVSPost2010Prop57
140
1.0
102
RTVSPost2010PropOp57
 70
     1
  0
XRECORD
  5
3DC
102
{ACAD_REACTORS
330
3DB
102
}
330
3DB
100
AcDbXrecord
280
     1
102
RTVSPropertyOp0
 70
     1
102
RTVSPropertyOp1
 70
     1
102
RTVSPropertyOp2
 70
     1
102
RTVSPropertyOp3
 70
     1
102
RTVSPropertyOp4
 70
     1
102
RTVSPropertyOp5
 70
     1
102
RTVSPropertyOp6
 70
     1
102
RTVSPropertyOp7
 70
     1
102
RTVSPropertyOp8
 70
     1
102
RTVSPropertyOp9
 70
     1
102
RTVSPropertyOp10
 70
     1
102
RTVSPropertyOp11
 70
     1
102
RTVSPropertyOp12
 70
     1
102
RTVSPropertyOp13
 70
     1
102
RTVSPropertyOp14
 70
     1
102
RTVSPropertyOp15
 70
     1
102
RTVSPropertyOp16
 70
     1
102
RTVSPropertyOp17
 70
     1
102
RTVSPropertyOp18
 70
     1
102
RTVSPropertyOp19
 70
     1
102
RTVSPropertyOp20
 70
     1
102
RTVSPropertyOp21
 70
     1
102
RTVSPropertyOp22
 70
     1
102
RTVSPropertyOp23
 70
     1
102
RTVSPropertyOp24
 70
     1
102
RTVSPropertyOp25
 70
     1
102
RTVSPropertyOp26
 70
     1
102
RTVSPropertyOp27
 70
     1
102
RTVSPropertyOp28
 70
     1
102
RTVSPropertyOp29
 70
     1
102
RTVSPropertyOp30
 70
     1
102
RTVSPropertyOp31
 70
     1
102
RTVSPropertyOp32
 70
     1
102
RTVSPropertyOp33
 70
     1
102
RTVSPropertyOp34
 70
     1
102
RTVSPropertyOp35
 70
     1
102
RTVSPropertyOp36
 70
     1
102
RTVSPropertyOp37
 70
     1
102
RTVSPropertyOp38
 70
     1
102
RTVSPropertyOp39
 70
     1
102
RTVSPropertyOp40
 70
     1
102
RTVSPropertyOp41
 70
     1
102
RTVSPropertyOp42
 70
     1
102
RTVSPropertyOp43
 70
     1
102
RTVSPropertyOp44
 70
     1
102
RTVSPropertyOp45
 70
     1
102
RTVSPropertyOp46
 70
     1
102
RTVSPropertyOp47
 70
     1
102
RTVSPropertyOp48
 70
     1
102
RTVSPropertyOp49
 70
     1
102
RTVSPropertyOp50
 70
     1
102
RTVSPropertyOp51
 70
     0
102
RTVSPropertyOp52
 70
     0
102
RTVSPropertyOp53
 70
     1
102
RTVSPropertyOp54
 70
     1
102
RTVSPropertyOp55
 70
     1
102
RTVSPropertyOp56
 70
     1
102
RTVSPropertyOp57
 70
     1
102
RTVSPost2010Prop28
280
     0
102
RTVSPost2010PropOp28
 70
     1
102
RTVSPost2010Prop29
280
     1
102
RTVSPost2010PropOp29
 70
     1
102
RTVSPost2010Prop30
280
     1
102
RTVSPost2010PropOp30
 70
     1
102
RTVSPost2010Prop31
280
     0
102
RTVSPost2010PropOp31
 70
     1
102
RTVSPost2010Prop32
280
     0
102
RTVSPost2010PropOp32
 70
     1
102
RTVSPost2010Prop33
280
     0
102
RTVSPost2010PropOp33
 70
     1
102
RTVSPost2010Prop34
280
     0
102
RTVSPost2010PropOp34
 70
     1
102
RTVSPost2010Prop35
280
     0
102
RTVSPost2010PropOp35
 70
     1
102
RTVSPost2010Prop36
280
     0
102
RTVSPost2010PropOp36
 70
     1
102
RTVSPost2010Prop37
 90
       50
102
RTVSPost2010PropOp37
 70
     1
102
RTVSPost2010Prop38
140
0.0
102
RTVSPost2010PropOp38
 70
     1
102
RTVSPost2010Prop39
140
1.0
102
RTVSPost2010PropOp39
 70
     1
102
RTVSPost2010Prop40
 90
        0
102
RTVSPost2010PropOp40
 70
     1
102
RTVSPost2010Prop41ColorIndex
 90
       18
102
RTVSPost2010Prop41ColorRGB
 90
        0
102
RTVSPost2010PropOp41
 70
     1
102
RTVSPost2010Prop42
 90
       50
102
RTVSPost2010PropOp42
 70
     1
102
RTVSPost2010Prop43
 90
        3
102
RTVSPost2010PropOp43
 70
     1
102
RTVSPost2010Prop44ColorIndex
 90
        5
102
RTVSPost2010Prop44ColorRGB
 90
      255
102
RTVSPost2010PropOp44
 70
     1
102
RTVSPost2010Prop45
280
     0
102
RTVSPost2010PropOp45
 70
     1
102
RTVSPost2010Prop46
 90
       50
102
RTVSPost2010PropOp46
 70
     1
102
RTVSPost2010Prop47
 90
       50
102
RTVSPost2010PropOp47
 70
     1
102
RTVSPost2010Prop48
 90
       50
102
RTVSPost2010PropOp48
 70
     1
102
RTVSPost2010Prop49
280
     0
102
RTVSPost2010PropOp49
 70
     1
102
RTVSPost2010Prop50
 90
       50
102
RTVSPost2010PropOp50
 70
     1
102
RTVSPost2010Prop51ColorIndex
 90
      256
102
RTVSPost2010Prop51ColorRGB
 90
-16777216
102
RTVSPost2010PropOp51
 70
     0
102
RTVSPost2010Prop52
140
1.0
102
RTVSPost2010PropOp52
 70
     0
102
RTVSPost2010Prop53
 90
        2
102
RTVSPost2010PropOp53
 70
     1
102
RTVSPost2010Prop54
  1
strokes_ogs.tif
102
RTVSPost2010PropOp54
 70
     1
102
RTVSPost2010Prop55
280
     0
102
RTVSPost2010PropOp55
 70
     1
102
RTVSPost2010Prop56
140
1.0
102
RTVSPost2010PropOp56
 70
     1
102
RTVSPost2010Prop57
140
1.0
102
RTVSPost2010PropOp57
 70
     1
  0
XRECORD
  5
3CC
102
{ACAD_REACTORS
330
3CB
102
}
330
3CB
100
AcDbXrecord
280
     1
102
RTVSPropertyOp0
 70
     1
102
RTVSPropertyOp1
 70
     1
102
RTVSPropertyOp2
 70
     1
102
RTVSPropertyOp3
 70
     1
102
RTVSPropertyOp4
 70
     1
102
RTVSPropertyOp5
 70
     1
102
RTVSPropertyOp6
 70
     1
102
RTVSPropertyOp7
 70
     1
102
RTVSPropertyOp8
 70
     1
102
RTVSPropertyOp9
 70
     1
102
RTVSPropertyOp10
 70
     1
102
RTVSPropertyOp11
 70
     1
102
RTVSPropertyOp12
 70
     1
102
RTVSPropertyOp13
 70
     1
102
RTVSPropertyOp14
 70
     1
102
RTVSPropertyOp15
 70
     1
102
RTVSPropertyOp16
 70
     1
102
RTVSPropertyOp17
 70
     1
102
RTVSPropertyOp18
 70
     1
102
RTVSPropertyOp19
 70
     1
102
RTVSPropertyOp20
 70
     1
102
RTVSPropertyOp21
 70
     1
102
RTVSPropertyOp22
 70
     1
102
RTVSPropertyOp23
 70
     1
102
RTVSPropertyOp24
 70
     1
102
RTVSPropertyOp25
 70
     1
102
RTVSPropertyOp26
 70
     1
102
RTVSPropertyOp27
 70
     1
102
RTVSPropertyOp28
 70
     1
102
RTVSPropertyOp29
 70
     1
102
RTVSPropertyOp30
 70
     1
102
RTVSPropertyOp31
 70
     1
102
RTVSPropertyOp32
 70
     1
102
RTVSPropertyOp33
 70
     1
102
RTVSPropertyOp34
 70
     1
102
RTVSPropertyOp35
 70
     1
102
RTVSPropertyOp36
 70
     1
102
RTVSPropertyOp37
 70
     1
102
RTVSPropertyOp38
 70
     1
102
RTVSPropertyOp39
 70
     1
102
RTVSPropertyOp40
 70
     1
102
RTVSPropertyOp41
 70
     1
102
RTVSPropertyOp42
 70
     1
102
RTVSPropertyOp43
 70
     1
102
RTVSPropertyOp44
 70
     1
102
RTVSPropertyOp45
 70
     1
102
RTVSPropertyOp46
 70
     1
102
RTVSPropertyOp47
 70
     1
102
RTVSPropertyOp48
 70
     1
102
RTVSPropertyOp49
 70
     1
102
RTVSPropertyOp50
 70
     1
102
RTVSPropertyOp51
 70
     0
102
RTVSPropertyOp52
 70
     0
102
RTVSPropertyOp53
 70
     1
102
RTVSPropertyOp54
 70
     1
102
RTVSPropertyOp55
 70
     1
102
RTVSPropertyOp56
 70
     1
102
RTVSPropertyOp57
 70
     1
102
RTVSPost2010Prop28
280
     0
102
RTVSPost2010PropOp28
 70
     1
102
RTVSPost2010Prop29
280
     1
102
RTVSPost2010PropOp29
 70
     1
102
RTVSPost2010Prop30
280
     1
102
RTVSPost2010PropOp30
 70
     1
102
RTVSPost2010Prop31
280
     0
102
RTVSPost2010PropOp31
 70
     1
102
RTVSPost2010Prop32
280
     0
102
RTVSPost2010PropOp32
 70
     1
102
RTVSPost2010Prop33
280
     0
102
RTVSPost2010PropOp33
 70
     1
102
RTVSPost2010Prop34
280
     0
102
RTVSPost2010PropOp34
 70
     1
102
RTVSPost2010Prop35
280
     0
102
RTVSPost2010PropOp35
 70
     1
102
RTVSPost2010Prop36
280
     0
102
RTVSPost2010PropOp36
 70
     1
102
RTVSPost2010Prop37
 90
       50
102
RTVSPost2010PropOp37
 70
     1
102
RTVSPost2010Prop38
140
0.0
102
RTVSPost2010PropOp38
 70
     1
102
RTVSPost2010Prop39
140
1.0
102
RTVSPost2010PropOp39
 70
     1
102
RTVSPost2010Prop40
 90
        0
102
RTVSPost2010PropOp40
 70
     1
102
RTVSPost2010Prop41ColorIndex
 90
       18
102
RTVSPost2010Prop41ColorRGB
 90
        0
102
RTVSPost2010PropOp41
 70
     1
102
RTVSPost2010Prop42
 90
       50
102
RTVSPost2010PropOp42
 70
     1
102
RTVSPost2010Prop43
 90
        3
102
RTVSPost2010PropOp43
 70
     1
102
RTVSPost2010Prop44ColorIndex
 90
        5
102
RTVSPost2010Prop44ColorRGB
 90
      255
102
RTVSPost2010PropOp44
 70
     1
102
RTVSPost2010Prop45
280
     0
102
RTVSPost2010PropOp45
 70
     1
102
RTVSPost2010Prop46
 90
       50
102
RTVSPost2010PropOp46
 70
     1
102
RTVSPost2010Prop47
 90
       50
102
RTVSPost2010PropOp47
 70
     1
102
RTVSPost2010Prop48
 90
       50
102
RTVSPost2010PropOp48
 70
     1
102
RTVSPost2010Prop49
280
     0
102
RTVSPost2010PropOp49
 70
     1
102
RTVSPost2010Prop50
 90
       50
102
RTVSPost2010PropOp50
 70
     1
102
RTVSPost2010Prop51ColorIndex
 90
      256
102
RTVSPost2010Prop51ColorRGB
 90
-16777216
102
RTVSPost2010PropOp51
 70
     0
102
RTVSPost2010Prop52
140
1.0
102
RTVSPost2010PropOp52
 70
     0
102
RTVSPost2010Prop53
 90
        2
102
RTVSPost2010PropOp53
 70
     1
102
RTVSPost2010Prop54
  1
strokes_ogs.tif
102
RTVSPost2010PropOp54
 70
     1
102
RTVSPost2010Prop55
280
     0
102
RTVSPost2010PropOp55
 70
     1
102
RTVSPost2010Prop56
140
1.0
102
RTVSPost2010PropOp56
 70
     1
102
RTVSPost2010Prop57
140
1.0
102
RTVSPost2010PropOp57
 70
     1
  0
XRECORD
  5
3BE
102
{ACAD_REACTORS
330
3BD
102
}
330
3BD
100
AcDbXrecord
280
     1
102
RTVSPropertyOp0
 70
     1
102
RTVSPropertyOp1
 70
     1
102
RTVSPropertyOp2
 70
     1
102
RTVSPropertyOp3
 70
     1
102
RTVSPropertyOp4
 70
     1
102
RTVSPropertyOp5
 70
     1
102
RTVSPropertyOp6
 70
     1
102
RTVSPropertyOp7
 70
     1
102
RTVSPropertyOp8
 70
     1
102
RTVSPropertyOp9
 70
     1
102
RTVSPropertyOp10
 70
     1
102
RTVSPropertyOp11
 70
     1
102
RTVSPropertyOp12
 70
     1
102
RTVSPropertyOp13
 70
     1
102
RTVSPropertyOp14
 70
     1
102
RTVSPropertyOp15
 70
     1
102
RTVSPropertyOp16
 70
     1
102
RTVSPropertyOp17
 70
     1
102
RTVSPropertyOp18
 70
     1
102
RTVSPropertyOp19
 70
     1
102
RTVSPropertyOp20
 70
     1
102
RTVSPropertyOp21
 70
     1
102
RTVSPropertyOp22
 70
     1
102
RTVSPropertyOp23
 70
     1
102
RTVSPropertyOp24
 70
     1
102
RTVSPropertyOp25
 70
     1
102
RTVSPropertyOp26
 70
     1
102
RTVSPropertyOp27
 70
     1
102
RTVSPropertyOp28
 70
     1
102
RTVSPropertyOp29
 70
     1
102
RTVSPropertyOp30
 70
     1
102
RTVSPropertyOp31
 70
     1
102
RTVSPropertyOp32
 70
     1
102
RTVSPropertyOp33
 70
     1
102
RTVSPropertyOp34
 70
     1
102
RTVSPropertyOp35
 70
     1
102
RTVSPropertyOp36
 70
     1
102
RTVSPropertyOp37
 70
     1
102
RTVSPropertyOp38
 70
     1
102
RTVSPropertyOp39
 70
     1
102
RTVSPropertyOp40
 70
     1
102
RTVSPropertyOp41
 70
     1
102
RTVSPropertyOp42
 70
     1
102
RTVSPropertyOp43
 70
     1
102
RTVSPropertyOp44
 70
     1
102
RTVSPropertyOp45
 70
     1
102
RTVSPropertyOp46
 70
     1
102
RTVSPropertyOp47
 70
     1
102
RTVSPropertyOp48
 70
     1
102
RTVSPropertyOp49
 70
     1
102
RTVSPropertyOp50
 70
     1
102
RTVSPropertyOp51
 70
     0
102
RTVSPropertyOp52
 70
     0
102
RTVSPropertyOp53
 70
     1
102
RTVSPropertyOp54
 70
     1
102
RTVSPropertyOp55
 70
     1
102
RTVSPropertyOp56
 70
     1
102
RTVSPropertyOp57
 70
     1
102
RTVSPost2010Prop28
280
     0
102
RTVSPost2010PropOp28
 70
     1
102
RTVSPost2010Prop29
280
     1
102
RTVSPost2010PropOp29
 70
     1
102
RTVSPost2010Prop30
280
     1
102
RTVSPost2010PropOp30
 70
     1
102
RTVSPost2010Prop31
280
     0
102
RTVSPost2010PropOp31
 70
     1
102
RTVSPost2010Prop32
280
     0
102
RTVSPost2010PropOp32
 70
     1
102
RTVSPost2010Prop33
280
     0
102
RTVSPost2010PropOp33
 70
     1
102
RTVSPost2010Prop34
280
     0
102
RTVSPost2010PropOp34
 70
     1
102
RTVSPost2010Prop35
280
     0
102
RTVSPost2010PropOp35
 70
     1
102
RTVSPost2010Prop36
280
     0
102
RTVSPost2010PropOp36
 70
     1
102
RTVSPost2010Prop37
 90
       50
102
RTVSPost2010PropOp37
 70
     1
102
RTVSPost2010Prop38
140
0.0
102
RTVSPost2010PropOp38
 70
     1
102
RTVSPost2010Prop39
140
1.0
102
RTVSPost2010PropOp39
 70
     1
102
RTVSPost2010Prop40
 90
        0
102
RTVSPost2010PropOp40
 70
     1
102
RTVSPost2010Prop41ColorIndex
 90
       18
102
RTVSPost2010Prop41ColorRGB
 90
        0
102
RTVSPost2010PropOp41
 70
     1
102
RTVSPost2010Prop42
 90
       50
102
RTVSPost2010PropOp42
 70
     1
102
RTVSPost2010Prop43
 90
        3
102
RTVSPost2010PropOp43
 70
     1
102
RTVSPost2010Prop44ColorIndex
 90
        5
102
RTVSPost2010Prop44ColorRGB
 90
      255
102
RTVSPost2010PropOp44
 70
     1
102
RTVSPost2010Prop45
280
     0
102
RTVSPost2010PropOp45
 70
     1
102
RTVSPost2010Prop46
 90
       50
102
RTVSPost2010PropOp46
 70
     1
102
RTVSPost2010Prop47
 90
       50
102
RTVSPost2010PropOp47
 70
     1
102
RTVSPost2010Prop48
 90
       50
102
RTVSPost2010PropOp48
 70
     1
102
RTVSPost2010Prop49
280
     0
102
RTVSPost2010PropOp49
 70
     1
102
RTVSPost2010Prop50
 90
       50
102
RTVSPost2010PropOp50
 70
     1
102
RTVSPost2010Prop51ColorIndex
 90
      256
102
RTVSPost2010Prop51ColorRGB
 90
-16777216
102
RTVSPost2010PropOp51
 70
     0
102
RTVSPost2010Prop52
140
1.0
102
RTVSPost2010PropOp52
 70
     0
102
RTVSPost2010Prop53
 90
        2
102
RTVSPost2010PropOp53
 70
     1
102
RTVSPost2010Prop54
  1
strokes_ogs.tif
102
RTVSPost2010PropOp54
 70
     1
102
RTVSPost2010Prop55
280
     0
102
RTVSPost2010PropOp55
 70
     1
102
RTVSPost2010Prop56
140
1.0
102
RTVSPost2010PropOp56
 70
     1
102
RTVSPost2010Prop57
140
1.0
102
RTVSPost2010PropOp57
 70
     1
  0
XRECORD
  5
3DE
102
{ACAD_REACTORS
330
3DD
102
}
330
3DD
100
AcDbXrecord
280
     1
102
RTVSPropertyOp0
 70
     1
102
RTVSPropertyOp1
 70
     1
102
RTVSPropertyOp2
 70
     1
102
RTVSPropertyOp3
 70
     1
102
RTVSPropertyOp4
 70
     1
102
RTVSPropertyOp5
 70
     1
102
RTVSPropertyOp6
 70
     1
102
RTVSPropertyOp7
 70
     1
102
RTVSPropertyOp8
 70
     1
102
RTVSPropertyOp9
 70
     1
102
RTVSPropertyOp10
 70
     1
102
RTVSPropertyOp11
 70
     1
102
RTVSPropertyOp12
 70
     1
102
RTVSPropertyOp13
 70
     1
102
RTVSPropertyOp14
 70
     1
102
RTVSPropertyOp15
 70
     1
102
RTVSPropertyOp16
 70
     1
102
RTVSPropertyOp17
 70
     1
102
RTVSPropertyOp18
 70
     1
102
RTVSPropertyOp19
 70
     1
102
RTVSPropertyOp20
 70
     1
102
RTVSPropertyOp21
 70
     1
102
RTVSPropertyOp22
 70
     1
102
RTVSPropertyOp23
 70
     1
102
RTVSPropertyOp24
 70
     1
102
RTVSPropertyOp25
 70
     1
102
RTVSPropertyOp26
 70
     1
102
RTVSPropertyOp27
 70
     1
102
RTVSPropertyOp28
 70
     1
102
RTVSPropertyOp29
 70
     1
102
RTVSPropertyOp30
 70
     1
102
RTVSPropertyOp31
 70
     1
102
RTVSPropertyOp32
 70
     1
102
RTVSPropertyOp33
 70
     1
102
RTVSPropertyOp34
 70
     1
102
RTVSPropertyOp35
 70
     1
102
RTVSPropertyOp36
 70
     1
102
RTVSPropertyOp37
 70
     1
102
RTVSPropertyOp38
 70
     1
102
RTVSPropertyOp39
 70
     1
102
RTVSPropertyOp40
 70
     1
102
RTVSPropertyOp41
 70
     1
102
RTVSPropertyOp42
 70
     1
102
RTVSPropertyOp43
 70
     1
102
RTVSPropertyOp44
 70
     1
102
RTVSPropertyOp45
 70
     1
102
RTVSPropertyOp46
 70
     1
102
RTVSPropertyOp47
 70
     1
102
RTVSPropertyOp48
 70
     1
102
RTVSPropertyOp49
 70
     1
102
RTVSPropertyOp50
 70
     1
102
RTVSPropertyOp51
 70
     0
102
RTVSPropertyOp52
 70
     0
102
RTVSPropertyOp53
 70
     1
102
RTVSPropertyOp54
 70
     1
102
RTVSPropertyOp55
 70
     1
102
RTVSPropertyOp56
 70
     1
102
RTVSPropertyOp57
 70
     1
102
RTVSPost2010Prop28
280
     0
102
RTVSPost2010PropOp28
 70
     1
102
RTVSPost2010Prop29
280
     1
102
RTVSPost2010PropOp29
 70
     1
102
RTVSPost2010Prop30
280
     1
102
RTVSPost2010PropOp30
 70
     1
102
RTVSPost2010Prop31
280
     0
102
RTVSPost2010PropOp31
 70
     1
102
RTVSPost2010Prop32
280
     0
102
RTVSPost2010PropOp32
 70
     1
102
RTVSPost2010Prop33
280
     0
102
RTVSPost2010PropOp33
 70
     1
102
RTVSPost2010Prop34
280
     0
102
RTVSPost2010PropOp34
 70
     1
102
RTVSPost2010Prop35
280
     0
102
RTVSPost2010PropOp35
 70
     1
102
RTVSPost2010Prop36
280
     0
102
RTVSPost2010PropOp36
 70
     1
102
RTVSPost2010Prop37
 90
       50
102
RTVSPost2010PropOp37
 70
     1
102
RTVSPost2010Prop38
140
0.0
102
RTVSPost2010PropOp38
 70
     1
102
RTVSPost2010Prop39
140
1.0
102
RTVSPost2010PropOp39
 70
     1
102
RTVSPost2010Prop40
 90
        0
102
RTVSPost2010PropOp40
 70
     1
102
RTVSPost2010Prop41ColorIndex
 90
       18
102
RTVSPost2010Prop41ColorRGB
 90
        0
102
RTVSPost2010PropOp41
 70
     1
102
RTVSPost2010Prop42
 90
       50
102
RTVSPost2010PropOp42
 70
     1
102
RTVSPost2010Prop43
 90
        3
102
RTVSPost2010PropOp43
 70
     1
102
RTVSPost2010Prop44ColorIndex
 90
        5
102
RTVSPost2010Prop44ColorRGB
 90
      255
102
RTVSPost2010PropOp44
 70
     1
102
RTVSPost2010Prop45
280
     0
102
RTVSPost2010PropOp45
 70
     1
102
RTVSPost2010Prop46
 90
       50
102
RTVSPost2010PropOp46
 70
     1
102
RTVSPost2010Prop47
 90
       50
102
RTVSPost2010PropOp47
 70
     1
102
RTVSPost2010Prop48
 90
       50
102
RTVSPost2010PropOp48
 70
     1
102
RTVSPost2010Prop49
280
     0
102
RTVSPost2010PropOp49
 70
     1
102
RTVSPost2010Prop50
 90
       50
102
RTVSPost2010PropOp50
 70
     1
102
RTVSPost2010Prop51ColorIndex
 90
      256
102
RTVSPost2010Prop51ColorRGB
 90
-16777216
102
RTVSPost2010PropOp51
 70
     0
102
RTVSPost2010Prop52
140
1.0
102
RTVSPost2010PropOp52
 70
     0
102
RTVSPost2010Prop53
 90
        2
102
RTVSPost2010PropOp53
 70
     1
102
RTVSPost2010Prop54
  1
strokes_ogs.tif
102
RTVSPost2010PropOp54
 70
     1
102
RTVSPost2010Prop55
280
     0
102
RTVSPost2010PropOp55
 70
     1
102
RTVSPost2010Prop56
140
1.0
102
RTVSPost2010PropOp56
 70
     1
102
RTVSPost2010Prop57
140
1.0
102
RTVSPost2010PropOp57
 70
     1
  0
ENDSEC
  0
EOF
