  0
SECTION
  2
HEADER
  9
$ACADVER
  1
AC1014
  9
$ACADMAINTVER
 70
     9
  9
$DWGCODEPAGE
  3
ANSI_932
  9
$INSBASE
 10
0.0
 20
0.0
 30
0.0
  9
$EXTMIN
 10
0.0
 20
0.0
 30
0.0
  9
$EXTMAX
 10
594.0
 20
420.0
 30
0.0
  9
$LIMMIN
 10
0.0
 20
0.0
  9
$LIMMAX
 10
594.0
 20
420.0
  9
$ORTHOMODE
 70
     0
  9
$REGENMODE
 70
     1
  9
$FILLMODE
 70
     1
  9
$QTEXTMODE
 70
     0
  9
$MIRRTEXT
 70
     1
  9
$DRAGMODE
 70
     2
  9
$LTSCALE
 40
1.0
  9
$OSMODE
 70
    37
  9
$ATTMODE
 70
     1
  9
$TEXTSIZE
 40
0.2
  9
$TRACEWID
 40
0.05
  9
$TEXTSTYLE
  7
STYLE1
  9
$CLAYER
  8
0
  9
$CELTYPE
  6
BYLAYER
  9
$CECOLOR
 62
   256
  9
$CELTSCALE
 40
1.0
  9
$DELOBJ
 70
     1
  9
$DISPSILH
 70
     0
  9
$DIMSCALE
 40
1.0
  9
$DIMASZ
 40
4.0
  9
$DIMEXO
 40
1.0
  9
$DIMDLI
 40
10.0
  9
$DIMRND
 40
0.0
  9
$DIMDLE
 40
6.0
  9
$DIMEXE
 40
1.0
  9
$DIMTP
 40
0.0
  9
$DIMTM
 40
0.0
  9
$DIMTXT
 40
4.0
  9
$DIMCEN
 40
2.5
  9
$DIMTSZ
 40
0.0
  9
$DIMTOL
 70
     0
  9
$DIMLIM
 70
     0
  9
$DIMTIH
 70
     0
  9
$DIMTOH
 70
     0
  9
$DIMSE1
 70
     0
  9
$DIMSE2
 70
     0
  9
$DIMTAD
 70
     1
  9
$DIMZIN
 70
     8
  9
$DIMBLK
  1

  9
$DIMASO
 70
     1
  9
$DIMSHO
 70
     1
  9
$DIMPOST
  1

  9
$DIMAPOST
  1

  9
$DIMALT
 70
     0
  9
$DIMALTD
 70
     3
  9
$DIMALTF
 40
0.03937
  9
$DIMLFAC
 40
1.0
  9
$DIMTOFL
 70
     1
  9
$DIMTVP
 40
0.0
  9
$DIMTIX
 70
     0
  9
$DIMSOXD
 70
     0
  9
$DIMSAH
 70
     1
  9
$DIMBLK1
  1
FXTIP_ARROW_S
  9
$DIMBLK2
  1
FXTIP_ARROW_E
  9
$DIMSTYLE
  2
FXDIMINFO
  9
$DIMCLRD
 70
     7
  9
$DIMCLRE
 70
     7
  9
$DIMCLRT
 70
     7
  9
$DIMTFAC
 40
1.0
  9
$DIMGAP
 40
1.0
  9
$DIMJUST
 70
     0
  9
$DIMSD1
 70
     0
  9
$DIMSD2
 70
     0
  9
$DIMTOLJ
 70
     0
  9
$DIMTZIN
 70
     8
  9
$DIMALTZ
 70
     0
  9
$DIMALTTZ
 70
     0
  9
$DIMFIT
 70
     3
  9
$DIMUPT
 70
     0
  9
$DIMUNIT
 70
     2
  9
$DIMDEC
 70
     2
  9
$DIMTDEC
 70
     2
  9
$DIMALTU
 70
     2
  9
$DIMALTTD
 70
     3
  9
$DIMTXSTY
  7
STYLE1
  9
$DIMAUNIT
 70
     0
  9
$LUNITS
 70
     2
  9
$LUPREC
 70
     4
  9
$SKETCHINC
 40
0.1
  9
$FILLETRAD
 40
0.5
  9
$AUNITS
 70
     0
  9
$AUPREC
 70
     0
  9
$MENU
  1
.
  9
$ELEVATION
 40
0.0
  9
$PELEVATION
 40
0.0
  9
$THICKNESS
 40
0.0
  9
$LIMCHECK
 70
     0
  9
$CHAMFERA
 40
0.5
  9
$CHAMFERB
 40
0.5
  9
$CHAMFERC
 40
1.0
  9
$CHAMFERD
 40
0.0
  9
$SKPOLY
 70
     0
  9
$TDCREATE
 40
2455308.431532025
  9
$TDUPDATE
 40
2455308.431532037
  9
$TDINDWG
 40
0.0000000116
  9
$TDUSRTIMER
 40
0.0000000116
  9
$USRTIMER
 70
     1
  9
$ANGBASE
 50
0.0
  9
$ANGDIR
 70
     0
  9
$PDMODE
 70
     0
  9
$PDSIZE
 40
0.0
  9
$PLINEWID
 40
0.0
  9
$COORDS
 70
     1
  9
$SPLFRAME
 70
     0
  9
$SPLINETYPE
 70
     6
  9
$SPLINESEGS
 70
     8
  9
$ATTDIA
 70
     0
  9
$ATTREQ
 70
     1
  9
$HANDLING
 70
     1
  9
$HANDSEED
  5
57F
  9
$SURFTAB1
 70
     6
  9
$SURFTAB2
 70
     6
  9
$SURFTYPE
 70
     6
  9
$SURFU
 70
     6
  9
$SURFV
 70
     6
  9
$UCSNAME
  2

  9
$UCSORG
 10
0.0
 20
0.0
 30
0.0
  9
$UCSXDIR
 10
1.0
 20
0.0
 30
0.0
  9
$UCSYDIR
 10
0.0
 20
1.0
 30
0.0
  9
$PUCSNAME
  2

  9
$PUCSORG
 10
0.0
 20
0.0
 30
0.0
  9
$PUCSXDIR
 10
1.0
 20
0.0
 30
0.0
  9
$PUCSYDIR
 10
0.0
 20
1.0
 30
0.0
  9
$USERI1
 70
     0
  9
$USERI2
 70
     0
  9
$USERI3
 70
     0
  9
$USERI4
 70
     0
  9
$USERI5
 70
     0
  9
$USERR1
 40
0.0
  9
$USERR2
 40
0.0
  9
$USERR3
 40
0.0
  9
$USERR4
 40
0.0
  9
$USERR5
 40
0.0
  9
$WORLDVIEW
 70
     1
  9
$SHADEDGE
 70
     3
  9
$SHADEDIF
 70
    70
  9
$TILEMODE
 70
     1
  9
$MAXACTVP
 70
    64
  9
$PINSBASE
 10
0.0
 20
0.0
 30
0.0
  9
$PLIMCHECK
 70
     0
  9
$PEXTMIN
 10
1.000000E+20
 20
1.000000E+20
 30
1.000000E+20
  9
$PEXTMAX
 10
-1.000000E+20
 20
-1.000000E+20
 30
-1.000000E+20
  9
$PLIMMIN
 10
0.0
 20
0.0
  9
$PLIMMAX
 10
12.0
 20
9.0
  9
$UNITMODE
 70
     0
  9
$VISRETAIN
 70
     1
  9
$PLINEGEN
 70
     0
  9
$PSLTSCALE
 70
     1
  9
$TREEDEPTH
 70
  3020
  9
$PICKSTYLE
 70
     1
  9
$CMLSTYLE
  2
STANDARD
  9
$CMLJUST
 70
     0
  9
$CMLSCALE
 40
1.0
  9
$PROXYGRAPHICS
 70
     1
  9
$MEASUREMENT
 70
     0
  0
ENDSEC
  0
SECTION
  2
CLASSES
  0
CLASS
  1
ACDBDICTIONARYWDFLT
  2
AcDbDictionaryWithDefault
  3
ObjectDBX Classes
 90
        0
280
     0
281
     0
  0
CLASS
  1
XRECORD
  2
AcDbXrecord
  3
AutoCAD 2000
 90
        0
280
     0
281
     0
  0
CLASS
  1
LWPOLYLINE
  2
AcDbPolyline
  3
AutoCAD 2000
 90
        0
280
     0
281
     1
  0
CLASS
  1
HATCH
  2
AcDbHatch
  3
AutoCAD 2000
 90
        0
280
     0
281
     1
  0
CLASS
  1
ACDBPLACEHOLDER
  2
AcDbPlaceHolder
  3
ObjectDBX Classes
 90
        0
280
     0
281
     0
  0
CLASS
  1
LAYOUT
  2
AcDbLayout
  3
ObjectDBX Classes
 90
        0
280
     0
281
     0
  0
ENDSEC
  0
SECTION
  2
TABLES
  0
TABLE
  2
VPORT
  5
8
330
0
100
AcDbSymbolTable
 70
     1
  0
VPORT
  5
29
330
8
100
AcDbSymbolTableRecord
100
AcDbViewportTableRecord
  2
*ACTIVE
 70
     0
 10
0.0
 20
0.0
 11
1.0
 21
1.0
 12
297.0
 22
210.0
 13
0.0
 23
0.0
 14
0.5
 24
0.5
 15
0.5
 25
0.5
 16
0.0
 26
0.0
 36
1.0
 17
0.0
 27
0.0
 37
0.0
 40
420.0
 41
1.414286
 42
50.0
 43
0.0
 44
0.0
 50
0.0
 51
0.0
 71
     0
 72
   100
 73
     1
 74
     3
 75
     0
 76
     0
 77
     0
 78
     0
  0
ENDTAB
  0
TABLE
  2
LTYPE
  5
5
330
0
100
AcDbSymbolTable
 70
     4
  0
LTYPE
  5
14
330
5
100
AcDbSymbolTableRecord
100
AcDbLinetypeTableRecord
  2
BYBLOCK
 70
     0
  3

 72
    65
 73
     0
 40
0.0
  0
LTYPE
  5
15
330
5
100
AcDbSymbolTableRecord
100
AcDbLinetypeTableRecord
  2
BYLAYER
 70
     0
  3

 72
    65
 73
     0
 40
0.0
  0
LTYPE
  5
16
330
5
100
AcDbSymbolTableRecord
100
AcDbLinetypeTableRecord
  2
CONTINUOUS
 70
     0
  3
--------------------
 72
    65
 73
     0
 40
0.0
  0
LTYPE
  5
2A
330
5
100
AcDbSymbolTableRecord
100
AcDbLinetypeTableRecord
  2
CENTER
 70
     0
  3
Center ____ _ ____ _ ____ _ ____ _ ____ _ ____
 72
    65
 73
     4
 40
13.0
 49
10.0
 74
     0
 49
-1.0
 74
     0
 49
1.0
 74
     0
 49
-1.0
 74
     0
  0
LTYPE
  5
2C
330
5
100
AcDbSymbolTableRecord
100
AcDbLinetypeTableRecord
  2
DASHED
 70
     0
  3
Dashed __ __ __ __ __ __ __ __ __ __ __ __ __ _
 72
    65
 73
     2
 40
4.0
 49
3.0
 74
     0
 49
-1.0
 74
     0
  0
ENDTAB
  0
TABLE
  2
LAYER
  5
2
330
0
100
AcDbSymbolTable
 70
    21
  0
LAYER
  5
10
330
2
100
AcDbSymbolTableRecord
100
AcDbLayerTableRecord
  2
0
 70
     0
 62
     7
  6
CONTINUOUS
  0
LAYER
  5
2D
330
2
100
AcDbSymbolTableRecord
100
AcDbLayerTableRecord
  2
LAYERGROUP-1
 70
     0
 62
     3
  6
CONTINUOUS
  0
LAYER
  5
3D
330
2
100
AcDbSymbolTableRecord
100
AcDbLayerTableRecord
  2
}}ﾊﾊGG血CCТ
 70
     0
 62
     3
  6
CONTINUOUS
  0
LAYER
  5
A9
330
2
100
AcDbSymbolTableRecord
100
AcDbLayerTableRecord
  2
GR1-1
 70
     0
 62
     7
  6
CONTINUOUS
  0
LAYER
  5
2F2
330
2
100
AcDbSymbolTableRecord
100
AcDbLayerTableRecord
  2
1-1
 70
     0
 62
     7
  6
CONTINUOUS
  0
LAYER
  5
3FB
330
2
100
AcDbSymbolTableRecord
100
AcDbLayerTableRecord
  2
0-1
 70
     0
 62
     7
  6
CONTINUOUS
  0
ENDTAB
  0
TABLE
  2
STYLE
  5
3
330
0
100
AcDbSymbolTable
 70
     4
  0
STYLE
  5
11
330
3
100
AcDbSymbolTableRecord
100
AcDbTextStyleTableRecord
  2
STANDARD
 70
     0
 40
0.0
 41
1.0
 50
0.0
 71
     0
 42
0.2
  3
txt
  4

  0
STYLE
  5
3F
330
3
100
AcDbSymbolTableRecord
100
AcDbTextStyleTableRecord
  2
STYLE1
 70
     0
 40
0.0
 41
1.0
 50
0.0
 71
     0
 42
0.2
  3
MONOTXT.SHX
  4
extfont.shx
  0
STYLE
  5
40
330
3
100
AcDbSymbolTableRecord
100
AcDbTextStyleTableRecord
  2
FX_VECTOR
 70
     0
 40
0.0
 41
1.0
 50
0.0
 71
     0
 42
0.2
  3
MONOTXT.SHX
  4
BIGFONT.SHX
  0
ENDTAB
  0
TABLE
  2
VIEW
  5
6
330
0
100
AcDbSymbolTable
 70
     0
  0
ENDTAB
  0
TABLE
  2
UCS
  5
7
330
0
100
AcDbSymbolTable
 70
     0
  0
ENDTAB
  0
TABLE
  2
APPID
  5
9
330
0
100
AcDbSymbolTable
 70
     1
  0
APPID
  5
12
330
9
100
AcDbSymbolTableRecord
100
AcDbRegAppTableRecord
  2
ACAD
 70
     0
  0
ENDTAB
  0
TABLE
  2
DIMSTYLE
  5
A
330
0
100
AcDbSymbolTable
 70
     2
  0
DIMSTYLE
105
27
330
A
100
AcDbSymbolTableRecord
100
AcDbDimStyleTableRecord
  2
STANDARD
 70
     0
  3

  4

  5

  6

  7

 40
1.0
 41
0.18
 42
0.0625
 43
0.38
 44
0.18
 45
0.0
 46
0.0
 47
0.0
 48
0.0
140
0.18
141
0.09
142
0.0
143
25.4
144
1.0
145
0.0
146
1.0
147
0.09
 71
     0
 72
     0
 73
     1
 74
     1
 75
     0
 76
     0
 77
     0
 78
     0
170
     0
171
     2
172
     0
173
     0
174
     0
175
     0
176
     0
177
     0
178
     0
270
     2
271
     4
272
     4
273
     2
274
     2
340
11
275
     0
280
     0
281
     0
282
     0
283
     1
284
     0
285
     0
286
     0
287
     3
288
     0
  0
DIMSTYLE
105
A7
330
A
100
AcDbSymbolTableRecord
100
AcDbDimStyleTableRecord
  2
FXDIMINFO
 70
     0
  3

  4

  5

  6
FXTIP_ARROW_S
  7
FXTIP_ARROW_E
 40
1.0
 41
4.0
 42
1.0
 43
10.0
 44
1.0
 45
0.0
 46
6.0
 47
0.0
 48
0.0
140
4.0
141
2.5
142
0.0
143
0.03937
144
1.0
145
0.0
146
1.0
147
1.0
 71
     0
 72
     0
 73
     0
 74
     0
 75
     0
 76
     0
 77
     1
 78
     8
170
     0
171
     3
172
     1
173
     1
174
     0
175
     0
176
     7
177
     7
178
     7
179
     2
270
     2
271
     2
272
     2
273
     2
274
     3
340
3F
275
     0
280
     0
281
     0
282
     0
283
     0
284
     8
285
     0
286
     0
287
     3
288
     0
  0
ENDTAB
  0
TABLE
  2
BLOCK_RECORD
  5
1
330
0
100
AcDbSymbolTable
 70
    19
  0
BLOCK_RECORD
  5
1F
330
1
100
AcDbSymbolTableRecord
100
AcDbBlockTableRecord
  2
*MODEL_SPACE
  0
BLOCK_RECORD
  5
1B
330
1
100
AcDbSymbolTableRecord
100
AcDbBlockTableRecord
  2
*PAPER_SPACE
  0
BLOCK_RECORD
  5
41
330
1
100
AcDbSymbolTableRecord
100
AcDbBlockTableRecord
  2
FXTIP_ARROW_S
  0
BLOCK_RECORD
  5
47
330
1
100
AcDbSymbolTableRecord
100
AcDbBlockTableRecord
  2
FXTIP_ARROW_E
  0
BLOCK_RECORD
  5
4D
330
1
100
AcDbSymbolTableRecord
100
AcDbBlockTableRecord
  2
FXTIP_BLACKDOT_S
  0
BLOCK_RECORD
  5
53
330
1
100
AcDbSymbolTableRecord
100
AcDbBlockTableRecord
  2
FXTIP_BLACKDOT_E
  0
BLOCK_RECORD
  5
59
330
1
100
AcDbSymbolTableRecord
100
AcDbBlockTableRecord
  2
FXTIP_TRIANGLE_S
  0
BLOCK_RECORD
  5
60
330
1
100
AcDbSymbolTableRecord
100
AcDbBlockTableRecord
  2
FXTIP_TRIANGLE_E
  0
BLOCK_RECORD
  5
67
330
1
100
AcDbSymbolTableRecord
100
AcDbBlockTableRecord
  2
FXTIP_ARCHITECT_S
  0
BLOCK_RECORD
  5
6D
330
1
100
AcDbSymbolTableRecord
100
AcDbBlockTableRecord
  2
FXTIP_ARCHITECT_E
  0
BLOCK_RECORD
  5
73
330
1
100
AcDbSymbolTableRecord
100
AcDbBlockTableRecord
  2
FXTIP_CIVIL_S
  0
BLOCK_RECORD
  5
79
330
1
100
AcDbSymbolTableRecord
100
AcDbBlockTableRecord
  2
FXTIP_CIVIL_E
  0
BLOCK_RECORD
  5
7F
330
1
100
AcDbSymbolTableRecord
100
AcDbBlockTableRecord
  2
FXTIP_WHITEDOT_S
  0
BLOCK_RECORD
  5
84
330
1
100
AcDbSymbolTableRecord
100
AcDbBlockTableRecord
  2
FXTIP_WHITEDOT_E
  0
BLOCK_RECORD
  5
89
330
1
100
AcDbSymbolTableRecord
100
AcDbBlockTableRecord
  2
FXTIP_UPARROW_S
  0
BLOCK_RECORD
  5
8E
330
1
100
AcDbSymbolTableRecord
100
AcDbBlockTableRecord
  2
FXTIP_UPARROW_E
  0
BLOCK_RECORD
  5
93
330
1
100
AcDbSymbolTableRecord
100
AcDbBlockTableRecord
  2
FXTIP_DOWNARROW_S
  0
BLOCK_RECORD
  5
98
330
1
100
AcDbSymbolTableRecord
100
AcDbBlockTableRecord
  2
FXTIP_DOWNARROW_E
  0
BLOCK_RECORD
  5
9D
330
1
100
AcDbSymbolTableRecord
100
AcDbBlockTableRecord
  2
FXTIP_BLACKTRIANGLE_S
  0
BLOCK_RECORD
  5
A2
330
1
100
AcDbSymbolTableRecord
100
AcDbBlockTableRecord
  2
FXTIP_BLACKTRIANGLE_E
  0
ENDTAB
  0
ENDSEC
  0
SECTION
  2
BLOCKS
  0
BLOCK
  5
20
330
1F
100
AcDbEntity
  8
0
100
AcDbBlockBegin
  2
*MODEL_SPACE
 70
     0
 71
     0
 10
0.0
 20
0.0
 30
0.0
  3
*MODEL_SPACE
  1

  0
ENDBLK
  5
21
330
1F
100
AcDbEntity
  8
0
100
AcDbBlockEnd
  0
BLOCK
  5
1C
330
1B
100
AcDbEntity
 67
     1
  8
0
100
AcDbBlockBegin
  2
*PAPER_SPACE
 70
     0
 71
     0
 10
0.0
 20
0.0
 30
0.0
  3
*PAPER_SPACE
  1

  0
ENDBLK
  5
1D
330
1B
100
AcDbEntity
 67
     1
  8
0
100
AcDbBlockEnd
  0
BLOCK
  5
42
330
41
100
AcDbEntity
  8
0
100
AcDbBlockBegin
  2
FXTIP_ARROW_S
 70
     0
 71
     0
 10
0.0
 20
0.0
 30
0.0
  3
FXTIP_ARROW_S
  1

  0
LINE
  5
44
330
41
100
AcDbEntity
  8
0
  6
CONTINUOUS
 62
     0
100
AcDbLine
 10
0.0
 20
0.0
 30
0.0
 11
-1.0
 21
0.0
 31
0.0
  0
LINE
  5
45
330
41
100
AcDbEntity
  8
0
  6
CONTINUOUS
 62
     0
100
AcDbLine
 10
0.0
 20
0.0
 30
0.0
 11
-0.965926
 21
-0.258819
 31
0.0
  0
LINE
  5
46
330
41
100
AcDbEntity
  8
0
  6
CONTINUOUS
 62
     0
100
AcDbLine
 10
0.0
 20
0.0
 30
0.0
 11
-0.965926
 21
0.258819
 31
0.0
  0
ENDBLK
  5
43
330
41
100
AcDbEntity
  8
0
100
AcDbBlockEnd
  0
BLOCK
  5
48
330
47
100
AcDbEntity
  8
0
100
AcDbBlockBegin
  2
FXTIP_ARROW_E
 70
     0
 71
     0
 10
0.0
 20
0.0
 30
0.0
  3
FXTIP_ARROW_E
  1

  0
LINE
  5
4A
330
47
100
AcDbEntity
  8
0
  6
CONTINUOUS
 62
     0
100
AcDbLine
 10
0.0
 20
0.0
 30
0.0
 11
-1.0
 21
0.0
 31
0.0
  0
LINE
  5
4B
330
47
100
AcDbEntity
  8
0
  6
CONTINUOUS
 62
     0
100
AcDbLine
 10
0.0
 20
0.0
 30
0.0
 11
-0.965926
 21
0.258819
 31
0.0
  0
LINE
  5
4C
330
47
100
AcDbEntity
  8
0
  6
CONTINUOUS
 62
     0
100
AcDbLine
 10
0.0
 20
0.0
 30
0.0
 11
-0.965926
 21
-0.258819
 31
0.0
  0
ENDBLK
  5
49
330
47
100
AcDbEntity
  8
0
100
AcDbBlockEnd
  0
BLOCK
  5
4E
330
4D
100
AcDbEntity
  8
0
100
AcDbBlockBegin
  2
FXTIP_BLACKDOT_S
 70
     0
 71
     0
 10
0.0
 20
0.0
 30
0.0
  3
FXTIP_BLACKDOT_S
  1

  0
LINE
  5
50
330
4D
100
AcDbEntity
  8
0
  6
CONTINUOUS
 62
     0
100
AcDbLine
 10
0.0
 20
0.0
 30
0.0
 11
-1.0
 21
0.0
 31
0.0
  0
LWPOLYLINE
  5
51
330
4D
100
AcDbEntity
  8
0
  6
CONTINUOUS
 62
     0
100
AcDbPolyline
 90
        2
 70
     1
 10
-0.25
 20
0.0
 40
0.5
 41
0.5
 42
1.0
 10
0.25
 20
0.0
 40
0.5
 41
0.5
 42
1.0
  0
CIRCLE
  5
52
330
4D
100
AcDbEntity
  8
0
  6
CONTINUOUS
 62
     0
100
AcDbCircle
 10
0.0
 20
0.0
 30
0.0
 40
0.5
  0
ENDBLK
  5
4F
330
4D
100
AcDbEntity
  8
0
100
AcDbBlockEnd
  0
BLOCK
  5
54
330
53
100
AcDbEntity
  8
0
100
AcDbBlockBegin
  2
FXTIP_BLACKDOT_E
 70
     0
 71
     0
 10
0.0
 20
0.0
 30
0.0
  3
FXTIP_BLACKDOT_E
  1

  0
LINE
  5
56
330
53
100
AcDbEntity
  8
0
  6
CONTINUOUS
 62
     0
100
AcDbLine
 10
0.0
 20
0.0
 30
0.0
 11
-1.0
 21
0.0
 31
0.0
  0
LWPOLYLINE
  5
57
330
53
100
AcDbEntity
  8
0
  6
CONTINUOUS
 62
     0
100
AcDbPolyline
 90
        2
 70
     1
 10
-0.25
 20
0.0
 40
0.5
 41
0.5
 42
1.0
 10
0.25
 20
0.0
 40
0.5
 41
0.5
 42
1.0
  0
CIRCLE
  5
58
330
53
100
AcDbEntity
  8
0
  6
CONTINUOUS
 62
     0
100
AcDbCircle
 10
0.0
 20
0.0
 30
0.0
 40
0.5
  0
ENDBLK
  5
55
330
53
100
AcDbEntity
  8
0
100
AcDbBlockEnd
  0
BLOCK
  5
5A
330
59
100
AcDbEntity
  8
0
100
AcDbBlockBegin
  2
FXTIP_TRIANGLE_S
 70
     0
 71
     0
 10
0.0
 20
0.0
 30
0.0
  3
FXTIP_TRIANGLE_S
  1

  0
LINE
  5
5C
330
59
100
AcDbEntity
  8
0
  6
CONTINUOUS
 62
     0
100
AcDbLine
 10
0.0
 20
0.0
 30
0.0
 11
-1.0
 21
0.0
 31
0.0
  0
LINE
  5
5D
330
59
100
AcDbEntity
  8
0
  6
CONTINUOUS
 62
     0
100
AcDbLine
 10
0.0
 20
0.0
 30
0.0
 11
-0.965926
 21
-0.258819
 31
0.0
  0
LINE
  5
5E
330
59
100
AcDbEntity
  8
0
  6
CONTINUOUS
 62
     0
100
AcDbLine
 10
0.0
 20
0.0
 30
0.0
 11
-0.965926
 21
0.258819
 31
0.0
  0
LINE
  5
5F
330
59
100
AcDbEntity
  8
0
  6
CONTINUOUS
 62
     0
100
AcDbLine
 10
-0.965926
 20
-0.258819
 30
0.0
 11
-0.965926
 21
0.258819
 31
0.0
  0
ENDBLK
  5
5B
330
59
100
AcDbEntity
  8
0
100
AcDbBlockEnd
  0
BLOCK
  5
61
330
60
100
AcDbEntity
  8
0
100
AcDbBlockBegin
  2
FXTIP_TRIANGLE_E
 70
     0
 71
     0
 10
0.0
 20
0.0
 30
0.0
  3
FXTIP_TRIANGLE_E
  1

  0
LINE
  5
63
330
60
100
AcDbEntity
  8
0
  6
CONTINUOUS
 62
     0
100
AcDbLine
 10
0.0
 20
0.0
 30
0.0
 11
-1.0
 21
0.0
 31
0.0
  0
LINE
  5
64
330
60
100
AcDbEntity
  8
0
  6
CONTINUOUS
 62
     0
100
AcDbLine
 10
0.0
 20
0.0
 30
0.0
 11
-0.965926
 21
0.258819
 31
0.0
  0
LINE
  5
65
330
60
100
AcDbEntity
  8
0
  6
CONTINUOUS
 62
     0
100
AcDbLine
 10
0.0
 20
0.0
 30
0.0
 11
-0.965926
 21
-0.258819
 31
0.0
  0
LINE
  5
66
330
60
100
AcDbEntity
  8
0
  6
CONTINUOUS
 62
     0
100
AcDbLine
 10
-0.965926
 20
0.258819
 30
0.0
 11
-0.965926
 21
-0.258819
 31
0.0
  0
ENDBLK
  5
62
330
60
100
AcDbEntity
  8
0
100
AcDbBlockEnd
  0
BLOCK
  5
68
330
67
100
AcDbEntity
  8
0
100
AcDbBlockBegin
  2
FXTIP_ARCHITECT_S
 70
     0
 71
     0
 10
0.0
 20
0.0
 30
0.0
  3
FXTIP_ARCHITECT_S
  1

  0
LINE
  5
6A
330
67
100
AcDbEntity
  8
0
  6
CONTINUOUS
 62
     0
100
AcDbLine
 10
0.0
 20
0.0
 30
0.0
 11
-1.0
 21
0.0
 31
0.0
  0
LINE
  5
6B
330
67
100
AcDbEntity
  8
0
  6
CONTINUOUS
 62
     0
100
AcDbLine
 10
0.0
 20
0.0
 30
0.0
 11
-0.707107
 21
-0.707107
 31
0.0
  0
LINE
  5
6C
330
67
100
AcDbEntity
  8
0
  6
CONTINUOUS
 62
     0
100
AcDbLine
 10
0.0
 20
0.0
 30
0.0
 11
0.707107
 21
0.707107
 31
0.0
  0
ENDBLK
  5
69
330
67
100
AcDbEntity
  8
0
100
AcDbBlockEnd
  0
BLOCK
  5
6E
330
6D
100
AcDbEntity
  8
0
100
AcDbBlockBegin
  2
FXTIP_ARCHITECT_E
 70
     0
 71
     0
 10
0.0
 20
0.0
 30
0.0
  3
FXTIP_ARCHITECT_E
  1

  0
LINE
  5
70
330
6D
100
AcDbEntity
  8
0
  6
CONTINUOUS
 62
     0
100
AcDbLine
 10
0.0
 20
0.0
 30
0.0
 11
-1.0
 21
0.0
 31
0.0
  0
LINE
  5
71
330
6D
100
AcDbEntity
  8
0
  6
CONTINUOUS
 62
     0
100
AcDbLine
 10
0.0
 20
0.0
 30
0.0
 11
0.707107
 21
0.707107
 31
0.0
  0
LINE
  5
72
330
6D
100
AcDbEntity
  8
0
  6
CONTINUOUS
 62
     0
100
AcDbLine
 10
0.0
 20
0.0
 30
0.0
 11
-0.707107
 21
-0.707107
 31
0.0
  0
ENDBLK
  5
6F
330
6D
100
AcDbEntity
  8
0
100
AcDbBlockEnd
  0
BLOCK
  5
74
330
73
100
AcDbEntity
  8
0
100
AcDbBlockBegin
  2
FXTIP_CIVIL_S
 70
     0
 71
     0
 10
0.0
 20
0.0
 30
0.0
  3
FXTIP_CIVIL_S
  1

  0
LINE
  5
76
330
73
100
AcDbEntity
  8
0
  6
CONTINUOUS
 62
     0
100
AcDbLine
 10
0.0
 20
0.0
 30
0.0
 11
-1.0
 21
0.0
 31
0.0
  0
LINE
  5
77
330
73
100
AcDbEntity
  8
0
  6
CONTINUOUS
 62
     0
100
AcDbLine
 10
0.0
 20
-0.0625
 30
0.0
 11
-1.0
 21
-0.0625
 31
0.0
  0
LINE
  5
78
330
73
100
AcDbEntity
  8
0
  6
CONTINUOUS
 62
     0
100
AcDbLine
 10
0.0
 20
-0.125
 30
0.0
 11
-1.0
 21
-0.125
 31
0.0
  0
ENDBLK
  5
75
330
73
100
AcDbEntity
  8
0
100
AcDbBlockEnd
  0
BLOCK
  5
7A
330
79
100
AcDbEntity
  8
0
100
AcDbBlockBegin
  2
FXTIP_CIVIL_E
 70
     0
 71
     0
 10
0.0
 20
0.0
 30
0.0
  3
FXTIP_CIVIL_E
  1

  0
LINE
  5
7C
330
79
100
AcDbEntity
  8
0
  6
CONTINUOUS
 62
     0
100
AcDbLine
 10
0.0
 20
0.0
 30
0.0
 11
-1.0
 21
0.0
 31
0.0
  0
LINE
  5
7D
330
79
100
AcDbEntity
  8
0
  6
CONTINUOUS
 62
     0
100
AcDbLine
 10
0.0
 20
0.0625
 30
0.0
 11
-1.0
 21
0.0625
 31
0.0
  0
LINE
  5
7E
330
79
100
AcDbEntity
  8
0
  6
CONTINUOUS
 62
     0
100
AcDbLine
 10
0.0
 20
0.125
 30
0.0
 11
-1.0
 21
0.125
 31
0.0
  0
ENDBLK
  5
7B
330
79
100
AcDbEntity
  8
0
100
AcDbBlockEnd
  0
BLOCK
  5
80
330
7F
100
AcDbEntity
  8
0
100
AcDbBlockBegin
  2
FXTIP_WHITEDOT_S
 70
     0
 71
     0
 10
0.0
 20
0.0
 30
0.0
  3
FXTIP_WHITEDOT_S
  1

  0
LINE
  5
82
330
7F
100
AcDbEntity
  8
0
  6
CONTINUOUS
 62
     0
100
AcDbLine
 10
0.0
 20
0.0
 30
0.0
 11
-1.0
 21
0.0
 31
0.0
  0
CIRCLE
  5
83
330
7F
100
AcDbEntity
  8
0
  6
CONTINUOUS
 62
     0
100
AcDbCircle
 10
0.0
 20
0.0
 30
0.0
 40
0.5
  0
ENDBLK
  5
81
330
7F
100
AcDbEntity
  8
0
100
AcDbBlockEnd
  0
BLOCK
  5
85
330
84
100
AcDbEntity
  8
0
100
AcDbBlockBegin
  2
FXTIP_WHITEDOT_E
 70
     0
 71
     0
 10
0.0
 20
0.0
 30
0.0
  3
FXTIP_WHITEDOT_E
  1

  0
LINE
  5
87
330
84
100
AcDbEntity
  8
0
  6
CONTINUOUS
 62
     0
100
AcDbLine
 10
0.0
 20
0.0
 30
0.0
 11
-1.0
 21
0.0
 31
0.0
  0
CIRCLE
  5
88
330
84
100
AcDbEntity
  8
0
  6
CONTINUOUS
 62
     0
100
AcDbCircle
 10
0.0
 20
0.0
 30
0.0
 40
0.5
  0
ENDBLK
  5
86
330
84
100
AcDbEntity
  8
0
100
AcDbBlockEnd
  0
BLOCK
  5
8A
330
89
100
AcDbEntity
  8
0
100
AcDbBlockBegin
  2
FXTIP_UPARROW_S
 70
     0
 71
     0
 10
0.0
 20
0.0
 30
0.0
  3
FXTIP_UPARROW_S
  1

  0
LINE
  5
8C
330
89
100
AcDbEntity
  8
0
  6
CONTINUOUS
 62
     0
100
AcDbLine
 10
0.0
 20
0.0
 30
0.0
 11
-1.0
 21
0.0
 31
0.0
  0
LINE
  5
8D
330
89
100
AcDbEntity
  8
0
  6
CONTINUOUS
 62
     0
100
AcDbLine
 10
0.0
 20
0.0
 30
0.0
 11
-0.965926
 21
-0.258819
 31
0.0
  0
ENDBLK
  5
8B
330
89
100
AcDbEntity
  8
0
100
AcDbBlockEnd
  0
BLOCK
  5
8F
330
8E
100
AcDbEntity
  8
0
100
AcDbBlockBegin
  2
FXTIP_UPARROW_E
 70
     0
 71
     0
 10
0.0
 20
0.0
 30
0.0
  3
FXTIP_UPARROW_E
  1

  0
LINE
  5
91
330
8E
100
AcDbEntity
  8
0
  6
CONTINUOUS
 62
     0
100
AcDbLine
 10
0.0
 20
0.0
 30
0.0
 11
-1.0
 21
0.0
 31
0.0
  0
LINE
  5
92
330
8E
100
AcDbEntity
  8
0
  6
CONTINUOUS
 62
     0
100
AcDbLine
 10
0.0
 20
0.0
 30
0.0
 11
-0.965926
 21
0.258819
 31
0.0
  0
ENDBLK
  5
90
330
8E
100
AcDbEntity
  8
0
100
AcDbBlockEnd
  0
BLOCK
  5
94
330
93
100
AcDbEntity
  8
0
100
AcDbBlockBegin
  2
FXTIP_DOWNARROW_S
 70
     0
 71
     0
 10
0.0
 20
0.0
 30
0.0
  3
FXTIP_DOWNARROW_S
  1

  0
LINE
  5
96
330
93
100
AcDbEntity
  8
0
  6
CONTINUOUS
 62
     0
100
AcDbLine
 10
0.0
 20
0.0
 30
0.0
 11
-1.0
 21
0.0
 31
0.0
  0
LINE
  5
97
330
93
100
AcDbEntity
  8
0
  6
CONTINUOUS
 62
     0
100
AcDbLine
 10
0.0
 20
0.0
 30
0.0
 11
-0.965926
 21
0.258819
 31
0.0
  0
ENDBLK
  5
95
330
93
100
AcDbEntity
  8
0
100
AcDbBlockEnd
  0
BLOCK
  5
99
330
98
100
AcDbEntity
  8
0
100
AcDbBlockBegin
  2
FXTIP_DOWNARROW_E
 70
     0
 71
     0
 10
0.0
 20
0.0
 30
0.0
  3
FXTIP_DOWNARROW_E
  1

  0
LINE
  5
9B
330
98
100
AcDbEntity
  8
0
  6
CONTINUOUS
 62
     0
100
AcDbLine
 10
0.0
 20
0.0
 30
0.0
 11
-1.0
 21
0.0
 31
0.0
  0
LINE
  5
9C
330
98
100
AcDbEntity
  8
0
  6
CONTINUOUS
 62
     0
100
AcDbLine
 10
0.0
 20
0.0
 30
0.0
 11
-0.965926
 21
-0.258819
 31
0.0
  0
ENDBLK
  5
9A
330
98
100
AcDbEntity
  8
0
100
AcDbBlockEnd
  0
BLOCK
  5
9E
330
9D
100
AcDbEntity
  8
0
100
AcDbBlockBegin
  2
FXTIP_BLACKTRIANGLE_S
 70
     0
 71
     0
 10
0.0
 20
0.0
 30
0.0
  3
FXTIP_BLACKTRIANGLE_S
  1

  0
LINE
  5
A0
330
9D
100
AcDbEntity
  8
0
  6
CONTINUOUS
 62
     0
100
AcDbLine
 10
0.0
 20
0.0
 30
0.0
 11
-1.0
 21
0.0
 31
0.0
  0
SOLID
  5
A1
330
9D
100
AcDbEntity
  8
0
  6
CONTINUOUS
 62
     0
100
AcDbTrace
 10
0.0
 20
0.0
 30
0.0
 11
-0.965926
 21
-0.258819
 31
0.0
 12
-0.965926
 22
0.258819
 32
0.0
 13
-0.965926
 23
0.258819
 33
0.0
  0
ENDBLK
  5
9F
330
9D
100
AcDbEntity
  8
0
100
AcDbBlockEnd
  0
BLOCK
  5
A3
330
A2
100
AcDbEntity
  8
0
100
AcDbBlockBegin
  2
FXTIP_BLACKTRIANGLE_E
 70
     0
 71
     0
 10
0.0
 20
0.0
 30
0.0
  3
FXTIP_BLACKTRIANGLE_E
  1

  0
LINE
  5
A5
330
A2
100
AcDbEntity
  8
0
  6
CONTINUOUS
 62
     0
100
AcDbLine
 10
0.0
 20
0.0
 30
0.0
 11
-1.0
 21
0.0
 31
0.0
  0
SOLID
  5
A6
330
A2
100
AcDbEntity
  8
0
  6
CONTINUOUS
 62
     0
100
AcDbTrace
 10
0.0
 20
0.0
 30
0.0
 11
-0.965926
 21
0.258819
 31
0.0
 12
-0.965926
 22
-0.258819
 32
0.0
 13
-0.965926
 23
-0.258819
 33
0.0
  0
ENDBLK
  5
A4
330
A2
100
AcDbEntity
  8
0
100
AcDbBlockEnd
  0
ENDSEC
  0
SECTION
  2
ENTITIES
  0
TEXT
  5
A8
330
1F
100
AcDbEntity
  8
}}ﾊﾊGG血CCТ
  6
CONTINUOUS
 62
     7
100
AcDbText
 10
329.499084
 20
11.988331
 30
0.0
 40
6.0
  1
ＷＪ－１３０　ＲＢ　ＷＳＲ
 41
0.787879
  7
FX_VECTOR
 72
     5
 11
381.499084
 21
11.988331
 31
0.0
100
AcDbText
  0
LINE
  5
AA
330
1F
100
AcDbEntity
  8
GR1-1
  6
CONTINUOUS
 62
     3
100
AcDbLine
 10
195.332246
 20
121.891806
 30
0.0
 11
198.332246
 21
121.891806
 31
0.0
  0
LINE
  5
AB
330
1F
100
AcDbEntity
  8
GR1-1
  6
CONTINUOUS
 62
     3
100
AcDbLine
 10
198.332246
 20
121.891806
 30
0.0
 11
199.832246
 21
118.891806
 31
0.0
  0
LINE
  5
AC
330
1F
100
AcDbEntity
  8
GR1-1
  6
CONTINUOUS
 62
     3
100
AcDbLine
 10
199.832246
 20
118.891806
 30
0.0
 11
199.832246
 21
98.891806
 31
0.0
  0
LINE
  5
AD
330
1F
100
AcDbEntity
  8
GR1-1
  6
CONTINUOUS
 62
     3
100
AcDbLine
 10
199.832246
 20
98.891806
 30
0.0
 11
198.332246
 21
95.891806
 31
0.0
  0
LINE
  5
AE
330
1F
100
AcDbEntity
  8
GR1-1
  6
CONTINUOUS
 62
     3
100
AcDbLine
 10
198.332246
 20
95.891806
 30
0.0
 11
195.332246
 21
95.891806
 31
0.0
  0
LINE
  5
AF
330
1F
100
AcDbEntity
  8
GR1-1
  6
CONTINUOUS
 62
     3
100
AcDbLine
 10
192.132246
 20
185.393615
 30
0.0
 11
180.882246
 21
185.393615
 31
0.0
  0
LINE
  5
B0
330
1F
100
AcDbEntity
  8
GR1-1
  6
CONTINUOUS
 62
     3
100
AcDbLine
 10
180.882246
 20
185.543615
 30
0.0
 11
180.882246
 21
165.388806
 31
0.0
  0
LINE
  5
B1
330
1F
100
AcDbEntity
  8
GR1-1
  6
CONTINUOUS
 62
     3
100
AcDbLine
 10
180.882246
 20
176.543615
 30
0.0
 11
181.132246
 21
176.543615
 31
0.0
  0
LINE
  5
B2
330
1F
100
AcDbEntity
  8
GR1-1
  6
CONTINUOUS
 62
     3
100
AcDbLine
 10
181.132246
 20
176.543615
 30
0.0
 11
181.632246
 21
174.293615
 31
0.0
  0
LINE
  5
B3
330
1F
100
AcDbEntity
  8
GR1-1
  6
CONTINUOUS
 62
     3
100
AcDbLine
 10
181.632246
 20
174.293615
 30
0.0
 11
192.132246
 21
174.293615
 31
0.0
  0
LINE
  5
B4
330
1F
100
AcDbEntity
  8
GR1-1
  6
CONTINUOUS
 62
     3
100
AcDbLine
 10
195.332246
 20
176.620112
 30
0.0
 11
198.596989
 21
176.620112
 31
0.0
  0
ARC
  5
B5
330
1F
100
AcDbEntity
  8
GR1-1
  6
CONTINUOUS
 62
     3
100
AcDbCircle
 10
197.547879
 20
178.063488
 30
0.0
 40
1.784366509561449
100
AcDbArc
 50
-53.988685
 51
53.988685
  0
ARC
  5
B6
330
1F
100
AcDbEntity
  8
GR1-1
  6
CONTINUOUS
 62
     3
100
AcDbCircle
 10
193.297665
 20
182.393615
 30
0.0
 40
6.0345803552766
100
AcDbArc
 50
-28.578881
 51
28.578881
  0
ARC
  5
B7
330
1F
100
AcDbEntity
  8
GR1-1
  6
CONTINUOUS
 62
     3
100
AcDbCircle
 10
197.547879
 20
186.723742
 30
0.0
 40
1.784366509561449
100
AcDbArc
 50
-53.988685
 51
53.988685
  0
LINE
  5
B8
330
1F
100
AcDbEntity
  8
GR1-1
  6
CONTINUOUS
 62
     3
100
AcDbLine
 10
195.332246
 20
88.863615
 30
0.0
 11
192.132246
 21
88.863615
 31
0.0
  0
LINE
  5
B9
330
1F
100
AcDbEntity
  8
GR1-1
  6
CONTINUOUS
 62
     3
100
AcDbLine
 10
130.882246
 20
137.912697
 30
0.0
 11
130.882246
 21
177.874357
 31
0.0
  0
LINE
  5
BA
330
1F
100
AcDbEntity
  8
GR1-1
  6
CONTINUOUS
 62
     3
100
AcDbLine
 10
130.832246
 20
178.143615
 30
0.0
 11
130.832246
 21
186.643615
 31
0.0
  0
LINE
  5
BB
330
1F
100
AcDbEntity
  8
GR1-1
  6
CONTINUOUS
 62
     3
100
AcDbLine
 10
130.882246
 20
186.912873
 30
0.0
 11
130.882246
 21
194.563615
 31
0.0
  0
LINE
  5
BC
330
1F
100
AcDbEntity
  8
GR1-1
  6
CONTINUOUS
 62
     3
100
AcDbLine
 10
135.932246
 20
192.463615
 30
0.0
 11
135.932246
 21
88.863615
 31
0.0
  0
LINE
  5
BD
330
1F
100
AcDbEntity
  8
GR1-1
  6
CONTINUOUS
 62
     3
100
AcDbLine
 10
135.932246
 20
88.863615
 30
0.0
 11
139.132246
 21
88.863615
 31
0.0
  0
LINE
  5
BE
330
1F
100
AcDbEntity
  8
GR1-1
  6
CONTINUOUS
 62
     3
100
AcDbLine
 10
139.132246
 20
88.863615
 30
0.0
 11
139.132246
 21
188.022125
 31
0.0
  0
ARC
  5
BF
330
1F
100
AcDbEntity
  8
GR1-1
  6
CONTINUOUS
 62
     3
100
AcDbCircle
 10
152.899617
 20
352.82442
 30
0.0
 40
165.3763488064616
100
AcDbArc
 50
264.668176
 51
269.214429
  0
ARC
  5
C0
330
1F
100
AcDbEntity
  8
GR1-1
  6
CONTINUOUS
 62
     3
100
AcDbCircle
 10
139.932246
 20
192.463615
 30
0.0
 40
4.0
100
AcDbArc
 50
90.0
 51
180.0
  0
LINE
  5
C1
330
1F
100
AcDbEntity
  8
GR1-1
  6
CONTINUOUS
 62
     3
100
AcDbLine
 10
135.485664
 20
188.167117
 30
0.0
 11
135.932246
 21
187.393615
 31
0.0
  0
LINE
  5
C2
330
1F
100
AcDbEntity
  8
GR1-1
  6
CONTINUOUS
 62
     3
100
AcDbLine
 10
135.485664
 20
188.167116
 30
0.0
 11
132.778828
 21
188.167117
 31
0.0
  0
ARC
  5
C3
330
1F
100
AcDbEntity
  8
GR1-1
  6
CONTINUOUS
 62
     3
100
AcDbCircle
 10
134.888069
 20
186.723742
 30
0.0
 40
2.555822748422663
100
AcDbArc
 50
145.615753
 51
214.384247
  0
LINE
  5
C4
330
1F
100
AcDbEntity
  8
GR1-1
  6
CONTINUOUS
 62
     3
100
AcDbLine
 10
132.778828
 20
185.280366
 30
0.0
 11
135.485664
 21
185.280366
 31
0.0
  0
ARC
  5
C5
330
1F
100
AcDbEntity
  8
GR1-1
  6
CONTINUOUS
 62
     3
100
AcDbCircle
 10
133.376423
 20
186.723742
 30
0.0
 40
2.555822748422663
100
AcDbArc
 50
-34.384247
 51
34.384247
  0
LINE
  5
C6
330
1F
100
AcDbEntity
  8
GR1-1
  6
CONTINUOUS
 62
     3
100
AcDbLine
 10
132.778827
 20
188.167116
 30
0.0
 11
132.332246
 21
187.393615
 31
0.0
  0
LINE
  5
C7
330
1F
100
AcDbEntity
  8
GR1-1
  6
CONTINUOUS
 62
     3
100
AcDbLine
 10
132.332246
 20
187.393615
 30
0.0
 11
131.582246
 21
187.393615
 31
0.0
  0
ARC
  5
C8
330
1F
100
AcDbEntity
  8
GR1-1
  6
CONTINUOUS
 62
     3
100
AcDbCircle
 10
131.582246
 20
186.643615
 30
0.0
 40
0.75
100
AcDbArc
 50
90.0
 51
180.0
  0
LINE
  5
C9
330
1F
100
AcDbEntity
  8
GR1-1
  6
CONTINUOUS
 62
     3
100
AcDbLine
 10
130.832246
 20
185.393615
 30
0.0
 11
130.332246
 21
184.852115
 31
0.0
  0
LINE
  5
CA
330
1F
100
AcDbEntity
  8
GR1-1
  6
CONTINUOUS
 62
     3
100
AcDbLine
 10
130.332246
 20
184.852115
 30
0.0
 11
130.332246
 21
179.935115
 31
0.0
  0
LINE
  5
CB
330
1F
100
AcDbEntity
  8
GR1-1
  6
CONTINUOUS
 62
     3
100
AcDbLine
 10
130.332246
 20
179.935115
 30
0.0
 11
130.832246
 21
179.393615
 31
0.0
  0
ARC
  5
CC
330
1F
100
AcDbEntity
  8
GR1-1
  6
CONTINUOUS
 62
     3
100
AcDbCircle
 10
131.582246
 20
178.143615
 30
0.0
 40
0.75
100
AcDbArc
 50
180.0
 51
270.0
  0
LINE
  5
CD
330
1F
100
AcDbEntity
  8
GR1-1
  6
CONTINUOUS
 62
     3
100
AcDbLine
 10
131.582246
 20
177.393615
 30
0.0
 11
132.332246
 21
177.393615
 31
0.0
  0
LINE
  5
CE
330
1F
100
AcDbEntity
  8
GR1-1
  6
CONTINUOUS
 62
     3
100
AcDbLine
 10
132.332246
 20
177.393615
 30
0.0
 11
132.778828
 21
176.620112
 31
0.0
  0
LINE
  5
CF
330
1F
100
AcDbEntity
  8
GR1-1
  6
CONTINUOUS
 62
     3
100
AcDbLine
 10
132.778828
 20
176.620112
 30
0.0
 11
135.485664
 21
176.620112
 31
0.0
  0
ARC
  5
D0
330
1F
100
AcDbEntity
  8
GR1-1
  6
CONTINUOUS
 62
     3
100
AcDbCircle
 10
133.376423
 20
178.063488
 30
0.0
 40
2.555822748422663
100
AcDbArc
 50
-34.384247
 51
34.384247
  0
LINE
  5
D1
330
1F
100
AcDbEntity
  8
GR1-1
  6
CONTINUOUS
 62
     3
100
AcDbLine
 10
135.485664
 20
179.506863
 30
0.0
 11
132.778828
 21
179.506863
 31
0.0
  0
ARC
  5
D2
330
1F
100
AcDbEntity
  8
GR1-1
  6
CONTINUOUS
 62
     3
100
AcDbCircle
 10
134.888069
 20
178.063488
 30
0.0
 40
2.555822748422663
100
AcDbArc
 50
145.615753
 51
214.384247
  0
LINE
  5
D3
330
1F
100
AcDbEntity
  8
GR1-1
  6
CONTINUOUS
 62
     3
100
AcDbLine
 10
130.435664
 20
176.406863
 30
0.0
 11
127.728828
 21
176.406863
 31
0.0
  0
ARC
  5
D4
330
1F
100
AcDbEntity
  8
GR1-1
  6
CONTINUOUS
 62
     3
100
AcDbCircle
 10
129.838069
 20
174.963488
 30
0.0
 40
2.555822748422663
100
AcDbArc
 50
145.615753
 51
214.384247
  0
LINE
  5
D5
330
1F
100
AcDbEntity
  8
GR1-1
  6
CONTINUOUS
 62
     3
100
AcDbLine
 10
127.728828
 20
173.520112
 30
0.0
 11
127.282246
 21
174.293615
 31
0.0
  0
LINE
  5
D6
330
1F
100
AcDbEntity
  8
GR1-1
  6
CONTINUOUS
 62
     3
100
AcDbLine
 10
127.282246
 20
174.293615
 30
0.0
 11
126.532246
 21
174.293615
 31
0.0
  0
LINE
  5
D7
330
1F
100
AcDbEntity
  8
GR1-1
  6
CONTINUOUS
 62
     3
100
AcDbLine
 10
125.782246
 20
175.043615
 30
0.0
 11
125.782246
 21
183.543615
 31
0.0
  0
LINE
  5
D8
330
1F
100
AcDbEntity
  8
GR1-1
  6
CONTINUOUS
 62
     3
100
AcDbLine
 10
126.532246
 20
184.293615
 30
0.0
 11
127.282246
 21
184.293615
 31
0.0
  0
LINE
  5
D9
330
1F
100
AcDbEntity
  8
GR1-1
  6
CONTINUOUS
 62
     3
100
AcDbLine
 10
127.282246
 20
184.293615
 30
0.0
 11
127.728827
 21
185.067116
 31
0.0
  0
LINE
  5
DA
330
1F
100
AcDbEntity
  8
GR1-1
  6
CONTINUOUS
 62
     3
100
AcDbLine
 10
127.728828
 20
185.067117
 30
0.0
 11
130.435664
 21
185.067116
 31
0.0
  0
LINE
  5
DB
330
1F
100
AcDbEntity
  8
GR1-1
  6
CONTINUOUS
 62
     3
100
AcDbLine
 10
130.435664
 20
185.067117
 30
0.0
 11
130.471555
 21
185.004952
 31
0.0
  0
ARC
  5
DC
330
1F
100
AcDbEntity
  8
GR1-1
  6
CONTINUOUS
 62
     3
100
AcDbCircle
 10
128.326423
 20
183.623742
 30
0.0
 40
2.555822748422663
100
AcDbArc
 50
32.771854
 51
34.384247
  0
ARC
  5
DD
330
1F
100
AcDbEntity
  8
GR1-1
  6
CONTINUOUS
 62
     3
100
AcDbCircle
 10
141.885664
 20
182.393615
 30
0.0
 40
9.553418012614543
100
AcDbArc
 50
162.412046
 51
197.587954
  0
ARC
  5
DE
330
1F
100
AcDbEntity
  8
GR1-1
  6
CONTINUOUS
 62
     3
100
AcDbCircle
 10
126.378828
 20
182.393615
 30
0.0
 40
9.553418012614543
100
AcDbArc
 50
-17.587954
 51
17.587954
  0
LINE
  5
DF
330
1F
100
AcDbEntity
  8
GR1-1
  6
CONTINUOUS
 62
     3
100
AcDbLine
 10
139.132246
 20
185.393615
 30
0.0
 11
150.382246
 21
185.393615
 31
0.0
  0
LINE
  5
E0
330
1F
100
AcDbEntity
  8
GR1-1
  6
CONTINUOUS
 62
     3
100
AcDbLine
 10
150.382246
 20
185.543615
 30
0.0
 11
150.382246
 21
165.388806
 31
0.0
  0
LINE
  5
E1
330
1F
100
AcDbEntity
  8
GR1-1
  6
CONTINUOUS
 62
     3
100
AcDbLine
 10
148.632246
 20
174.293615
 30
0.0
 11
139.132246
 21
174.293615
 31
0.0
  0
LINE
  5
E2
330
1F
100
AcDbEntity
  8
GR1-1
  6
CONTINUOUS
 62
     3
100
AcDbLine
 10
135.485664
 20
176.620112
 30
0.0
 11
135.932246
 21
177.393615
 31
0.0
  0
ARC
  5
E3
330
1F
100
AcDbEntity
  8
GR1-1
  6
CONTINUOUS
 62
     3
100
AcDbCircle
 10
121.328828
 20
179.293615
 30
0.0
 40
9.553418012614543
100
AcDbArc
 50
342.412046
 51
354.135475
  0
LINE
  5
E4
330
1F
100
AcDbEntity
  8
GR1-1
  6
CONTINUOUS
 62
     3
100
AcDbLine
 10
130.332246
 20
182.180366
 30
0.0
 11
127.728828
 21
182.180366
 31
0.0
  0
ARC
  5
E5
330
1F
100
AcDbEntity
  8
GR1-1
  6
CONTINUOUS
 62
     3
100
AcDbCircle
 10
136.835664
 20
179.293615
 30
0.0
 40
9.553418012614543
100
AcDbArc
 50
162.412046
 51
197.587954
  0
LINE
  5
E6
330
1F
100
AcDbEntity
  8
GR1-1
  6
CONTINUOUS
 62
     3
100
AcDbLine
 10
125.782246
 20
176.293615
 30
0.0
 11
124.132246
 21
176.293615
 31
0.0
  0
LINE
  5
E7
330
1F
100
AcDbEntity
  8
GR1-1
  6
CONTINUOUS
 62
     3
100
AcDbLine
 10
124.132246
 20
176.293615
 30
0.0
 11
123.632246
 21
176.835115
 31
0.0
  0
LINE
  5
E8
330
1F
100
AcDbEntity
  8
GR1-1
  6
CONTINUOUS
 62
     3
100
AcDbLine
 10
123.632246
 20
176.835115
 30
0.0
 11
123.632246
 21
181.752115
 31
0.0
  0
LINE
  5
E9
330
1F
100
AcDbEntity
  8
GR1-1
  6
CONTINUOUS
 62
     3
100
AcDbLine
 10
123.632246
 20
181.752115
 30
0.0
 11
124.132246
 21
182.293615
 31
0.0
  0
LINE
  5
EA
330
1F
100
AcDbEntity
  8
GR1-1
  6
CONTINUOUS
 62
     3
100
AcDbLine
 10
124.132246
 20
182.293615
 30
0.0
 11
125.782246
 21
182.293615
 31
0.0
  0
ARC
  5
EB
330
1F
100
AcDbEntity
  8
GR1-1
  6
CONTINUOUS
 62
     3
100
AcDbCircle
 10
126.532246
 20
183.543615
 30
0.0
 40
0.75
100
AcDbArc
 50
90.0
 51
180.0
  0
ARC
  5
EC
330
1F
100
AcDbEntity
  8
GR1-1
  6
CONTINUOUS
 62
     3
100
AcDbCircle
 10
129.838069
 20
183.623742
 30
0.0
 40
2.555822748422663
100
AcDbArc
 50
145.615753
 51
214.384247
  0
ARC
  5
ED
330
1F
100
AcDbEntity
  8
GR1-1
  6
CONTINUOUS
 62
     3
100
AcDbCircle
 10
126.532246
 20
175.043615
 30
0.0
 40
0.75
100
AcDbArc
 50
180.0
 51
270.0
  0
LINE
  5
EE
330
1F
100
AcDbEntity
  8
GR1-1
  6
CONTINUOUS
 62
     3
100
AcDbLine
 10
127.728828
 20
173.520112
 30
0.0
 11
130.435664
 21
173.520112
 31
0.0
  0
ARC
  5
EF
330
1F
100
AcDbEntity
  8
GR1-1
  6
CONTINUOUS
 62
     3
100
AcDbCircle
 10
128.326423
 20
174.963488
 30
0.0
 40
2.555822748422663
100
AcDbArc
 50
-34.384247
 51
34.384247
  0
LINE
  5
F0
330
1F
100
AcDbEntity
  8
GR1-1
  6
CONTINUOUS
 62
     3
100
AcDbLine
 10
130.882246
 20
174.293615
 30
0.0
 11
130.435664
 21
173.520112
 31
0.0
  0
LINE
  5
F1
330
1F
100
AcDbEntity
  8
GR1-1
  6
CONTINUOUS
 62
     3
100
AcDbLine
 10
139.132246
 20
184.293615
 30
0.0
 11
148.632246
 21
184.293615
 31
0.0
  0
LINE
  5
F2
330
1F
100
AcDbEntity
  8
GR1-1
  6
CONTINUOUS
 62
     3
100
AcDbLine
 10
148.632246
 20
184.293615
 30
0.0
 11
150.132246
 21
182.043615
 31
0.0
  0
LINE
  5
F3
330
1F
100
AcDbEntity
  8
GR1-1
  6
CONTINUOUS
 62
     3
100
AcDbLine
 10
150.132246
 20
182.043615
 30
0.0
 11
150.382246
 21
182.043615
 31
0.0
  0
LINE
  5
F4
330
1F
100
AcDbEntity
  8
GR1-1
  6
CONTINUOUS
 62
     3
100
AcDbLine
 10
149.632246
 20
185.393615
 30
0.0
 11
149.632246
 21
185.543615
 31
0.0
  0
LINE
  5
F5
330
1F
100
AcDbEntity
  8
GR1-1
  6
CONTINUOUS
 62
     3
100
AcDbLine
 10
149.632246
 20
185.543615
 30
0.0
 11
150.382246
 21
185.543615
 31
0.0
  0
LINE
  5
F6
330
1F
100
AcDbEntity
  8
GR1-1
  6
CONTINUOUS
 62
     3
100
AcDbLine
 10
150.132246
 20
186.543615
 30
0.0
 11
181.132246
 21
186.543615
 31
0.0
  0
LINE
  5
F7
330
1F
100
AcDbEntity
  8
GR1-1
  6
CONTINUOUS
 62
     3
100
AcDbLine
 10
180.882246
 20
185.543615
 30
0.0
 11
181.632246
 21
185.543615
 31
0.0
  0
LINE
  5
F8
330
1F
100
AcDbEntity
  8
GR1-1
  6
CONTINUOUS
 62
     3
100
AcDbLine
 10
181.632246
 20
185.543615
 30
0.0
 11
181.632246
 21
185.393615
 31
0.0
  0
ARC
  5
F9
330
1F
100
AcDbEntity
  8
GR1-1
  6
CONTINUOUS
 62
     3
100
AcDbCircle
 10
181.132246
 20
185.043615
 30
0.0
 40
1.5
100
AcDbArc
 50
13.493399
 51
90.0
  0
LINE
  5
FA
330
1F
100
AcDbEntity
  8
GR1-1
  6
CONTINUOUS
 62
     3
100
AcDbLine
 10
181.632246
 20
184.293615
 30
0.0
 11
192.132246
 21
184.293615
 31
0.0
  0
LINE
  5
FB
330
1F
100
AcDbEntity
  8
GR1-1
  6
CONTINUOUS
 62
     3
100
AcDbLine
 10
195.332246
 20
185.280366
 30
0.0
 11
198.596989
 21
185.280366
 31
0.0
  0
LINE
  5
FC
330
1F
100
AcDbEntity
  8
GR1-1
  6
CONTINUOUS
 62
     3
100
AcDbLine
 10
200.382246
 20
184.293615
 30
0.0
 11
223.132246
 21
184.293615
 31
0.0
  0
LINE
  5
FD
330
1F
100
AcDbEntity
  8
GR1-1
  6
CONTINUOUS
 62
     3
100
AcDbLine
 10
228.127487
 20
179.511712
 30
0.0
 11
228.529958
 21
170.293615
 31
0.0
  0
LINE
  5
FE
330
1F
100
AcDbEntity
  8
GR1-1
  6
CONTINUOUS
 62
     3
100
AcDbLine
 10
228.529958
 20
170.293615
 30
0.0
 11
239.132246
 21
170.293615
 31
0.0
  0
LINE
  5
FF
330
1F
100
AcDbEntity
  8
GR1-1
  6
CONTINUOUS
 62
     3
100
AcDbLine
 10
239.132246
 20
170.293615
 30
0.0
 11
239.632246
 21
168.793615
 31
0.0
  0
LINE
  5
100
330
1F
100
AcDbEntity
  8
GR1-1
  6
CONTINUOUS
 62
     3
100
AcDbLine
 10
239.632246
 20
168.793615
 30
0.0
 11
263.132246
 21
168.793615
 31
0.0
  0
LINE
  5
101
330
1F
100
AcDbEntity
  8
GR1-1
  6
CONTINUOUS
 62
     3
100
AcDbLine
 10
263.132246
 20
161.793615
 30
0.0
 11
239.632246
 21
161.793615
 31
0.0
  0
LINE
  5
102
330
1F
100
AcDbEntity
  8
GR1-1
  6
CONTINUOUS
 62
     3
100
AcDbLine
 10
239.632246
 20
161.793615
 30
0.0
 11
239.132246
 21
160.293615
 31
0.0
  0
LINE
  5
103
330
1F
100
AcDbEntity
  8
GR1-1
  6
CONTINUOUS
 62
     3
100
AcDbLine
 10
239.132246
 20
160.293615
 30
0.0
 11
223.743499
 21
160.293615
 31
0.0
  0
LINE
  5
104
330
1F
100
AcDbEntity
  8
GR1-1
  6
CONTINUOUS
 62
     3
100
AcDbLine
 10
218.748258
 20
165.075518
 30
0.0
 11
218.387544
 21
173.337234
 31
0.0
  0
ARC
  5
105
330
1F
100
AcDbEntity
  8
GR1-1
  6
CONTINUOUS
 62
     3
100
AcDbCircle
 10
217.388495
 20
173.293615
 30
0.0
 40
1.0
100
AcDbArc
 50
2.5
 51
90.0
  0
LINE
  5
106
330
1F
100
AcDbEntity
  8
GR1-1
  6
CONTINUOUS
 62
     3
100
AcDbLine
 10
217.388495
 20
174.293615
 30
0.0
 11
200.382246
 21
174.293615
 31
0.0
  0
LINE
  5
107
330
1F
100
AcDbEntity
  8
GR1-1
  6
CONTINUOUS
 62
     3
100
AcDbLine
 10
198.596989
 20
179.506863
 30
0.0
 11
195.332246
 21
179.506863
 31
0.0
  0
ARC
  5
108
330
1F
100
AcDbEntity
  8
GR1-1
  6
CONTINUOUS
 62
     3
100
AcDbCircle
 10
116.362296
 20
147.492397
 30
0.0
 40
84.56431096900946
100
AcDbArc
 50
344.979298
 51
353.495398
  0
ARC
  5
109
330
1F
100
AcDbEntity
  8
GR1-1
  6
CONTINUOUS
 62
     3
100
AcDbCircle
 10
290.736743
 20
100.166596
 30
0.0
 40
96.11887608963927
100
AcDbArc
 50
164.671413
 51
166.936877
  0
ARC
  5
10A
330
1F
100
AcDbEntity
  8
GR1-1
  6
CONTINUOUS
 62
     3
100
AcDbCircle
 10
223.743499
 20
165.293615
 30
0.0
 40
5.0
100
AcDbArc
 50
182.5
 51
270.0
  0
ARC
  5
10B
330
1F
100
AcDbEntity
  8
GR1-1
  6
CONTINUOUS
 62
     3
100
AcDbCircle
 10
223.132246
 20
179.293615
 30
0.0
 40
5.0
100
AcDbArc
 50
2.5
 51
90.0
  0
LINE
  5
10C
330
1F
100
AcDbEntity
  8
GR1-1
  6
CONTINUOUS
 62
     3
100
AcDbLine
 10
184.632246
 20
186.642401
 30
0.0
 11
183.460526
 21
185.393615
 31
0.0
  0
LINE
  5
10D
330
1F
100
AcDbEntity
  8
GR1-1
  6
CONTINUOUS
 62
     3
100
AcDbLine
 10
185.132246
 20
185.393615
 30
0.0
 11
185.132246
 21
186.142401
 31
0.0
  0
ARC
  5
10E
330
1F
100
AcDbEntity
  8
GR1-1
  6
CONTINUOUS
 62
     3
100
AcDbCircle
 10
184.632246
 20
186.142401
 30
0.0
 40
0.5
100
AcDbArc
 50
0.0
 51
90.0
  0
LINE
  5
10F
330
1F
100
AcDbEntity
  8
GR1-1
  6
CONTINUOUS
 62
     3
100
AcDbLine
 10
181.632246
 20
184.293615
 30
0.0
 11
181.132246
 21
182.043615
 31
0.0
  0
LINE
  5
110
330
1F
100
AcDbEntity
  8
GR1-1
  6
CONTINUOUS
 62
     3
100
AcDbLine
 10
181.132246
 20
182.043615
 30
0.0
 11
180.882246
 21
182.043615
 31
0.0
  0
ARC
  5
111
330
1F
100
AcDbEntity
  8
GR1-1
  6
CONTINUOUS
 62
     3
100
AcDbCircle
 10
137.382246
 20
194.563615
 30
0.0
 40
6.5
100
AcDbArc
 50
90.0
 51
180.0
  0
LINE
  5
112
330
1F
100
AcDbEntity
  8
GR1-1
  6
CONTINUOUS
 62
     3
100
AcDbLine
 10
146.132246
 20
186.142401
 30
0.0
 11
146.132246
 21
185.393615
 31
0.0
  0
LINE
  5
113
330
1F
100
AcDbEntity
  8
GR1-1
  6
CONTINUOUS
 62
     3
100
AcDbLine
 10
146.632246
 20
186.642401
 30
0.0
 11
147.803966
 21
185.393615
 31
0.0
  0
ARC
  5
114
330
1F
100
AcDbEntity
  8
GR1-1
  6
CONTINUOUS
 62
     3
100
AcDbCircle
 10
146.632246
 20
186.142401
 30
0.0
 40
0.5
100
AcDbArc
 50
90.0
 51
180.0
  0
ARC
  5
115
330
1F
100
AcDbEntity
  8
GR1-1
  6
CONTINUOUS
 62
     3
100
AcDbCircle
 10
150.132246
 20
185.043615
 30
0.0
 40
1.5
100
AcDbArc
 50
90.0
 51
166.506601
  0
LINE
  5
116
330
1F
100
AcDbEntity
  8
GR1-1
  6
CONTINUOUS
 62
     3
100
AcDbLine
 10
150.132246
 20
176.543615
 30
0.0
 11
148.632246
 21
174.293615
 31
0.0
  0
LINE
  5
117
330
1F
100
AcDbEntity
  8
GR1-1
  6
CONTINUOUS
 62
     3
100
AcDbLine
 10
150.132246
 20
176.543615
 30
0.0
 11
150.382246
 21
176.543615
 31
0.0
  0
ARC
  5
118
330
1F
100
AcDbEntity
  8
GR1-1
  6
CONTINUOUS
 62
     3
100
AcDbCircle
 10
214.902196
 20
147.492397
 30
0.0
 40
84.56431096900946
100
AcDbArc
 50
186.504602
 51
195.020702
  0
LINE
  5
119
330
1F
100
AcDbEntity
  8
GR1-1
  6
CONTINUOUS
 62
     3
100
AcDbLine
 10
131.449765
 20
121.595321
 30
0.0
 11
125.414726
 21
121.595321
 31
0.0
  0
LINE
  5
11A
330
1F
100
AcDbEntity
  8
GR1-1
  6
CONTINUOUS
 62
     3
100
AcDbLine
 10
125.414726
 20
121.595321
 30
0.0
 11
124.432246
 21
119.893615
 31
0.0
  0
LINE
  5
11B
330
1F
100
AcDbEntity
  8
GR1-1
  6
CONTINUOUS
 62
     3
100
AcDbLine
 10
124.432246
 20
119.893615
 30
0.0
 11
124.432246
 21
97.893615
 31
0.0
  0
LINE
  5
11C
330
1F
100
AcDbEntity
  8
GR1-1
  6
CONTINUOUS
 62
     3
100
AcDbLine
 10
124.432246
 20
97.893615
 30
0.0
 11
125.414726
 21
96.191909
 31
0.0
  0
LINE
  5
11D
330
1F
100
AcDbEntity
  8
GR1-1
  6
CONTINUOUS
 62
     3
100
AcDbLine
 10
125.414726
 20
96.191909
 30
0.0
 11
131.449765
 21
96.191909
 31
0.0
  0
LINE
  5
11E
330
1F
100
AcDbEntity
  8
GR1-1
  6
CONTINUOUS
 62
     3
100
AcDbLine
 10
131.449765
 20
96.191909
 30
0.0
 11
132.432246
 21
97.893615
 31
0.0
  0
ARC
  5
11F
330
1F
100
AcDbEntity
  8
GR1-1
  6
CONTINUOUS
 62
     3
100
AcDbCircle
 10
132.932246
 20
97.393615
 30
0.0
 40
0.5
100
AcDbArc
 50
180.0
 51
270.0
  0
LINE
  5
120
330
1F
100
AcDbEntity
  8
GR1-1
  6
CONTINUOUS
 62
     3
100
AcDbLine
 10
132.932246
 20
96.893615
 30
0.0
 11
135.432246
 21
96.893615
 31
0.0
  0
ARC
  5
121
330
1F
100
AcDbEntity
  8
GR1-1
  6
CONTINUOUS
 62
     3
100
AcDbCircle
 10
135.432246
 20
97.393615
 30
0.0
 40
0.5
100
AcDbArc
 50
270.0
 51
360.0
  0
LINE
  5
122
330
1F
100
AcDbEntity
  8
GR1-1
  6
CONTINUOUS
 62
     3
100
AcDbLine
 10
132.432246
 20
97.393615
 30
0.0
 11
132.432246
 21
120.393615
 31
0.0
  0
LINE
  5
123
330
1F
100
AcDbEntity
  8
GR1-1
  6
CONTINUOUS
 62
     3
100
AcDbLine
 10
132.432246
 20
119.893615
 30
0.0
 11
131.449765
 21
121.595321
 31
0.0
  0
LINE
  5
124
330
1F
100
AcDbEntity
  8
GR1-1
  6
CONTINUOUS
 62
     3
100
AcDbLine
 10
132.932246
 20
120.893615
 30
0.0
 11
135.432246
 21
120.893615
 31
0.0
  0
ARC
  5
125
330
1F
100
AcDbEntity
  8
GR1-1
  6
CONTINUOUS
 62
     3
100
AcDbCircle
 10
135.432246
 20
120.393615
 30
0.0
 40
0.5
100
AcDbArc
 50
0.0
 51
90.0
  0
ARC
  5
126
330
1F
100
AcDbEntity
  8
GR1-1
  6
CONTINUOUS
 62
     3
100
AcDbCircle
 10
40.527749
 20
100.166596
 30
0.0
 40
96.11887608963927
100
AcDbArc
 50
12.453044
 51
15.328587
  0
ARC
  5
127
330
1F
100
AcDbEntity
  8
GR1-1
  6
CONTINUOUS
 62
     3
100
AcDbCircle
 10
132.932246
 20
120.393615
 30
0.0
 40
0.5
100
AcDbArc
 50
90.0
 51
180.0
  0
ARC
  5
128
330
1F
100
AcDbEntity
  8
GR1-1
  6
CONTINUOUS
 62
     3
100
AcDbCircle
 10
126.809436
 20
118.419894
 30
0.0
 40
5.622810046529507
100
AcDbArc
 50
-34.384247
 51
34.384247
  0
ARC
  5
129
330
1F
100
AcDbEntity
  8
GR1-1
  6
CONTINUOUS
 62
     3
100
AcDbCircle
 10
130.055056
 20
118.419894
 30
0.0
 40
5.622810046529507
100
AcDbArc
 50
145.615753
 51
214.384247
  0
ARC
  5
12A
330
1F
100
AcDbEntity
  8
GR1-1
  6
CONTINUOUS
 62
     3
100
AcDbCircle
 10
145.449765
 20
108.893615
 30
0.0
 40
21.01751962775467
100
AcDbArc
 50
162.412046
 51
197.587954
  0
LINE
  5
12B
330
1F
100
AcDbEntity
  8
GR1-1
  6
CONTINUOUS
 62
     3
100
AcDbLine
 10
125.414726
 20
102.542762
 30
0.0
 11
131.449765
 21
102.542762
 31
0.0
  0
ARC
  5
12C
330
1F
100
AcDbEntity
  8
GR1-1
  6
CONTINUOUS
 62
     3
100
AcDbCircle
 10
111.414726
 20
108.893615
 30
0.0
 40
21.01751962775467
100
AcDbArc
 50
-17.587954
 51
17.587954
  0
LINE
  5
12D
330
1F
100
AcDbEntity
  8
GR1-1
  6
CONTINUOUS
 62
     3
100
AcDbLine
 10
131.449765
 20
115.244468
 30
0.0
 11
125.414726
 21
115.244468
 31
0.0
  0
LINE
  5
12E
330
1F
100
AcDbEntity
  8
GR1-1
  6
CONTINUOUS
 62
     3
100
AcDbLine
 10
124.432246
 20
115.889997
 30
0.0
 11
123.632246
 21
115.889997
 31
0.0
  0
LINE
  5
12F
330
1F
100
AcDbEntity
  8
GR1-1
  6
CONTINUOUS
 62
     3
100
AcDbLine
 10
123.632246
 20
115.889997
 30
0.0
 11
122.632246
 21
114.889997
 31
0.0
  0
LINE
  5
130
330
1F
100
AcDbEntity
  8
GR1-1
  6
CONTINUOUS
 62
     3
100
AcDbLine
 10
122.632246
 20
114.889997
 30
0.0
 11
122.632246
 21
102.889997
 31
0.0
  0
LINE
  5
131
330
1F
100
AcDbEntity
  8
GR1-1
  6
CONTINUOUS
 62
     3
100
AcDbLine
 10
122.632246
 20
102.889997
 30
0.0
 11
123.632246
 21
101.889997
 31
0.0
  0
LINE
  5
132
330
1F
100
AcDbEntity
  8
GR1-1
  6
CONTINUOUS
 62
     3
100
AcDbLine
 10
123.632246
 20
101.889997
 30
0.0
 11
124.432246
 21
101.889997
 31
0.0
  0
ARC
  5
133
330
1F
100
AcDbEntity
  8
GR1-1
  6
CONTINUOUS
 62
     3
100
AcDbCircle
 10
130.055056
 20
99.367335
 30
0.0
 40
5.622810046529507
100
AcDbArc
 50
145.615753
 51
214.384247
  0
ARC
  5
134
330
1F
100
AcDbEntity
  8
GR1-1
  6
CONTINUOUS
 62
     3
100
AcDbCircle
 10
126.809436
 20
99.367335
 30
0.0
 40
5.622810046529507
100
AcDbArc
 50
-34.384247
 51
34.384247
  0
LINE
  5
135
330
1F
100
AcDbEntity
  8
GR1-1
  6
CONTINUOUS
 62
     3
100
AcDbLine
 10
322.406886
 20
237.663615
 30
0.0
 11
322.406886
 21
252.076963
 31
0.0
  0
ARC
  5
136
330
1F
100
AcDbEntity
  8
GR1-1
  6
CONTINUOUS
 62
     3
100
AcDbCircle
 10
318.006886
 20
259.495858
 30
0.0
 40
6.0
100
AcDbArc
 50
335.659353
 51
360.0
  0
LINE
  5
137
330
1F
100
AcDbEntity
  8
GR1-1
  6
CONTINUOUS
 62
     3
100
AcDbLine
 10
324.006886
 20
259.495858
 30
0.0
 11
324.006886
 21
260.496869
 31
0.0
  0
ARC
  5
138
330
1F
100
AcDbEntity
  8
GR1-1
  6
CONTINUOUS
 62
     3
100
AcDbCircle
 10
334.406886
 20
252.076963
 30
0.0
 40
12.0
100
AcDbArc
 50
155.659353
 51
180.0
  0
LINE
  5
139
330
1F
100
AcDbEntity
  8
GR1-1
  6
CONTINUOUS
 62
     3
100
AcDbLine
 10
335.606886
 20
252.076963
 30
0.0
 11
335.606886
 21
237.663615
 31
0.0
  0
ARC
  5
13A
330
1F
100
AcDbEntity
  8
GR1-1
  6
CONTINUOUS
 62
     3
100
AcDbCircle
 10
329.006886
 20
237.663615
 30
0.0
 40
6.6
100
AcDbArc
 50
180.0
 51
360.0
  0
ARC
  5
13B
330
1F
100
AcDbEntity
  8
GR1-1
  6
CONTINUOUS
 62
     3
100
AcDbCircle
 10
323.606886
 20
252.076963
 30
0.0
 40
12.0
100
AcDbArc
 50
0.0
 51
24.340647
  0
LINE
  5
13C
330
1F
100
AcDbEntity
  8
GR1-1
  6
CONTINUOUS
 62
     3
100
AcDbLine
 10
334.006886
 20
259.495858
 30
0.0
 11
334.006886
 21
260.496869
 31
0.0
  0
ARC
  5
13D
330
1F
100
AcDbEntity
  8
GR1-1
  6
CONTINUOUS
 62
     3
100
AcDbCircle
 10
340.006886
 20
259.495858
 30
0.0
 40
6.0
100
AcDbArc
 50
180.0
 51
204.340647
  0
ARC
  5
13E
330
1F
100
AcDbEntity
  8
GR1-1
  6
CONTINUOUS
 62
     3
100
AcDbCircle
 10
340.006886
 20
260.496869
 30
0.0
 40
6.0
100
AcDbArc
 50
92.5
 51
180.0
  0
LINE
  5
13F
330
1F
100
AcDbEntity
  8
GR1-1
  6
CONTINUOUS
 62
     3
100
AcDbLine
 10
339.74517
 20
266.491159
 30
0.0
 11
399.704797
 21
269.109052
 31
0.0
  0
ARC
  5
140
330
1F
100
AcDbEntity
  8
GR1-1
  6
CONTINUOUS
 62
     3
100
AcDbCircle
 10
399.006886
 20
285.093824
 30
0.0
 40
16.0
100
AcDbArc
 50
272.5
 51
333.935156
  0
LINE
  5
141
330
1F
100
AcDbEntity
  8
GR1-1
  6
CONTINUOUS
 62
     3
100
AcDbLine
 10
444.617799
 20
288.674527
 30
0.0
 11
446.117799
 21
287.174527
 31
0.0
  0
ARC
  5
142
330
1F
100
AcDbEntity
  8
GR1-1
  6
CONTINUOUS
 62
     3
100
AcDbCircle
 10
450.006886
 20
291.063615
 30
0.0
 40
5.5
100
AcDbArc
 50
-135.0
 51
45.0
  0
LINE
  5
143
330
1F
100
AcDbEntity
  8
GR1-1
  6
CONTINUOUS
 62
     3
100
AcDbLine
 10
453.895974
 20
294.952702
 30
0.0
 11
452.395974
 21
296.452702
 31
0.0
  0
ARC
  5
144
330
1F
100
AcDbEntity
  8
GR1-1
  6
CONTINUOUS
 62
     3
100
AcDbCircle
 10
448.506886
 20
292.563615
 30
0.0
 40
5.5
100
AcDbArc
 50
45.0
 51
225.0
  0
ARC
  5
145
330
1F
100
AcDbEntity
  8
GR1-1
  6
CONTINUOUS
 62
     3
100
AcDbCircle
 10
449.006886
 20
292.063615
 30
0.0
 40
14.0
100
AcDbArc
 50
270.0
 51
360.0
  0
LINE
  5
146
330
1F
100
AcDbEntity
  8
GR1-1
  6
CONTINUOUS
 62
     3
100
AcDbLine
 10
463.006886
 20
292.063615
 30
0.0
 11
463.006886
 21
372.063615
 31
0.0
  0
ARC
  5
147
330
1F
100
AcDbEntity
  8
GR1-1
  6
CONTINUOUS
 62
     3
100
AcDbCircle
 10
449.006886
 20
372.063615
 30
0.0
 40
14.0
100
AcDbArc
 50
0.0
 51
90.0
  0
LINE
  5
148
330
1F
100
AcDbEntity
  8
GR1-1
  6
CONTINUOUS
 62
     3
100
AcDbLine
 10
449.006886
 20
386.063615
 30
0.0
 11
369.006886
 21
386.063615
 31
0.0
  0
ARC
  5
149
330
1F
100
AcDbEntity
  8
GR1-1
  6
CONTINUOUS
 62
     3
100
AcDbCircle
 10
369.006886
 20
372.063615
 30
0.0
 40
14.0
100
AcDbArc
 50
90.0
 51
180.0
  0
LINE
  5
14A
330
1F
100
AcDbEntity
  8
GR1-1
  6
CONTINUOUS
 62
     3
100
AcDbLine
 10
355.006886
 20
372.063615
 30
0.0
 11
355.006886
 21
292.063615
 31
0.0
  0
ARC
  5
14B
330
1F
100
AcDbEntity
  8
GR1-1
  6
CONTINUOUS
 62
     3
100
AcDbCircle
 10
369.006886
 20
292.063615
 30
0.0
 40
14.0
100
AcDbArc
 50
180.0
 51
270.0
  0
LINE
  5
14C
330
1F
100
AcDbEntity
  8
GR1-1
  6
CONTINUOUS
 62
     3
100
AcDbLine
 10
369.006886
 20
278.063615
 30
0.0
 11
449.006886
 21
278.063615
 31
0.0
  0
CIRCLE
  5
14D
330
1F
100
AcDbEntity
  8
GR1-1
  6
CONTINUOUS
 62
     3
100
AcDbCircle
 10
409.006886
 20
332.063615
 30
0.0
 40
20.2
  0
CIRCLE
  5
14E
330
1F
100
AcDbEntity
  8
GR1-1
  6
CONTINUOUS
 62
     3
100
AcDbCircle
 10
409.006886
 20
332.063615
 30
0.0
 40
12.9
  0
LINE
  5
14F
330
1F
100
AcDbEntity
  8
GR1-1
  6
CONTINUOUS
 62
     3
100
AcDbLine
 10
452.395974
 20
367.674527
 30
0.0
 11
453.895974
 21
369.174527
 31
0.0
  0
ARC
  5
150
330
1F
100
AcDbEntity
  8
GR1-1
  6
CONTINUOUS
 62
     3
100
AcDbCircle
 10
450.006886
 20
373.063615
 30
0.0
 40
5.5
100
AcDbArc
 50
-45.0
 51
135.0
  0
LINE
  5
151
330
1F
100
AcDbEntity
  8
GR1-1
  6
CONTINUOUS
 62
     3
100
AcDbLine
 10
446.117799
 20
376.952702
 30
0.0
 11
444.617799
 21
375.452702
 31
0.0
  0
ARC
  5
152
330
1F
100
AcDbEntity
  8
GR1-1
  6
CONTINUOUS
 62
     3
100
AcDbCircle
 10
448.506886
 20
371.563615
 30
0.0
 40
5.5
100
AcDbArc
 50
135.0
 51
315.0
  0
LINE
  5
153
330
1F
100
AcDbEntity
  8
GR1-1
  6
CONTINUOUS
 62
     3
100
AcDbLine
 10
346.933568
 20
116.757484
 30
0.0
 11
358.12965
 21
165.253045
 31
0.0
  0
LINE
  5
154
330
1F
100
AcDbEntity
  8
GR1-1
  6
CONTINUOUS
 62
     3
100
AcDbLine
 10
420.934886
 20
165.163615
 30
0.0
 11
390.710707
 21
103.194863
 31
0.0
  0
CIRCLE
  5
155
330
1F
100
AcDbEntity
  8
GR1-1
  6
CONTINUOUS
 62
     3
100
AcDbCircle
 10
369.006886
 20
108.893615
 30
0.0
 40
13.0
  0
ARC
  5
156
330
1F
100
AcDbEntity
  8
GR1-1
  6
CONTINUOUS
 62
     3
100
AcDbCircle
 10
369.406886
 20
111.863615
 30
0.0
 40
23.0
100
AcDbArc
 50
166.285136
 51
337.858069
  0
LINE
  5
157
330
1F
100
AcDbEntity
  8
GR1-1
  6
CONTINUOUS
 62
     3
100
AcDbLine
 10
411.756886
 20
171.384917
 30
0.0
 11
411.756886
 21
174.396932
 31
0.0
  0
ARC
  5
158
330
1F
100
AcDbEntity
  8
GR1-1
  6
CONTINUOUS
 62
     3
100
AcDbCircle
 10
410.006886
 20
179.293615
 30
0.0
 40
5.2
100
AcDbArc
 50
289.666118
 51
323.073974
  0
LINE
  5
159
330
1F
100
AcDbEntity
  8
GR1-1
  6
CONTINUOUS
 62
     3
100
AcDbLine
 10
413.025126
 20
175.307359
 30
0.0
 11
416.506886
 21
177.943615
 31
0.0
  0
LINE
  5
15A
330
1F
100
AcDbEntity
  8
GR1-1
  6
CONTINUOUS
 62
     3
100
AcDbLine
 10
416.506886
 20
177.943615
 30
0.0
 11
417.203039
 21
177.943615
 31
0.0
  0
ARC
  5
15B
330
1F
100
AcDbEntity
  8
GR1-1
  6
CONTINUOUS
 62
     3
100
AcDbCircle
 10
411.356886
 20
179.293615
 30
0.0
 40
6.0
100
AcDbArc
 50
-13.002878
 51
13.002878
  0
LINE
  5
15C
330
1F
100
AcDbEntity
  8
GR1-1
  6
CONTINUOUS
 62
     3
100
AcDbLine
 10
417.203039
 20
180.643615
 30
0.0
 11
416.506886
 21
180.643615
 31
0.0
  0
LINE
  5
15D
330
1F
100
AcDbEntity
  8
GR1-1
  6
CONTINUOUS
 62
     3
100
AcDbLine
 10
416.506886
 20
180.643615
 30
0.0
 11
413.025126
 21
183.27987
 31
0.0
  0
LINE
  5
15E
330
1F
100
AcDbEntity
  8
GR1-1
  6
CONTINUOUS
 62
     3
100
AcDbLine
 10
414.657876
 20
182.043615
 30
0.0
 11
416.568838
 21
182.043615
 31
0.0
  0
LINE
  5
15F
330
1F
100
AcDbEntity
  8
GR1-1
  6
CONTINUOUS
 62
     3
100
AcDbLine
 10
417.038015
 20
181.293615
 30
0.0
 11
417.863741
 21
181.293615
 31
0.0
  0
LINE
  5
160
330
1F
100
AcDbEntity
  8
GR1-1
  6
CONTINUOUS
 62
     3
100
AcDbLine
 10
417.915584
 20
177.543615
 30
0.0
 11
415.978598
 21
177.543615
 31
0.0
  0
ARC
  5
161
330
1F
100
AcDbEntity
  8
GR1-1
  6
CONTINUOUS
 62
     3
100
AcDbCircle
 10
413.006886
 20
179.293615
 30
0.0
 40
4.5
100
AcDbArc
 50
-22.88538
 51
37.669887
  0
ARC
  5
162
330
1F
100
AcDbEntity
  8
GR1-1
  6
CONTINUOUS
 62
     3
100
AcDbCircle
 10
410.006886
 20
179.293615
 30
0.0
 40
8.1
100
AcDbArc
 50
-12.4771
 51
102.4771
  0
LINE
  5
163
330
1F
100
AcDbEntity
  8
GR1-1
  6
CONTINUOUS
 62
     3
100
AcDbLine
 10
408.256886
 20
187.202312
 30
0.0
 11
408.256886
 21
184.190297
 31
0.0
  0
ARC
  5
164
330
1F
100
AcDbEntity
  8
GR1-1
  6
CONTINUOUS
 62
     3
100
AcDbCircle
 10
410.006886
 20
179.293615
 30
0.0
 40
5.2
100
AcDbArc
 50
109.666118
 51
115.748461
  0
LINE
  5
165
330
1F
100
AcDbEntity
  8
GR1-1
  6
CONTINUOUS
 62
     3
100
AcDbLine
 10
409.155315
 20
184.220564
 30
0.0
 11
328.155315
 21
170.220564
 31
0.0
  0
LINE
  5
166
330
1F
100
AcDbEntity
  8
GR1-1
  6
CONTINUOUS
 62
     3
100
AcDbLine
 10
324.078459
 20
168.793615
 30
0.0
 11
333.935314
 21
168.793615
 31
0.0
  0
ARC
  5
167
330
1F
100
AcDbEntity
  8
GR1-1
  6
CONTINUOUS
 62
     3
100
AcDbCircle
 10
329.006886
 20
165.293615
 30
0.0
 40
5.0
100
AcDbArc
 50
44.427004
 51
135.572996
  0
ARC
  5
168
330
1F
100
AcDbEntity
  8
GR1-1
  6
CONTINUOUS
 62
     3
100
AcDbCircle
 10
326.906886
 20
165.293615
 30
0.0
 40
4.5
100
AcDbArc
 50
128.942441
 51
231.057559
  0
LINE
  5
169
330
1F
100
AcDbEntity
  8
GR1-1
  6
CONTINUOUS
 62
     3
100
AcDbLine
 10
324.078459
 20
161.793615
 30
0.0
 11
333.935314
 21
161.793615
 31
0.0
  0
ARC
  5
16A
330
1F
100
AcDbEntity
  8
GR1-1
  6
CONTINUOUS
 62
     3
100
AcDbCircle
 10
331.106886
 20
165.293615
 30
0.0
 40
4.5
100
AcDbArc
 50
-51.057559
 51
51.057559
  0
LINE
  5
16B
330
1F
100
AcDbEntity
  8
GR1-1
  6
CONTINUOUS
 62
     3
100
AcDbLine
 10
329.858458
 20
160.366666
 30
0.0
 11
410.858458
 21
174.366666
 31
0.0
  0
ARC
  5
16C
330
1F
100
AcDbEntity
  8
GR1-1
  6
CONTINUOUS
 62
     3
100
AcDbCircle
 10
410.006886
 20
179.293615
 30
0.0
 40
5.0
100
AcDbArc
 50
-80.193907
 51
99.806093
  0
ARC
  5
16D
330
1F
100
AcDbEntity
  8
GR1-1
  6
CONTINUOUS
 62
     3
100
AcDbCircle
 10
410.006886
 20
179.293615
 30
0.0
 40
8.1
100
AcDbArc
 50
228.118064
 51
282.4771
  0
ARC
  5
16E
330
1F
100
AcDbEntity
  8
GR1-1
  6
CONTINUOUS
 62
     3
100
AcDbCircle
 10
492.750691
 20
135.535503
 30
0.0
 40
77.68741791516945
100
AcDbArc
 50
140.964085
 51
157.581063
  0
LINE
  5
16F
330
1F
100
AcDbEntity
  8
GR1-1
  6
CONTINUOUS
 62
     3
100
AcDbLine
 10
444.906886
 20
191.963615
 30
0.0
 11
444.906886
 21
194.563615
 31
0.0
  0
ARC
  5
170
330
1F
100
AcDbEntity
  8
GR1-1
  6
CONTINUOUS
 62
     3
100
AcDbCircle
 10
438.406886
 20
194.563615
 30
0.0
 40
6.5
100
AcDbArc
 50
0.0
 51
90.0
  0
ARC
  5
171
330
1F
100
AcDbEntity
  8
GR1-1
  6
CONTINUOUS
 62
     3
100
AcDbCircle
 10
444.563303
 20
205.063615
 30
0.0
 40
4.0
100
AcDbArc
 50
270.0
 51
354.774073
  0
LINE
  5
172
330
1F
100
AcDbEntity
  8
GR1-1
  6
CONTINUOUS
 62
     3
100
AcDbLine
 10
448.546676
 20
204.699282
 30
0.0
 11
449.206886
 21
212.063615
 31
0.0
  0
LINE
  5
173
330
1F
100
AcDbEntity
  8
GR1-1
  6
CONTINUOUS
 62
     3
100
AcDbLine
 10
449.206886
 20
212.063615
 30
0.0
 11
368.806886
 21
212.063615
 31
0.0
  0
LINE
  5
174
330
1F
100
AcDbEntity
  8
GR1-1
  6
CONTINUOUS
 62
     3
100
AcDbLine
 10
368.806886
 20
212.063615
 30
0.0
 11
369.467097
 21
204.699282
 31
0.0
  0
ARC
  5
175
330
1F
100
AcDbEntity
  8
GR1-1
  6
CONTINUOUS
 62
     3
100
AcDbCircle
 10
373.45047
 20
205.063615
 30
0.0
 40
4.0
100
AcDbArc
 50
185.225927
 51
270.0
  0
LINE
  5
176
330
1F
100
AcDbEntity
  8
GR1-1
  6
CONTINUOUS
 62
     3
100
AcDbLine
 10
373.45047
 20
201.063615
 30
0.0
 11
444.563303
 21
201.063615
 31
0.0
  0
ARC
  5
177
330
1F
100
AcDbEntity
  8
GR1-1
  6
CONTINUOUS
 62
     3
100
AcDbCircle
 10
462.633804
 20
148.252085
 30
0.0
 40
47.16928530260403
100
AcDbArc
 50
112.074685
 51
129.852828
  0
LINE
  5
178
330
1F
100
AcDbEntity
  8
GR1-1
  6
CONTINUOUS
 62
     3
100
AcDbLine
 10
445.936349
 20
213.388615
 30
0.0
 11
372.077424
 21
213.388615
 31
0.0
  0
ARC
  5
179
330
1F
100
AcDbEntity
  8
GR1-1
  6
CONTINUOUS
 62
     3
100
AcDbCircle
 10
372.077424
 20
225.388615
 30
0.0
 40
12.0
100
AcDbArc
 50
225.099472
 51
270.0
  0
LINE
  5
17A
330
1F
100
AcDbEntity
  8
GR1-1
  6
CONTINUOUS
 62
     3
100
AcDbLine
 10
376.912241
 20
200.186392
 30
0.0
 11
370.806886
 21
196.463615
 31
0.0
  0
LINE
  5
17B
330
1F
100
AcDbEntity
  8
GR1-1
  6
CONTINUOUS
 62
     3
100
AcDbLine
 10
370.806886
 20
196.463615
 30
0.0
 11
360.006886
 21
196.463615
 31
0.0
  0
ARC
  5
17C
330
1F
100
AcDbEntity
  8
GR1-1
  6
CONTINUOUS
 62
     3
100
AcDbCircle
 10
360.006886
 20
192.963615
 30
0.0
 40
3.5
100
AcDbArc
 50
90.0
 51
180.0
  0
LINE
  5
17D
330
1F
100
AcDbEntity
  8
GR1-1
  6
CONTINUOUS
 62
     3
100
AcDbLine
 10
356.506886
 20
192.963615
 30
0.0
 11
356.506886
 21
187.463615
 31
0.0
  0
LINE
  5
17E
330
1F
100
AcDbEntity
  8
GR1-1
  6
CONTINUOUS
 62
     3
100
AcDbLine
 10
361.87718
 20
181.48538
 30
0.0
 11
360.569938
 21
175.823091
 31
0.0
  0
ARC
  5
17F
330
1F
100
AcDbEntity
  8
GR1-1
  6
CONTINUOUS
 62
     3
100
AcDbCircle
 10
356.976608
 20
182.485727
 30
0.0
 40
5.0
100
AcDbArc
 50
-13.0
 51
95.390563
  0
LINE
  5
180
330
1F
100
AcDbEntity
  8
GR1-1
  6
CONTINUOUS
 62
     3
100
AcDbLine
 10
370.306886
 20
185.280366
 30
0.0
 11
375.306886
 21
188.167117
 31
0.0
  0
LINE
  5
181
330
1F
100
AcDbEntity
  8
GR1-1
  6
CONTINUOUS
 62
     3
100
AcDbLine
 10
375.306886
 20
188.167117
 30
0.0
 11
380.306886
 21
185.280366
 31
0.0
  0
LINE
  5
182
330
1F
100
AcDbEntity
  8
GR1-1
  6
CONTINUOUS
 62
     3
100
AcDbLine
 10
380.306886
 20
185.280366
 30
0.0
 11
380.306886
 21
179.506863
 31
0.0
  0
LINE
  5
183
330
1F
100
AcDbEntity
  8
GR1-1
  6
CONTINUOUS
 62
     3
100
AcDbLine
 10
380.306886
 20
179.506863
 30
0.0
 11
379.633362
 21
179.118004
 31
0.0
  0
LINE
  5
184
330
1F
100
AcDbEntity
  8
GR1-1
  6
CONTINUOUS
 62
     3
100
AcDbLine
 10
372.974002
 20
177.967003
 30
0.0
 11
370.306886
 21
179.506863
 31
0.0
  0
LINE
  5
185
330
1F
100
AcDbEntity
  8
GR1-1
  6
CONTINUOUS
 62
     3
100
AcDbLine
 10
370.306886
 20
179.506863
 30
0.0
 11
370.306886
 21
185.280366
 31
0.0
  0
ARC
  5
186
330
1F
100
AcDbEntity
  8
GR1-1
  6
CONTINUOUS
 62
     3
100
AcDbCircle
 10
380.035885
 20
195.063615
 30
0.0
 40
6.0
100
AcDbArc
 50
90.0
 51
121.373005
  0
LINE
  5
187
330
1F
100
AcDbEntity
  8
GR1-1
  6
CONTINUOUS
 62
     3
100
AcDbLine
 10
355.006886
 20
216.888615
 30
0.0
 11
463.006886
 21
216.888615
 31
0.0
  0
LINE
  5
188
330
1F
100
AcDbEntity
  8
GR1-1
  6
CONTINUOUS
 62
     3
100
AcDbLine
 10
463.006886
 20
216.888615
 30
0.0
 11
463.006886
 21
220.888615
 31
0.0
  0
LINE
  5
189
330
1F
100
AcDbEntity
  8
GR1-1
  6
CONTINUOUS
 62
     3
100
AcDbLine
 10
463.006886
 20
220.888615
 30
0.0
 11
355.006886
 21
220.888615
 31
0.0
  0
LINE
  5
18A
330
1F
100
AcDbEntity
  8
GR1-1
  6
CONTINUOUS
 62
     3
100
AcDbLine
 10
355.006886
 20
220.888615
 30
0.0
 11
355.006886
 21
216.888615
 31
0.0
  0
ARC
  5
18B
330
1F
100
AcDbEntity
  8
GR1-1
  6
CONTINUOUS
 62
     3
100
AcDbCircle
 10
340.006886
 20
260.496869
 30
0.0
 40
16.0
100
AcDbArc
 50
92.5
 51
180.0
  0
LINE
  5
18C
330
1F
100
AcDbEntity
  8
GR1-1
  6
CONTINUOUS
 62
     3
100
AcDbLine
 10
339.308976
 20
276.481641
 30
0.0
 11
375.542138
 21
278.063615
 31
0.0
  0
LINE
  5
18D
330
1F
100
AcDbEntity
  8
GR1-1
  6
CONTINUOUS
 62
     3
100
AcDbLine
 10
371.895974
 20
287.174527
 30
0.0
 11
373.395974
 21
288.674527
 31
0.0
  0
ARC
  5
18E
330
1F
100
AcDbEntity
  8
GR1-1
  6
CONTINUOUS
 62
     3
100
AcDbCircle
 10
369.506886
 20
292.563615
 30
0.0
 40
5.5
100
AcDbArc
 50
-45.0
 51
135.0
  0
LINE
  5
18F
330
1F
100
AcDbEntity
  8
GR1-1
  6
CONTINUOUS
 62
     3
100
AcDbLine
 10
365.617799
 20
296.452702
 30
0.0
 11
364.117799
 21
294.952702
 31
0.0
  0
ARC
  5
190
330
1F
100
AcDbEntity
  8
GR1-1
  6
CONTINUOUS
 62
     3
100
AcDbCircle
 10
368.006886
 20
291.063615
 30
0.0
 40
5.5
100
AcDbArc
 50
135.0
 51
315.0
  0
LINE
  5
191
330
1F
100
AcDbEntity
  8
GR1-1
  6
CONTINUOUS
 62
     3
100
AcDbLine
 10
355.006886
 20
302.363615
 30
0.0
 11
346.406886
 21
302.363615
 31
0.0
  0
LINE
  5
192
330
1F
100
AcDbEntity
  8
GR1-1
  6
CONTINUOUS
 62
     3
100
AcDbLine
 10
346.406886
 20
302.363615
 30
0.0
 11
346.406886
 21
305.563615
 31
0.0
  0
LINE
  5
193
330
1F
100
AcDbEntity
  8
GR1-1
  6
CONTINUOUS
 62
     3
100
AcDbLine
 10
346.406886
 20
305.563615
 30
0.0
 11
355.006886
 21
305.563615
 31
0.0
  0
LINE
  5
194
330
1F
100
AcDbEntity
  8
GR1-1
  6
CONTINUOUS
 62
     3
100
AcDbLine
 10
346.406886
 20
358.563615
 30
0.0
 11
355.006886
 21
358.563615
 31
0.0
  0
LINE
  5
195
330
1F
100
AcDbEntity
  8
GR1-1
  6
CONTINUOUS
 62
     3
100
AcDbLine
 10
355.006886
 20
361.763615
 30
0.0
 11
346.406886
 21
361.763615
 31
0.0
  0
LINE
  5
196
330
1F
100
AcDbEntity
  8
GR1-1
  6
CONTINUOUS
 62
     3
100
AcDbLine
 10
346.406886
 20
361.763615
 30
0.0
 11
346.406886
 21
358.563615
 31
0.0
  0
LINE
  5
197
330
1F
100
AcDbEntity
  8
GR1-1
  6
CONTINUOUS
 62
     3
100
AcDbLine
 10
364.117799
 20
369.174527
 30
0.0
 11
365.617799
 21
367.674527
 31
0.0
  0
ARC
  5
198
330
1F
100
AcDbEntity
  8
GR1-1
  6
CONTINUOUS
 62
     3
100
AcDbCircle
 10
369.506886
 20
371.563615
 30
0.0
 40
5.5
100
AcDbArc
 50
-135.0
 51
45.0
  0
LINE
  5
199
330
1F
100
AcDbEntity
  8
GR1-1
  6
CONTINUOUS
 62
     3
100
AcDbLine
 10
373.395974
 20
375.452702
 30
0.0
 11
371.895974
 21
376.952702
 31
0.0
  0
ARC
  5
19A
330
1F
100
AcDbEntity
  8
GR1-1
  6
CONTINUOUS
 62
     3
100
AcDbCircle
 10
368.006886
 20
373.063615
 30
0.0
 40
5.5
100
AcDbArc
 50
45.0
 51
225.0
  0
ARC
  5
19B
330
1F
100
AcDbEntity
  8
GR1-1
  6
CONTINUOUS
 62
     3
100
AcDbCircle
 10
329.006886
 20
165.293615
 30
0.0
 40
5.0
100
AcDbArc
 50
224.427004
 51
315.572996
  0
ARC
  5
19C
330
1F
100
AcDbEntity
  8
GR1-1
  6
CONTINUOUS
 62
     3
100
AcDbCircle
 10
445.936349
 20
225.388615
 30
0.0
 40
12.0
100
AcDbArc
 50
270.0
 51
314.900528
  0
TEXT
  5
19D
330
1F
100
AcDbEntity
  8
GR1-1
  6
CONTINUOUS
 62
     7
100
AcDbText
 10
362.652527
 20
164.120392
 30
0.0
 40
9.371985
  1
J-130
 50
257.0
 41
0.778279
  7
STYLE1
 72
     5
 11
354.917341
 21
130.615621
 31
0.0
100
AcDbText
  0
ARC
  5
19E
330
1F
100
AcDbEntity
  8
GR1-1
  6
CONTINUOUS
 62
     7
100
AcDbCircle
 10
409.006886
 20
332.063615
 30
0.0
 40
130.3388394492375
100
AcDbArc
 50
207.855721
 51
236.632343
  0
LINE
  5
19F
330
1F
100
AcDbEntity
  8
GR1-1
  6
CONTINUOUS
 62
     6
100
AcDbLine
 10
150.382246
 20
175.879284
 30
0.0
 11
180.882246
 21
175.879284
 31
0.0
  0
LINE
  5
1A0
330
1F
100
AcDbEntity
  8
GR1-1
  6
CONTINUOUS
 62
     6
100
AcDbLine
 10
180.882246
 20
178.219841
 30
0.0
 11
150.382246
 21
178.219841
 31
0.0
  0
LINE
  5
1A1
330
1F
100
AcDbEntity
  8
GR1-1
  6
CONTINUOUS
 62
     6
100
AcDbLine
 10
150.382246
 20
184.852115
 30
0.0
 11
139.132246
 21
184.852115
 31
0.0
  0
LINE
  5
1A2
330
1F
100
AcDbEntity
  8
GR1-1
  6
CONTINUOUS
 62
     3
100
AcDbLine
 10
132.332246
 20
187.393615
 30
0.0
 11
132.332246
 21
177.393615
 31
0.0
  0
LINE
  5
1A3
330
1F
100
AcDbEntity
  8
GR1-1
  6
CONTINUOUS
 62
     6
100
AcDbLine
 10
130.832246
 20
179.935115
 30
0.0
 11
130.332246
 21
179.935115
 31
0.0
  0
LINE
  5
1A4
330
1F
100
AcDbEntity
  8
GR1-1
  6
CENTER
 62
     6
100
AcDbLine
 10
128.624473
 20
182.393615
 30
0.0
 11
201.923248
 21
182.393615
 31
0.0
  0
LINE
  5
1A5
330
1F
100
AcDbEntity
  8
GR1-1
  6
CONTINUOUS
 62
     6
100
AcDbLine
 10
202.132246
 20
180.643615
 30
0.0
 11
204.132246
 21
183.593615
 31
0.0
  0
LINE
  5
1A6
330
1F
100
AcDbEntity
  8
GR1-1
  6
CONTINUOUS
 62
     6
100
AcDbLine
 10
204.132246
 20
183.593615
 30
0.0
 11
200.382246
 21
183.593615
 31
0.0
  0
LINE
  5
1A7
330
1F
100
AcDbEntity
  8
GR1-1
  6
CONTINUOUS
 62
     6
100
AcDbLine
 10
200.382246
 20
180.643615
 30
0.0
 11
202.132246
 21
180.643615
 31
0.0
  0
LINE
  5
1A8
330
1F
100
AcDbEntity
  8
GR1-1
  6
CONTINUOUS
 62
     6
100
AcDbLine
 10
202.132246
 20
177.943615
 30
0.0
 11
204.132246
 21
174.993615
 31
0.0
  0
LINE
  5
1A9
330
1F
100
AcDbEntity
  8
GR1-1
  6
CONTINUOUS
 62
     6
100
AcDbLine
 10
204.132246
 20
174.993615
 30
0.0
 11
200.382246
 21
174.993615
 31
0.0
  0
LINE
  5
1AA
330
1F
100
AcDbEntity
  8
GR1-1
  6
CONTINUOUS
 62
     6
100
AcDbLine
 10
200.382246
 20
177.943615
 30
0.0
 11
202.132246
 21
177.943615
 31
0.0
  0
LINE
  5
1AB
330
1F
100
AcDbEntity
  8
GR1-1
  6
CENTER
 62
     6
100
AcDbLine
 10
218.345787
 20
179.293615
 30
0.0
 11
120.384177
 21
179.293615
 31
0.0
  0
LINE
  5
1AC
330
1F
100
AcDbEntity
  8
GR1-1
  6
CONTINUOUS
 62
     6
100
AcDbLine
 10
123.632246
 20
176.835115
 30
0.0
 11
125.782246
 21
176.835115
 31
0.0
  0
LINE
  5
1AD
330
1F
100
AcDbEntity
  8
GR1-1
  6
CONTINUOUS
 62
     6
100
AcDbLine
 10
124.132246
 20
176.293615
 30
0.0
 11
124.132246
 21
182.293615
 31
0.0
  0
LINE
  5
1AE
330
1F
100
AcDbEntity
  8
GR1-1
  6
CONTINUOUS
 62
     6
100
AcDbLine
 10
123.632246
 20
181.752115
 30
0.0
 11
125.782246
 21
181.752115
 31
0.0
  0
LINE
  5
1AF
330
1F
100
AcDbEntity
  8
GR1-1
  6
CONTINUOUS
 62
     3
100
AcDbLine
 10
127.282246
 20
184.293615
 30
0.0
 11
127.282246
 21
174.293615
 31
0.0
  0
LINE
  5
1B0
330
1F
100
AcDbEntity
  8
GR1-1
  6
CONTINUOUS
 62
     6
100
AcDbLine
 10
130.332246
 20
184.852115
 30
0.0
 11
130.832246
 21
184.852115
 31
0.0
  0
LINE
  5
1B1
330
1F
100
AcDbEntity
  8
GR1-1
  6
CONTINUOUS
 62
     6
100
AcDbLine
 10
198.332246
 20
121.891806
 30
0.0
 11
198.332246
 21
95.891806
 31
0.0
  0
LINE
  5
1B2
330
1F
100
AcDbEntity
  8
GR1-1
  6
CENTER
 62
     6
100
AcDbLine
 10
201.97405
 20
108.893615
 30
0.0
 11
119.259935
 21
108.893615
 31
0.0
  0
LINE
  5
1B3
330
1F
100
AcDbEntity
  8
GR1-1
  6
CONTINUOUS
 62
     6
100
AcDbLine
 10
122.823863
 20
102.705615
 30
0.0
 11
124.432246
 21
102.705615
 31
0.0
  0
LINE
  5
1B4
330
1F
100
AcDbEntity
  8
GR1-1
  6
CONTINUOUS
 62
     6
100
AcDbLine
 10
123.632246
 20
101.889997
 30
0.0
 11
123.632246
 21
115.889997
 31
0.0
  0
LINE
  5
1B5
330
1F
100
AcDbEntity
  8
GR1-1
  6
CONTINUOUS
 62
     6
100
AcDbLine
 10
124.432246
 20
115.081615
 30
0.0
 11
122.823863
 21
115.081615
 31
0.0
  0
LINE
  5
1B6
330
1F
100
AcDbEntity
  8
GR1-1
  6
CENTER
 62
     6
100
AcDbLine
 10
165.632246
 20
40.13903
 30
0.0
 11
165.632246
 21
225.964544
 31
0.0
  0
LINE
  5
1B7
330
1F
100
AcDbEntity
  8
GR1-1
  6
CENTER
 62
     6
100
AcDbLine
 10
223.341028
 20
174.511712
 30
0.0
 11
223.534717
 21
170.075518
 31
0.0
  0
ARC
  5
1B8
330
1F
100
AcDbEntity
  8
GR1-1
  6
CENTER
 62
     6
100
AcDbCircle
 10
228.529958
 20
170.293615
 30
0.0
 40
5.0
100
AcDbArc
 50
182.5
 51
270.0
  0
LINE
  5
1B9
330
1F
100
AcDbEntity
  8
GR1-1
  6
CENTER
 62
     6
100
AcDbLine
 10
228.529958
 20
165.293615
 30
0.0
 11
269.384254
 21
165.293615
 31
0.0
  0
LINE
  5
1BA
330
1F
100
AcDbEntity
  8
GR1-1
  6
CENTER
 62
     6
100
AcDbLine
 10
320.442161
 20
165.293615
 30
0.0
 11
329.006886
 21
165.293615
 31
0.0
  0
LINE
  5
1BB
330
1F
100
AcDbEntity
  8
GR1-1
  6
CENTER
 62
     6
100
AcDbLine
 10
329.006886
 20
165.293615
 30
0.0
 11
410.006886
 21
179.293615
 31
0.0
  0
LINE
  5
1BC
330
1F
100
AcDbEntity
  8
GR1-1
  6
CENTER
 62
     6
100
AcDbLine
 10
410.006886
 20
179.293615
 30
0.0
 11
421.210003
 21
179.293615
 31
0.0
  0
LINE
  5
1BD
330
1F
100
AcDbEntity
  8
GR1-1
  6
CONTINUOUS
 62
     6
100
AcDbLine
 10
391.906886
 20
109.463615
 30
0.0
 11
391.906886
 21
171.024963
 31
0.0
  0
LINE
  5
1BE
330
1F
100
AcDbEntity
  8
GR1-1
  6
CONTINUOUS
 62
     6
100
AcDbLine
 10
391.906886
 20
181.179229
 30
0.0
 11
391.906886
 21
192.063615
 31
0.0
  0
LINE
  5
1BF
330
1F
100
AcDbEntity
  8
GR1-1
  6
CENTER
 62
     6
100
AcDbLine
 10
382.194183
 20
182.393615
 30
0.0
 11
368.195226
 21
182.393615
 31
0.0
  0
LINE
  5
1C0
330
1F
100
AcDbEntity
  8
GR1-1
  6
CENTER
 62
     6
100
AcDbLine
 10
375.306886
 20
175.149902
 30
0.0
 11
375.306886
 21
190.002454
 31
0.0
  0
ARC
  5
1C1
330
1F
100
AcDbEntity
  8
GR1-1
  6
CONTINUOUS
 62
     6
100
AcDbCircle
 10
375.306886
 20
182.393615
 30
0.0
 40
4.5
100
AcDbArc
 50
-51.960206
 51
251.572391
  0
LINE
  5
1C2
330
1F
100
AcDbEntity
  8
GR1-1
  6
CENTER
 62
     6
100
AcDbLine
 10
409.006886
 20
135.898886
 30
0.0
 11
409.006886
 21
225.046678
 31
0.0
  0
LINE
  5
1C3
330
1F
100
AcDbEntity
  8
GR1-1
  6
CENTER
 62
     6
100
AcDbLine
 10
410.006886
 20
190.228689
 30
0.0
 11
410.006886
 21
169.426761
 31
0.0
  0
LINE
  5
1C4
330
1F
100
AcDbEntity
  8
GR1-1
  6
CENTER
 62
     6
100
AcDbLine
 10
438.066688
 20
108.893615
 30
0.0
 11
300.096996
 21
108.893615
 31
0.0
  0
LINE
  5
1C5
330
1F
100
AcDbEntity
  8
GR1-1
  6
CENTER
 62
     6
100
AcDbLine
 10
329.006886
 20
157.248051
 30
0.0
 11
329.006886
 21
175.310181
 31
0.0
  0
CIRCLE
  5
1C6
330
1F
100
AcDbEntity
  8
GR1-1
  6
CONTINUOUS
 62
     6
100
AcDbCircle
 10
369.006886
 20
108.893615
 30
0.0
 40
10.0
  0
LINE
  5
1C7
330
1F
100
AcDbEntity
  8
GR1-1
  6
CENTER
 62
     6
100
AcDbLine
 10
300.678713
 20
332.063615
 30
0.0
 11
467.963543
 21
332.063615
 31
0.0
  0
CIRCLE
  5
1C8
330
1F
100
AcDbEntity
  8
GR1-1
  6
CONTINUOUS
 62
     6
100
AcDbCircle
 10
409.006886
 20
332.063615
 30
0.0
 40
36.25
  0
CIRCLE
  5
1C9
330
1F
100
AcDbEntity
  8
GR1-1
  6
CONTINUOUS
 62
     6
100
AcDbCircle
 10
409.006886
 20
332.063615
 30
0.0
 40
26.7
  0
CIRCLE
  5
1CA
330
1F
100
AcDbEntity
  8
GR1-1
  6
CONTINUOUS
 62
     6
100
AcDbCircle
 10
409.006886
 20
332.063615
 30
0.0
 40
25.0
  0
ARC
  5
1CB
330
1F
100
AcDbEntity
  8
GR1-1
  6
CONTINUOUS
 62
     6
100
AcDbCircle
 10
418.656886
 20
332.063615
 30
0.0
 40
4.0
100
AcDbArc
 50
42.092289
 51
90.0
  0
LINE
  5
1CC
330
1F
100
AcDbEntity
  8
GR1-1
  6
CONTINUOUS
 62
     6
100
AcDbLine
 10
418.656886
 20
336.063615
 30
0.0
 11
407.656886
 21
336.063615
 31
0.0
  0
ARC
  5
1CD
330
1F
100
AcDbEntity
  8
GR1-1
  6
CONTINUOUS
 62
     6
100
AcDbCircle
 10
407.656886
 20
332.063615
 30
0.0
 40
4.0
100
AcDbArc
 50
90.0
 51
270.0
  0
LINE
  5
1CE
330
1F
100
AcDbEntity
  8
GR1-1
  6
CONTINUOUS
 62
     6
100
AcDbLine
 10
407.656886
 20
328.063615
 30
0.0
 11
418.656886
 21
328.063615
 31
0.0
  0
ARC
  5
1CF
330
1F
100
AcDbEntity
  8
GR1-1
  6
CONTINUOUS
 62
     6
100
AcDbCircle
 10
418.656886
 20
332.063615
 30
0.0
 40
4.0
100
AcDbArc
 50
270.0
 51
317.907711
  0
LINE
  5
1D0
330
1F
100
AcDbEntity
  8
GR1-1
  6
CENTER
 62
     6
100
AcDbLine
 10
409.006886
 20
274.134822
 30
0.0
 11
409.006886
 21
390.911912
 31
0.0
  0
ARC
  5
1D1
330
1F
100
AcDbEntity
  8
GR1-1
  6
CENTER
 62
     6
100
AcDbCircle
 10
340.006886
 20
260.496869
 30
0.0
 40
11.0
100
AcDbArc
 50
92.5
 51
180.0
  0
LINE
  5
1D2
330
1F
100
AcDbEntity
  8
GR1-1
  6
CENTER
 62
     6
100
AcDbLine
 10
329.006886
 20
260.496869
 30
0.0
 11
329.006886
 21
226.111205
 31
0.0
  0
LINE
  5
1D3
330
1F
100
AcDbEntity
  8
GR1-1
  6
CONTINUOUS
 62
     6
100
AcDbLine
 10
329.006886
 20
231.863615
 30
0.0
 11
330.161587
 21
233.863615
 31
0.0
  0
LINE
  5
1D4
330
1F
100
AcDbEntity
  8
GR1-1
  6
CONTINUOUS
 62
     6
100
AcDbLine
 10
330.161587
 20
233.863615
 30
0.0
 11
329.006886
 21
235.863615
 31
0.0
  0
LINE
  5
1D5
330
1F
100
AcDbEntity
  8
GR1-1
  6
CONTINUOUS
 62
     6
100
AcDbLine
 10
329.006886
 20
235.863615
 30
0.0
 11
327.852186
 21
233.863615
 31
0.0
  0
LINE
  5
1D6
330
1F
100
AcDbEntity
  8
GR1-1
  6
CONTINUOUS
 62
     6
100
AcDbLine
 10
327.852186
 20
233.863615
 30
0.0
 11
329.006886
 21
231.863615
 31
0.0
  0
LINE
  5
1D7
330
1F
100
AcDbEntity
  8
GR1-1
  6
CONTINUOUS
 62
     6
100
AcDbLine
 10
327.507401
 20
232.060799
 30
0.0
 11
327.159366
 21
232.663615
 31
0.0
  0
LINE
  5
1D8
330
1F
100
AcDbEntity
  8
GR1-1
  6
CONTINUOUS
 62
     6
100
AcDbLine
 10
327.159366
 20
232.663615
 30
0.0
 11
326.921436
 21
232.251508
 31
0.0
  0
LINE
  5
1D9
330
1F
100
AcDbEntity
  8
GR1-1
  6
CONTINUOUS
 62
     6
100
AcDbLine
 10
325.850961
 20
232.797391
 30
0.0
 11
326.466545
 21
233.863615
 31
0.0
  0
LINE
  5
1DA
330
1F
100
AcDbEntity
  8
GR1-1
  6
CONTINUOUS
 62
     6
100
AcDbLine
 10
326.466545
 20
233.863615
 30
0.0
 11
325.311845
 21
235.863615
 31
0.0
  0
LINE
  5
1DB
330
1F
100
AcDbEntity
  8
GR1-1
  6
CONTINUOUS
 62
     6
100
AcDbLine
 10
325.311845
 20
235.863615
 30
0.0
 11
324.352792
 21
234.202487
 31
0.0
  0
LINE
  5
1DC
330
1F
100
AcDbEntity
  8
GR1-1
  6
CONTINUOUS
 62
     6
100
AcDbLine
 10
323.663331
 20
235.408306
 30
0.0
 11
324.619024
 21
237.063615
 31
0.0
  0
LINE
  5
1DD
330
1F
100
AcDbEntity
  8
GR1-1
  6
CONTINUOUS
 62
     6
100
AcDbLine
 10
324.619024
 20
237.063615
 30
0.0
 11
323.464324
 21
239.063615
 31
0.0
  0
LINE
  5
1DE
330
1F
100
AcDbEntity
  8
GR1-1
  6
CONTINUOUS
 62
     6
100
AcDbLine
 10
323.464324
 20
239.063615
 30
0.0
 11
323.206886
 21
238.61772
 31
0.0
  0
ARC
  5
1DF
330
1F
100
AcDbEntity
  8
GR1-1
  6
CONTINUOUS
 62
     6
100
AcDbCircle
 10
329.006886
 20
237.663615
 30
0.0
 40
5.8
100
AcDbArc
 50
180.0
 51
360.0
  0
LINE
  5
1E0
330
1F
100
AcDbEntity
  8
GR1-1
  6
CONTINUOUS
 62
     6
100
AcDbLine
 10
334.806886
 20
237.663615
 30
0.0
 11
334.806886
 21
252.631304
 31
0.0
  0
ARC
  5
1E1
330
1F
100
AcDbEntity
  8
GR1-1
  6
CONTINUOUS
 62
     6
100
AcDbCircle
 10
322.806886
 20
252.631304
 30
0.0
 40
12.0
100
AcDbArc
 50
0.0
 51
26.916568
  0
LINE
  5
1E2
330
1F
100
AcDbEntity
  8
GR1-1
  6
CONTINUOUS
 62
     6
100
AcDbLine
 10
333.506886
 20
258.063615
 30
0.0
 11
324.506886
 21
258.063615
 31
0.0
  0
ARC
  5
1E3
330
1F
100
AcDbEntity
  8
GR1-1
  6
CONTINUOUS
 62
     6
100
AcDbCircle
 10
335.206886
 20
252.631304
 30
0.0
 40
12.0
100
AcDbArc
 50
153.083432
 51
180.0
  0
LINE
  5
1E4
330
1F
100
AcDbEntity
  8
GR1-1
  6
CONTINUOUS
 62
     6
100
AcDbLine
 10
323.206886
 20
252.631304
 30
0.0
 11
323.206886
 21
237.663615
 31
0.0
  0
LINE
  5
1E5
330
1F
100
AcDbEntity
  8
GR1-1
  6
CONTINUOUS
 62
     6
100
AcDbLine
 10
325.311845
 20
238.263615
 30
0.0
 11
324.157144
 21
240.263615
 31
0.0
  0
LINE
  5
1E6
330
1F
100
AcDbEntity
  8
GR1-1
  6
CONTINUOUS
 62
     6
100
AcDbLine
 10
324.157144
 20
240.263615
 30
0.0
 11
325.311845
 21
242.263615
 31
0.0
  0
LINE
  5
1E7
330
1F
100
AcDbEntity
  8
GR1-1
  6
CONTINUOUS
 62
     6
100
AcDbLine
 10
325.311845
 20
242.263615
 30
0.0
 11
326.466545
 21
240.263615
 31
0.0
  0
LINE
  5
1E8
330
1F
100
AcDbEntity
  8
GR1-1
  6
CONTINUOUS
 62
     6
100
AcDbLine
 10
326.466545
 20
240.263615
 30
0.0
 11
325.311845
 21
238.263615
 31
0.0
  0
LINE
  5
1E9
330
1F
100
AcDbEntity
  8
GR1-1
  6
CONTINUOUS
 62
     6
100
AcDbLine
 10
326.004665
 20
237.063615
 30
0.0
 11
327.159366
 21
235.063615
 31
0.0
  0
LINE
  5
1EA
330
1F
100
AcDbEntity
  8
GR1-1
  6
CONTINUOUS
 62
     6
100
AcDbLine
 10
327.159366
 20
235.063615
 30
0.0
 11
328.314066
 21
237.063615
 31
0.0
  0
LINE
  5
1EB
330
1F
100
AcDbEntity
  8
GR1-1
  6
CONTINUOUS
 62
     6
100
AcDbLine
 10
328.314066
 20
237.063615
 30
0.0
 11
327.159366
 21
239.063615
 31
0.0
  0
LINE
  5
1EC
330
1F
100
AcDbEntity
  8
GR1-1
  6
CONTINUOUS
 62
     6
100
AcDbLine
 10
327.159366
 20
239.063615
 30
0.0
 11
326.004665
 21
237.063615
 31
0.0
  0
LINE
  5
1ED
330
1F
100
AcDbEntity
  8
GR1-1
  6
CONTINUOUS
 62
     6
100
AcDbLine
 10
329.006886
 20
238.263615
 30
0.0
 11
330.161587
 21
240.263615
 31
0.0
  0
LINE
  5
1EE
330
1F
100
AcDbEntity
  8
GR1-1
  6
CONTINUOUS
 62
     6
100
AcDbLine
 10
330.161587
 20
240.263615
 30
0.0
 11
329.006886
 21
242.263615
 31
0.0
  0
LINE
  5
1EF
330
1F
100
AcDbEntity
  8
GR1-1
  6
CONTINUOUS
 62
     6
100
AcDbLine
 10
329.006886
 20
242.263615
 30
0.0
 11
327.852186
 21
240.263615
 31
0.0
  0
LINE
  5
1F0
330
1F
100
AcDbEntity
  8
GR1-1
  6
CONTINUOUS
 62
     6
100
AcDbLine
 10
327.852186
 20
240.263615
 30
0.0
 11
329.006886
 21
238.263615
 31
0.0
  0
LINE
  5
1F1
330
1F
100
AcDbEntity
  8
GR1-1
  6
CONTINUOUS
 62
     6
100
AcDbLine
 10
329.699707
 20
237.063615
 30
0.0
 11
330.854407
 21
239.063615
 31
0.0
  0
LINE
  5
1F2
330
1F
100
AcDbEntity
  8
GR1-1
  6
CONTINUOUS
 62
     6
100
AcDbLine
 10
330.854407
 20
239.063615
 30
0.0
 11
332.009108
 21
237.063615
 31
0.0
  0
LINE
  5
1F3
330
1F
100
AcDbEntity
  8
GR1-1
  6
CONTINUOUS
 62
     6
100
AcDbLine
 10
332.009108
 20
237.063615
 30
0.0
 11
330.854407
 21
235.063615
 31
0.0
  0
LINE
  5
1F4
330
1F
100
AcDbEntity
  8
GR1-1
  6
CONTINUOUS
 62
     6
100
AcDbLine
 10
330.854407
 20
235.063615
 30
0.0
 11
329.699707
 21
237.063615
 31
0.0
  0
LINE
  5
1F5
330
1F
100
AcDbEntity
  8
GR1-1
  6
CONTINUOUS
 62
     6
100
AcDbLine
 10
332.701928
 20
235.863615
 30
0.0
 11
331.547228
 21
233.863615
 31
0.0
  0
LINE
  5
1F6
330
1F
100
AcDbEntity
  8
GR1-1
  6
CONTINUOUS
 62
     6
100
AcDbLine
 10
331.547228
 20
233.863615
 30
0.0
 11
332.162812
 21
232.797391
 31
0.0
  0
LINE
  5
1F7
330
1F
100
AcDbEntity
  8
GR1-1
  6
CONTINUOUS
 62
     6
100
AcDbLine
 10
331.092337
 20
232.251508
 30
0.0
 11
330.854407
 21
232.663615
 31
0.0
  0
LINE
  5
1F8
330
1F
100
AcDbEntity
  8
GR1-1
  6
CONTINUOUS
 62
     6
100
AcDbLine
 10
330.854407
 20
232.663615
 30
0.0
 11
330.506371
 21
232.060799
 31
0.0
  0
LINE
  5
1F9
330
1F
100
AcDbEntity
  8
GR1-1
  6
CONTINUOUS
 62
     6
100
AcDbLine
 10
333.660981
 20
234.202487
 30
0.0
 11
332.701928
 21
235.863615
 31
0.0
  0
LINE
  5
1FA
330
1F
100
AcDbEntity
  8
GR1-1
  6
CONTINUOUS
 62
     6
100
AcDbLine
 10
333.394749
 20
237.063615
 30
0.0
 11
334.549449
 21
239.063615
 31
0.0
  0
LINE
  5
1FB
330
1F
100
AcDbEntity
  8
GR1-1
  6
CONTINUOUS
 62
     6
100
AcDbLine
 10
334.549449
 20
239.063615
 30
0.0
 11
334.806886
 21
238.61772
 31
0.0
  0
LINE
  5
1FC
330
1F
100
AcDbEntity
  8
GR1-1
  6
CONTINUOUS
 62
     6
100
AcDbLine
 10
333.856629
 20
240.263615
 30
0.0
 11
332.701928
 21
238.263615
 31
0.0
  0
LINE
  5
1FD
330
1F
100
AcDbEntity
  8
GR1-1
  6
CONTINUOUS
 62
     6
100
AcDbLine
 10
332.701928
 20
238.263615
 30
0.0
 11
331.547228
 21
240.263615
 31
0.0
  0
LINE
  5
1FE
330
1F
100
AcDbEntity
  8
GR1-1
  6
CONTINUOUS
 62
     6
100
AcDbLine
 10
331.547228
 20
240.263615
 30
0.0
 11
332.701928
 21
242.263615
 31
0.0
  0
LINE
  5
1FF
330
1F
100
AcDbEntity
  8
GR1-1
  6
CONTINUOUS
 62
     6
100
AcDbLine
 10
332.701928
 20
242.263615
 30
0.0
 11
333.856629
 21
240.263615
 31
0.0
  0
LINE
  5
200
330
1F
100
AcDbEntity
  8
GR1-1
  6
CONTINUOUS
 62
     6
100
AcDbLine
 10
334.549449
 20
241.463615
 30
0.0
 11
333.394749
 21
243.463615
 31
0.0
  0
LINE
  5
201
330
1F
100
AcDbEntity
  8
GR1-1
  6
CONTINUOUS
 62
     6
100
AcDbLine
 10
333.394749
 20
243.463615
 30
0.0
 11
334.549449
 21
245.463615
 31
0.0
  0
LINE
  5
202
330
1F
100
AcDbEntity
  8
GR1-1
  6
CONTINUOUS
 62
     6
100
AcDbLine
 10
334.549449
 20
245.463615
 30
0.0
 11
334.806886
 21
245.01772
 31
0.0
  0
LINE
  5
203
330
1F
100
AcDbEntity
  8
GR1-1
  6
CONTINUOUS
 62
     6
100
AcDbLine
 10
333.856629
 20
246.663615
 30
0.0
 11
332.701928
 21
244.663615
 31
0.0
  0
LINE
  5
204
330
1F
100
AcDbEntity
  8
GR1-1
  6
CONTINUOUS
 62
     6
100
AcDbLine
 10
332.701928
 20
244.663615
 30
0.0
 11
331.547228
 21
246.663615
 31
0.0
  0
LINE
  5
205
330
1F
100
AcDbEntity
  8
GR1-1
  6
CONTINUOUS
 62
     6
100
AcDbLine
 10
331.547228
 20
246.663615
 30
0.0
 11
332.701928
 21
248.663615
 31
0.0
  0
LINE
  5
206
330
1F
100
AcDbEntity
  8
GR1-1
  6
CONTINUOUS
 62
     6
100
AcDbLine
 10
332.701928
 20
248.663615
 30
0.0
 11
333.856629
 21
246.663615
 31
0.0
  0
LINE
  5
207
330
1F
100
AcDbEntity
  8
GR1-1
  6
CONTINUOUS
 62
     6
100
AcDbLine
 10
334.549449
 20
247.863615
 30
0.0
 11
333.394749
 21
249.863615
 31
0.0
  0
LINE
  5
208
330
1F
100
AcDbEntity
  8
GR1-1
  6
CONTINUOUS
 62
     6
100
AcDbLine
 10
333.394749
 20
249.863615
 30
0.0
 11
334.549449
 21
251.863615
 31
0.0
  0
LINE
  5
209
330
1F
100
AcDbEntity
  8
GR1-1
  6
CONTINUOUS
 62
     6
100
AcDbLine
 10
334.549449
 20
251.863615
 30
0.0
 11
334.735082
 21
251.54209
 31
0.0
  0
LINE
  5
20A
330
1F
100
AcDbEntity
  8
GR1-1
  6
CONTINUOUS
 62
     6
100
AcDbLine
 10
333.856629
 20
253.063615
 30
0.0
 11
332.701928
 21
255.063615
 31
0.0
  0
LINE
  5
20B
330
1F
100
AcDbEntity
  8
GR1-1
  6
CONTINUOUS
 62
     6
100
AcDbLine
 10
332.701928
 20
255.063615
 30
0.0
 11
331.547228
 21
253.063615
 31
0.0
  0
LINE
  5
20C
330
1F
100
AcDbEntity
  8
GR1-1
  6
CONTINUOUS
 62
     6
100
AcDbLine
 10
331.547228
 20
253.063615
 30
0.0
 11
332.701928
 21
251.063615
 31
0.0
  0
LINE
  5
20D
330
1F
100
AcDbEntity
  8
GR1-1
  6
CONTINUOUS
 62
     6
100
AcDbLine
 10
332.701928
 20
251.063615
 30
0.0
 11
333.856629
 21
253.063615
 31
0.0
  0
LINE
  5
20E
330
1F
100
AcDbEntity
  8
GR1-1
  6
CONTINUOUS
 62
     6
100
AcDbLine
 10
334.549449
 20
254.263615
 30
0.0
 11
333.394749
 21
256.263615
 31
0.0
  0
LINE
  5
20F
330
1F
100
AcDbEntity
  8
GR1-1
  6
CONTINUOUS
 62
     6
100
AcDbLine
 10
333.394749
 20
256.263615
 30
0.0
 11
333.916529
 21
257.167365
 31
0.0
  0
ARC
  5
210
330
1F
100
AcDbEntity
  8
GR1-1
  6
CONTINUOUS
 62
     6
100
AcDbCircle
 10
329.006886
 20
238.063615
 30
0.0
 40
20.49999999999943
100
AcDbArc
 50
77.319617
 51
102.680383
  0
LINE
  5
211
330
1F
100
AcDbEntity
  8
GR1-1
  6
CONTINUOUS
 62
     6
100
AcDbLine
 10
324.965435
 20
258.063615
 30
0.0
 11
325.311845
 21
257.463615
 31
0.0
  0
LINE
  5
212
330
1F
100
AcDbEntity
  8
GR1-1
  6
CONTINUOUS
 62
     6
100
AcDbLine
 10
325.311845
 20
257.463615
 30
0.0
 11
325.658255
 21
258.063615
 31
0.0
  0
LINE
  5
213
330
1F
100
AcDbEntity
  8
GR1-1
  6
CONTINUOUS
 62
     6
100
AcDbLine
 10
327.043896
 20
258.063615
 30
0.0
 11
326.004665
 21
256.263615
 31
0.0
  0
LINE
  5
214
330
1F
100
AcDbEntity
  8
GR1-1
  6
CONTINUOUS
 62
     6
100
AcDbLine
 10
326.004665
 20
256.263615
 30
0.0
 11
327.159366
 21
254.263615
 31
0.0
  0
LINE
  5
215
330
1F
100
AcDbEntity
  8
GR1-1
  6
CONTINUOUS
 62
     6
100
AcDbLine
 10
327.159366
 20
254.263615
 30
0.0
 11
328.314066
 21
256.263615
 31
0.0
  0
LINE
  5
216
330
1F
100
AcDbEntity
  8
GR1-1
  6
CONTINUOUS
 62
     6
100
AcDbLine
 10
328.314066
 20
256.263615
 30
0.0
 11
327.274836
 21
258.063615
 31
0.0
  0
LINE
  5
217
330
1F
100
AcDbEntity
  8
GR1-1
  6
CONTINUOUS
 62
     6
100
AcDbLine
 10
328.660476
 20
258.063615
 30
0.0
 11
329.006886
 21
257.463615
 31
0.0
  0
LINE
  5
218
330
1F
100
AcDbEntity
  8
GR1-1
  6
CONTINUOUS
 62
     6
100
AcDbLine
 10
329.006886
 20
257.463615
 30
0.0
 11
329.353297
 21
258.063615
 31
0.0
  0
LINE
  5
219
330
1F
100
AcDbEntity
  8
GR1-1
  6
CONTINUOUS
 62
     6
100
AcDbLine
 10
330.738937
 20
258.063615
 30
0.0
 11
329.699707
 21
256.263615
 31
0.0
  0
LINE
  5
21A
330
1F
100
AcDbEntity
  8
GR1-1
  6
CONTINUOUS
 62
     6
100
AcDbLine
 10
329.699707
 20
256.263615
 30
0.0
 11
330.854407
 21
254.263615
 31
0.0
  0
LINE
  5
21B
330
1F
100
AcDbEntity
  8
GR1-1
  6
CONTINUOUS
 62
     6
100
AcDbLine
 10
330.854407
 20
254.263615
 30
0.0
 11
332.009108
 21
256.263615
 31
0.0
  0
LINE
  5
21C
330
1F
100
AcDbEntity
  8
GR1-1
  6
CONTINUOUS
 62
     6
100
AcDbLine
 10
332.009108
 20
256.263615
 30
0.0
 11
330.969877
 21
258.063615
 31
0.0
  0
LINE
  5
21D
330
1F
100
AcDbEntity
  8
GR1-1
  6
CONTINUOUS
 62
     6
100
AcDbLine
 10
332.355518
 20
258.063615
 30
0.0
 11
332.701928
 21
257.463615
 31
0.0
  0
LINE
  5
21E
330
1F
100
AcDbEntity
  8
GR1-1
  6
CONTINUOUS
 62
     6
100
AcDbLine
 10
332.701928
 20
257.463615
 30
0.0
 11
333.048338
 21
258.063615
 31
0.0
  0
LINE
  5
21F
330
1F
100
AcDbEntity
  8
GR1-1
  6
CONTINUOUS
 62
     6
100
AcDbLine
 10
334.665907
 20
254.465326
 30
0.0
 11
334.549449
 21
254.263615
 31
0.0
  0
LINE
  5
220
330
1F
100
AcDbEntity
  8
GR1-1
  6
CONTINUOUS
 62
     6
100
AcDbLine
 10
330.854407
 20
251.863615
 30
0.0
 11
329.699707
 21
249.863615
 31
0.0
  0
LINE
  5
221
330
1F
100
AcDbEntity
  8
GR1-1
  6
CONTINUOUS
 62
     6
100
AcDbLine
 10
329.699707
 20
249.863615
 30
0.0
 11
330.854407
 21
247.863615
 31
0.0
  0
LINE
  5
222
330
1F
100
AcDbEntity
  8
GR1-1
  6
CONTINUOUS
 62
     6
100
AcDbLine
 10
330.854407
 20
247.863615
 30
0.0
 11
332.009108
 21
249.863615
 31
0.0
  0
LINE
  5
223
330
1F
100
AcDbEntity
  8
GR1-1
  6
CONTINUOUS
 62
     6
100
AcDbLine
 10
332.009108
 20
249.863615
 30
0.0
 11
330.854407
 21
251.863615
 31
0.0
  0
LINE
  5
224
330
1F
100
AcDbEntity
  8
GR1-1
  6
CONTINUOUS
 62
     6
100
AcDbLine
 10
330.161587
 20
253.063615
 30
0.0
 11
329.006886
 21
255.063615
 31
0.0
  0
LINE
  5
225
330
1F
100
AcDbEntity
  8
GR1-1
  6
CONTINUOUS
 62
     6
100
AcDbLine
 10
329.006886
 20
255.063615
 30
0.0
 11
327.852186
 21
253.063615
 31
0.0
  0
LINE
  5
226
330
1F
100
AcDbEntity
  8
GR1-1
  6
CONTINUOUS
 62
     6
100
AcDbLine
 10
327.852186
 20
253.063615
 30
0.0
 11
328.961007
 21
251.143081
 31
0.0
  0
LINE
  5
227
330
1F
100
AcDbEntity
  8
GR1-1
  6
CONTINUOUS
 62
     6
100
AcDbLine
 10
329.052766
 20
251.143081
 30
0.0
 11
330.161587
 21
253.063615
 31
0.0
  0
LINE
  5
228
330
1F
100
AcDbEntity
  8
GR1-1
  6
CONTINUOUS
 62
     6
100
AcDbLine
 10
327.159366
 20
251.863615
 30
0.0
 11
328.314066
 21
249.863615
 31
0.0
  0
LINE
  5
229
330
1F
100
AcDbEntity
  8
GR1-1
  6
CONTINUOUS
 62
     6
100
AcDbLine
 10
328.314066
 20
249.863615
 30
0.0
 11
327.159366
 21
247.863615
 31
0.0
  0
LINE
  5
22A
330
1F
100
AcDbEntity
  8
GR1-1
  6
CONTINUOUS
 62
     6
100
AcDbLine
 10
327.159366
 20
247.863615
 30
0.0
 11
326.004665
 21
249.863615
 31
0.0
  0
LINE
  5
22B
330
1F
100
AcDbEntity
  8
GR1-1
  6
CONTINUOUS
 62
     6
100
AcDbLine
 10
326.004665
 20
249.863615
 30
0.0
 11
327.159366
 21
251.863615
 31
0.0
  0
LINE
  5
22C
330
1F
100
AcDbEntity
  8
GR1-1
  6
CONTINUOUS
 62
     6
100
AcDbLine
 10
326.466545
 20
253.063615
 30
0.0
 11
325.311845
 21
251.063615
 31
0.0
  0
LINE
  5
22D
330
1F
100
AcDbEntity
  8
GR1-1
  6
CONTINUOUS
 62
     6
100
AcDbLine
 10
325.311845
 20
251.063615
 30
0.0
 11
324.157144
 21
253.063615
 31
0.0
  0
LINE
  5
22E
330
1F
100
AcDbEntity
  8
GR1-1
  6
CONTINUOUS
 62
     6
100
AcDbLine
 10
324.157144
 20
253.063615
 30
0.0
 11
325.311845
 21
255.063615
 31
0.0
  0
LINE
  5
22F
330
1F
100
AcDbEntity
  8
GR1-1
  6
CONTINUOUS
 62
     6
100
AcDbLine
 10
325.311845
 20
255.063615
 30
0.0
 11
326.466545
 21
253.063615
 31
0.0
  0
LINE
  5
230
330
1F
100
AcDbEntity
  8
GR1-1
  6
CONTINUOUS
 62
     6
100
AcDbLine
 10
323.464324
 20
251.863615
 30
0.0
 11
323.278691
 21
251.54209
 31
0.0
  0
LINE
  5
231
330
1F
100
AcDbEntity
  8
GR1-1
  6
CONTINUOUS
 62
     6
100
AcDbLine
 10
323.464324
 20
251.863615
 30
0.0
 11
324.619024
 21
249.863615
 31
0.0
  0
LINE
  5
232
330
1F
100
AcDbEntity
  8
GR1-1
  6
CONTINUOUS
 62
     6
100
AcDbLine
 10
324.619024
 20
249.863615
 30
0.0
 11
323.464324
 21
247.863615
 31
0.0
  0
LINE
  5
233
330
1F
100
AcDbEntity
  8
GR1-1
  6
CONTINUOUS
 62
     6
100
AcDbLine
 10
323.464324
 20
247.863615
 30
0.0
 11
323.206886
 21
248.309509
 31
0.0
  0
LINE
  5
234
330
1F
100
AcDbEntity
  8
GR1-1
  6
CONTINUOUS
 62
     6
100
AcDbLine
 10
324.157144
 20
246.663615
 30
0.0
 11
325.311845
 21
244.663615
 31
0.0
  0
LINE
  5
235
330
1F
100
AcDbEntity
  8
GR1-1
  6
CONTINUOUS
 62
     6
100
AcDbLine
 10
325.311845
 20
244.663615
 30
0.0
 11
326.466545
 21
246.663615
 31
0.0
  0
LINE
  5
236
330
1F
100
AcDbEntity
  8
GR1-1
  6
CONTINUOUS
 62
     6
100
AcDbLine
 10
326.466545
 20
246.663615
 30
0.0
 11
325.311845
 21
248.663615
 31
0.0
  0
LINE
  5
237
330
1F
100
AcDbEntity
  8
GR1-1
  6
CONTINUOUS
 62
     6
100
AcDbLine
 10
325.311845
 20
248.663615
 30
0.0
 11
324.157144
 21
246.663615
 31
0.0
  0
LINE
  5
238
330
1F
100
AcDbEntity
  8
GR1-1
  6
CONTINUOUS
 62
     6
100
AcDbLine
 10
323.464324
 20
245.463615
 30
0.0
 11
323.206886
 21
245.01772
 31
0.0
  0
LINE
  5
239
330
1F
100
AcDbEntity
  8
GR1-1
  6
CONTINUOUS
 62
     6
100
AcDbLine
 10
323.464324
 20
245.463615
 30
0.0
 11
324.619024
 21
243.463615
 31
0.0
  0
LINE
  5
23A
330
1F
100
AcDbEntity
  8
GR1-1
  6
CONTINUOUS
 62
     6
100
AcDbLine
 10
324.619024
 20
243.463615
 30
0.0
 11
323.464324
 21
241.463615
 31
0.0
  0
LINE
  5
23B
330
1F
100
AcDbEntity
  8
GR1-1
  6
CONTINUOUS
 62
     6
100
AcDbLine
 10
323.464324
 20
241.463615
 30
0.0
 11
323.206886
 21
241.909509
 31
0.0
  0
LINE
  5
23C
330
1F
100
AcDbEntity
  8
GR1-1
  6
CONTINUOUS
 62
     6
100
AcDbLine
 10
326.004665
 20
243.463615
 30
0.0
 11
327.159366
 21
245.463615
 31
0.0
  0
LINE
  5
23D
330
1F
100
AcDbEntity
  8
GR1-1
  6
CONTINUOUS
 62
     6
100
AcDbLine
 10
327.159366
 20
245.463615
 30
0.0
 11
328.314066
 21
243.463615
 31
0.0
  0
LINE
  5
23E
330
1F
100
AcDbEntity
  8
GR1-1
  6
CONTINUOUS
 62
     6
100
AcDbLine
 10
328.314066
 20
243.463615
 30
0.0
 11
327.159366
 21
241.463615
 31
0.0
  0
LINE
  5
23F
330
1F
100
AcDbEntity
  8
GR1-1
  6
CONTINUOUS
 62
     6
100
AcDbLine
 10
327.159366
 20
241.463615
 30
0.0
 11
326.004665
 21
243.463615
 31
0.0
  0
LINE
  5
240
330
1F
100
AcDbEntity
  8
GR1-1
  6
CONTINUOUS
 62
     6
100
AcDbLine
 10
328.987882
 20
244.630697
 30
0.0
 11
330.161587
 21
246.663615
 31
0.0
  0
LINE
  5
241
330
1F
100
AcDbEntity
  8
GR1-1
  6
CONTINUOUS
 62
     6
100
AcDbLine
 10
330.161587
 20
246.663615
 30
0.0
 11
329.006886
 21
248.663615
 31
0.0
  0
LINE
  5
242
330
1F
100
AcDbEntity
  8
GR1-1
  6
CONTINUOUS
 62
     6
100
AcDbLine
 10
329.006886
 20
248.663615
 30
0.0
 11
327.852186
 21
246.663615
 31
0.0
  0
LINE
  5
243
330
1F
100
AcDbEntity
  8
GR1-1
  6
CONTINUOUS
 62
     6
100
AcDbLine
 10
327.852186
 20
246.663615
 30
0.0
 11
329.025891
 21
244.630697
 31
0.0
  0
LINE
  5
244
330
1F
100
AcDbEntity
  8
GR1-1
  6
CONTINUOUS
 62
     6
100
AcDbLine
 10
329.699707
 20
243.463615
 30
0.0
 11
330.854407
 21
241.463615
 31
0.0
  0
LINE
  5
245
330
1F
100
AcDbEntity
  8
GR1-1
  6
CONTINUOUS
 62
     6
100
AcDbLine
 10
330.854407
 20
241.463615
 30
0.0
 11
332.009108
 21
243.463615
 31
0.0
  0
LINE
  5
246
330
1F
100
AcDbEntity
  8
GR1-1
  6
CONTINUOUS
 62
     6
100
AcDbLine
 10
332.009108
 20
243.463615
 30
0.0
 11
330.854407
 21
245.463615
 31
0.0
  0
LINE
  5
247
330
1F
100
AcDbEntity
  8
GR1-1
  6
CONTINUOUS
 62
     6
100
AcDbLine
 10
330.854407
 20
245.463615
 30
0.0
 11
329.699707
 21
243.463615
 31
0.0
  0
LINE
  5
248
330
1F
100
AcDbEntity
  8
GR1-1
  6
CONTINUOUS
 62
     6
100
AcDbLine
 10
334.549449
 20
241.463615
 30
0.0
 11
334.806886
 21
241.909509
 31
0.0
  0
LINE
  5
249
330
1F
100
AcDbEntity
  8
GR1-1
  6
CONTINUOUS
 62
     6
100
AcDbLine
 10
333.394749
 20
237.063615
 30
0.0
 11
334.350442
 21
235.408306
 31
0.0
  0
LINE
  5
24A
330
1F
100
AcDbEntity
  8
GR1-1
  6
CONTINUOUS
 62
     6
100
AcDbLine
 10
334.549449
 20
247.863615
 30
0.0
 11
334.806886
 21
248.309509
 31
0.0
  0
LINE
  5
24B
330
1F
100
AcDbEntity
  8
GR1-1
  6
CONTINUOUS
 62
     6
100
AcDbLine
 10
323.464324
 20
254.263615
 30
0.0
 11
324.619024
 21
256.263615
 31
0.0
  0
LINE
  5
24C
330
1F
100
AcDbEntity
  8
GR1-1
  6
CONTINUOUS
 62
     6
100
AcDbLine
 10
324.619024
 20
256.263615
 30
0.0
 11
324.097244
 21
257.167365
 31
0.0
  0
LINE
  5
24D
330
1F
100
AcDbEntity
  8
GR1-1
  6
CONTINUOUS
 62
     6
100
AcDbLine
 10
323.347866
 20
254.465326
 30
0.0
 11
323.464324
 21
254.263615
 31
0.0
  0
LINE
  5
24E
330
1F
100
AcDbEntity
  8
GR1-1
  6
CENTER
 62
     6
100
AcDbLine
 10
339.527073
 20
271.4864
 30
0.0
 11
399.4867
 21
274.104293
 31
0.0
  0
ARC
  5
24F
330
1F
100
AcDbEntity
  8
GR1-1
  6
CENTER
 62
     6
100
AcDbCircle
 10
399.006886
 20
285.093824
 30
0.0
 40
11.0
100
AcDbArc
 50
272.5
 51
320.274519
  0
ARC
  5
250
330
1F
100
AcDbEntity
  8
GR1-1
  6
CENTER
 62
     6
100
AcDbCircle
 10
218.345787
 20
174.293615
 30
0.0
 40
5.0
100
AcDbArc
 50
2.5
 51
90.0
  0
LINE
  5
251
330
1F
100
AcDbEntity
  8
GR1-1
  6
CENTER
 62
     6
100
AcDbLine
 10
369.006886
 20
129.751602
 30
0.0
 11
369.006886
 21
41.576118
 31
0.0
  0
ARC
  5
252
330
1F
100
AcDbEntity
  8
LAYERGROUP-1
  6
CONTINUOUS
 62
     3
100
AcDbCircle
 10
409.006886
 20
208.626115
 30
0.0
 40
4.762499999999989
100
AcDbArc
 50
46.202032
 51
133.797968
  0
ARC
  5
253
330
1F
100
AcDbEntity
  8
LAYERGROUP-1
  6
CONTINUOUS
 62
     3
100
AcDbCircle
 10
418.395214
 20
208.626115
 30
0.0
 40
4.762499999999989
100
AcDbArc
 50
46.202032
 51
133.797968
  0
ARC
  5
254
330
1F
100
AcDbEntity
  8
LAYERGROUP-1
  6
CONTINUOUS
 62
     3
100
AcDbCircle
 10
426.92462
 20
208.626115
 30
0.0
 40
4.762499999999989
100
AcDbArc
 50
46.202032
 51
133.797968
  0
ARC
  5
255
330
1F
100
AcDbEntity
  8
LAYERGROUP-1
  6
CONTINUOUS
 62
     3
100
AcDbCircle
 10
433.814761
 20
208.626115
 30
0.0
 40
4.762499999999989
100
AcDbArc
 50
46.202032
 51
133.797968
  0
ARC
  5
256
330
1F
100
AcDbEntity
  8
LAYERGROUP-1
  6
CONTINUOUS
 62
     3
100
AcDbCircle
 10
438.435271
 20
208.626115
 30
0.0
 40
4.762499999999989
100
AcDbArc
 50
46.202032
 51
119.01856
  0
ARC
  5
257
330
1F
100
AcDbEntity
  8
LAYERGROUP-1
  6
CONTINUOUS
 62
     3
100
AcDbCircle
 10
440.363427
 20
208.626115
 30
0.0
 40
4.762499999999989
100
AcDbArc
 50
46.202032
 51
101.679156
  0
ARC
  5
258
330
1F
100
AcDbEntity
  8
LAYERGROUP-1
  6
CONTINUOUS
 62
     3
100
AcDbCircle
 10
399.618558
 20
208.626115
 30
0.0
 40
4.762499999999989
100
AcDbArc
 50
46.202032
 51
133.797968
  0
ARC
  5
259
330
1F
100
AcDbEntity
  8
LAYERGROUP-1
  6
CONTINUOUS
 62
     3
100
AcDbCircle
 10
391.089153
 20
208.626115
 30
0.0
 40
4.762499999999989
100
AcDbArc
 50
46.202032
 51
133.797968
  0
ARC
  5
25A
330
1F
100
AcDbEntity
  8
LAYERGROUP-1
  6
CONTINUOUS
 62
     3
100
AcDbCircle
 10
384.199012
 20
208.626115
 30
0.0
 40
4.762499999999989
100
AcDbArc
 50
46.202032
 51
133.797968
  0
ARC
  5
25B
330
1F
100
AcDbEntity
  8
LAYERGROUP-1
  6
CONTINUOUS
 62
     3
100
AcDbCircle
 10
379.578502
 20
208.626115
 30
0.0
 40
4.762499999999989
100
AcDbArc
 50
60.98144
 51
133.797968
  0
ARC
  5
25C
330
1F
100
AcDbEntity
  8
LAYERGROUP-1
  6
CONTINUOUS
 62
     3
100
AcDbCircle
 10
377.650346
 20
208.626115
 30
0.0
 40
4.762499999999989
100
AcDbArc
 50
78.320844
 51
133.797968
  0
ARC
  5
25D
330
1F
100
AcDbEntity
  8
GR1-1
  6
CONTINUOUS
 62
     3
100
AcDbCircle
 10
151.882246
 20
166.927352
 30
0.0
 40
1.5
100
AcDbArc
 50
80.681745
 51
180.0
  0
ARC
  5
25E
330
1F
100
AcDbEntity
  8
GR1-1
  6
CONTINUOUS
 62
     3
100
AcDbCircle
 10
179.382246
 20
166.927352
 30
0.0
 40
1.5
100
AcDbArc
 50
0.0
 51
99.318255
  0
ARC
  5
25F
330
1F
100
AcDbEntity
  8
GR1-1
  6
CONTINUOUS
 62
     3
100
AcDbCircle
 10
263.132246
 20
165.293615
 30
0.0
 40
3.5
100
AcDbArc
 50
-90.0
 51
90.0
  0
LINE
  5
260
330
1F
100
AcDbEntity
  8
GR1-1
  6
CONTINUOUS
 62
     3
100
AcDbLine
 10
192.132246
 20
88.863615
 30
0.0
 11
192.132246
 21
188.022125
 31
0.0
  0
LINE
  5
261
330
1F
100
AcDbEntity
  8
GR1-1
  6
CONTINUOUS
 62
     3
100
AcDbLine
 10
195.332246
 20
192.463615
 30
0.0
 11
195.332246
 21
88.863615
 31
0.0
  0
LINE
  5
262
330
1F
100
AcDbEntity
  8
GR1-1
  6
CONTINUOUS
 62
     3
100
AcDbLine
 10
200.382246
 20
137.912697
 30
0.0
 11
200.382246
 21
194.563615
 31
0.0
  0
ARC
  5
263
330
1F
100
AcDbEntity
  8
GR1-1
  6
CONTINUOUS
 62
     3
100
AcDbCircle
 10
193.882246
 20
194.563615
 30
0.0
 40
6.5
100
AcDbArc
 50
0.0
 51
90.0
  0
LINE
  5
264
330
1F
100
AcDbEntity
  8
GR1-1
  6
CONTINUOUS
 62
     3
100
AcDbLine
 10
191.332246
 20
196.463615
 30
0.0
 11
139.932246
 21
196.463615
 31
0.0
  0
LINE
  5
265
330
1F
100
AcDbEntity
  8
GR1-1
  6
CONTINUOUS
 62
     3
100
AcDbLine
 10
150.632246
 20
187.463615
 30
0.0
 11
180.632246
 21
187.463615
 31
0.0
  0
ARC
  5
266
330
1F
100
AcDbEntity
  8
GR1-1
  6
CONTINUOUS
 62
     3
100
AcDbCircle
 10
178.364875
 20
352.82442
 30
0.0
 40
165.3763488064616
100
AcDbArc
 50
270.785571
 51
275.331824
  0
ARC
  5
267
330
1F
100
AcDbEntity
  8
GR1-1
  6
CONTINUOUS
 62
     3
100
AcDbCircle
 10
191.332246
 20
192.463615
 30
0.0
 40
4.0
100
AcDbArc
 50
0.0
 51
90.0
  0
LINE
  5
268
330
1F
100
AcDbEntity
  8
GR1-1
  6
CONTINUOUS
 62
     3
100
AcDbLine
 10
201.188663
 20
201.063615
 30
0.0
 11
130.075829
 21
201.063615
 31
0.0
  0
ARC
  5
269
330
1F
100
AcDbEntity
  8
GR1-1
  6
CONTINUOUS
 62
     3
100
AcDbCircle
 10
130.075829
 20
205.063615
 30
0.0
 40
4.0
100
AcDbArc
 50
185.225927
 51
270.0
  0
LINE
  5
26A
330
1F
100
AcDbEntity
  8
GR1-1
  6
CONTINUOUS
 62
     3
100
AcDbLine
 10
126.092456
 20
204.699282
 30
0.0
 11
125.432246
 21
212.063615
 31
0.0
  0
LINE
  5
26B
330
1F
100
AcDbEntity
  8
GR1-1
  6
CONTINUOUS
 62
     3
100
AcDbLine
 10
125.432246
 20
212.063615
 30
0.0
 11
205.832246
 21
212.063615
 31
0.0
  0
LINE
  5
26C
330
1F
100
AcDbEntity
  8
GR1-1
  6
CONTINUOUS
 62
     3
100
AcDbLine
 10
205.832246
 20
212.063615
 30
0.0
 11
205.172036
 21
204.699282
 31
0.0
  0
ARC
  5
26D
330
1F
100
AcDbEntity
  8
GR1-1
  6
CONTINUOUS
 62
     3
100
AcDbCircle
 10
201.188663
 20
205.063615
 30
0.0
 40
4.0
100
AcDbArc
 50
270.0
 51
354.774073
  0
LINE
  5
26E
330
1F
100
AcDbEntity
  8
GR1-1
  6
CONTINUOUS
 62
     3
100
AcDbLine
 10
202.561709
 20
213.388615
 30
0.0
 11
128.702783
 21
213.388615
 31
0.0
  0
ARC
  5
26F
330
1F
100
AcDbEntity
  8
GR1-1
  6
CONTINUOUS
 62
     3
100
AcDbCircle
 10
128.702783
 20
225.388615
 30
0.0
 40
12.0
100
AcDbArc
 50
225.099472
 51
270.0
  0
ARC
  5
270
330
1F
100
AcDbEntity
  8
GR1-1
  6
CONTINUOUS
 62
     3
100
AcDbCircle
 10
202.561709
 20
225.388615
 30
0.0
 40
12.0
100
AcDbArc
 50
270.0
 51
314.900528
  0
LINE
  5
271
330
1F
100
AcDbEntity
  8
GR1-1
  6
CONTINUOUS
 62
     3
100
AcDbLine
 10
219.632246
 20
216.888615
 30
0.0
 11
111.632246
 21
216.888615
 31
0.0
  0
LINE
  5
272
330
1F
100
AcDbEntity
  8
GR1-1
  6
CONTINUOUS
 62
     3
100
AcDbLine
 10
111.632246
 20
220.888615
 30
0.0
 11
219.632246
 21
220.888615
 31
0.0
  0
LINE
  5
273
330
1F
100
AcDbEntity
  8
GR1-1
  6
CONTINUOUS
 62
     3
100
AcDbLine
 10
219.632246
 20
220.888615
 30
0.0
 11
219.632246
 21
216.888615
 31
0.0
  0
ARC
  5
274
330
1F
100
AcDbEntity
  8
LAYERGROUP-1
  6
CONTINUOUS
 62
     3
100
AcDbCircle
 10
165.632246
 20
208.626115
 30
0.0
 40
4.762499999999989
100
AcDbArc
 50
46.202032
 51
133.797968
  0
ARC
  5
275
330
1F
100
AcDbEntity
  8
LAYERGROUP-1
  6
CONTINUOUS
 62
     3
100
AcDbCircle
 10
175.020574
 20
208.626115
 30
0.0
 40
4.762499999999989
100
AcDbArc
 50
46.202032
 51
133.797968
  0
ARC
  5
276
330
1F
100
AcDbEntity
  8
LAYERGROUP-1
  6
CONTINUOUS
 62
     3
100
AcDbCircle
 10
183.549979
 20
208.626115
 30
0.0
 40
4.762499999999989
100
AcDbArc
 50
46.202032
 51
133.797968
  0
ARC
  5
277
330
1F
100
AcDbEntity
  8
LAYERGROUP-1
  6
CONTINUOUS
 62
     3
100
AcDbCircle
 10
190.440121
 20
208.626115
 30
0.0
 40
4.762499999999989
100
AcDbArc
 50
46.202032
 51
133.797968
  0
ARC
  5
278
330
1F
100
AcDbEntity
  8
LAYERGROUP-1
  6
CONTINUOUS
 62
     3
100
AcDbCircle
 10
195.060631
 20
208.626115
 30
0.0
 40
4.762499999999989
100
AcDbArc
 50
46.202032
 51
119.01856
  0
ARC
  5
279
330
1F
100
AcDbEntity
  8
LAYERGROUP-1
  6
CONTINUOUS
 62
     3
100
AcDbCircle
 10
196.988786
 20
208.626115
 30
0.0
 40
4.762499999999989
100
AcDbArc
 50
46.202032
 51
101.679156
  0
ARC
  5
27A
330
1F
100
AcDbEntity
  8
LAYERGROUP-1
  6
CONTINUOUS
 62
     3
100
AcDbCircle
 10
156.243918
 20
208.626115
 30
0.0
 40
4.762499999999989
100
AcDbArc
 50
46.202032
 51
133.797968
  0
ARC
  5
27B
330
1F
100
AcDbEntity
  8
LAYERGROUP-1
  6
CONTINUOUS
 62
     3
100
AcDbCircle
 10
147.714512
 20
208.626115
 30
0.0
 40
4.762499999999989
100
AcDbArc
 50
46.202032
 51
133.797968
  0
ARC
  5
27C
330
1F
100
AcDbEntity
  8
LAYERGROUP-1
  6
CONTINUOUS
 62
     3
100
AcDbCircle
 10
140.824371
 20
208.626115
 30
0.0
 40
4.762499999999989
100
AcDbArc
 50
46.202032
 51
133.797968
  0
ARC
  5
27D
330
1F
100
AcDbEntity
  8
LAYERGROUP-1
  6
CONTINUOUS
 62
     3
100
AcDbCircle
 10
136.203861
 20
208.626115
 30
0.0
 40
4.762499999999989
100
AcDbArc
 50
60.98144
 51
133.797968
  0
ARC
  5
27E
330
1F
100
AcDbEntity
  8
LAYERGROUP-1
  6
CONTINUOUS
 62
     3
100
AcDbCircle
 10
134.275705
 20
208.626115
 30
0.0
 40
4.762499999999989
100
AcDbArc
 50
78.320844
 51
133.797968
  0
LINE
  5
27F
330
1F
100
AcDbEntity
  8
GR1-1
  6
CONTINUOUS
 62
     3
100
AcDbLine
 10
111.632246
 20
220.888615
 30
0.0
 11
111.632246
 21
216.888615
 31
0.0
  0
LINE
  5
280
330
1F
100
AcDbEntity
  8
GR1-1
  6
CONTINUOUS
 62
     3
100
AcDbLine
 10
195.332246
 20
188.167117
 30
0.0
 11
198.596989
 21
188.167117
 31
0.0
  0
LINE
  5
281
330
1F
100
AcDbEntity
  8
}}ﾊﾊGG血CCТ
  6
CENTER
 62
     6
100
AcDbLine
 10
450.006886
 20
223.573362
 30
0.0
 11
450.006886
 21
212.809019
 31
0.0
  0
LINE
  5
282
330
1F
100
AcDbEntity
  8
}}ﾊﾊGG血CCТ
  6
CENTER
 62
     6
100
AcDbLine
 10
448.506886
 20
223.573362
 30
0.0
 11
448.506886
 21
212.809019
 31
0.0
  0
LINE
  5
283
330
1F
100
AcDbEntity
  8
}}ﾊﾊGG血CCТ
  6
CENTER
 62
     6
100
AcDbLine
 10
368.006886
 20
223.573362
 30
0.0
 11
368.006886
 21
212.809019
 31
0.0
  0
LINE
  5
284
330
1F
100
AcDbEntity
  8
}}ﾊﾊGG血CCТ
  6
CENTER
 62
     6
100
AcDbLine
 10
369.506886
 20
223.573362
 30
0.0
 11
369.506886
 21
212.809019
 31
0.0
  0
LINE
  5
285
330
1F
100
AcDbEntity
  8
}}ﾊﾊGG血CCТ
  6
CENTER
 62
     6
100
AcDbLine
 10
206.632246
 20
223.573362
 30
0.0
 11
206.632246
 21
212.809019
 31
0.0
  0
LINE
  5
286
330
1F
100
AcDbEntity
  8
}}ﾊﾊGG血CCТ
  6
CENTER
 62
     6
100
AcDbLine
 10
205.132246
 20
223.573362
 30
0.0
 11
205.132246
 21
212.809019
 31
0.0
  0
LINE
  5
287
330
1F
100
AcDbEntity
  8
}}ﾊﾊGG血CCТ
  6
CENTER
 62
     6
100
AcDbLine
 10
124.632246
 20
223.573362
 30
0.0
 11
124.632246
 21
212.809019
 31
0.0
  0
LINE
  5
288
330
1F
100
AcDbEntity
  8
}}ﾊﾊGG血CCТ
  6
CENTER
 62
     6
100
AcDbLine
 10
126.132246
 20
223.573362
 30
0.0
 11
126.132246
 21
212.809019
 31
0.0
  0
LINE
  5
289
330
1F
100
AcDbEntity
  8
GR1-1
  6
CENTER
 62
     6
100
AcDbLine
 10
441.820729
 20
371.563615
 30
0.0
 11
455.944461
 21
371.563615
 31
0.0
  0
LINE
  5
28A
330
1F
100
AcDbEntity
  8
GR1-1
  6
CENTER
 62
     6
100
AcDbLine
 10
450.006886
 20
365.53001
 30
0.0
 11
450.006886
 21
379.697605
 31
0.0
  0
LINE
  5
28B
330
1F
100
AcDbEntity
  8
GR1-1
  6
CENTER
 62
     6
100
AcDbLine
 10
442.040042
 20
373.063615
 30
0.0
 11
457.041024
 21
373.063615
 31
0.0
  0
LINE
  5
28C
330
1F
100
AcDbEntity
  8
GR1-1
  6
CENTER
 62
     6
100
AcDbLine
 10
448.506886
 20
365.17911
 30
0.0
 11
448.506886
 21
379.478292
 31
0.0
  0
LINE
  5
28D
330
1F
100
AcDbEntity
  8
GR1-1
  6
CENTER
 62
     6
100
AcDbLine
 10
376.193044
 20
371.563615
 30
0.0
 11
362.069312
 21
371.563615
 31
0.0
  0
LINE
  5
28E
330
1F
100
AcDbEntity
  8
GR1-1
  6
CENTER
 62
     6
100
AcDbLine
 10
368.006886
 20
365.53001
 30
0.0
 11
368.006886
 21
379.697605
 31
0.0
  0
LINE
  5
28F
330
1F
100
AcDbEntity
  8
GR1-1
  6
CENTER
 62
     6
100
AcDbLine
 10
375.973731
 20
373.063615
 30
0.0
 11
360.972749
 21
373.063615
 31
0.0
  0
LINE
  5
290
330
1F
100
AcDbEntity
  8
GR1-1
  6
CENTER
 62
     6
100
AcDbLine
 10
369.506886
 20
365.17911
 30
0.0
 11
369.506886
 21
379.478292
 31
0.0
  0
LINE
  5
291
330
1F
100
AcDbEntity
  8
GR1-1
  6
CENTER
 62
     6
100
AcDbLine
 10
441.820729
 20
292.563615
 30
0.0
 11
455.944461
 21
292.563615
 31
0.0
  0
LINE
  5
292
330
1F
100
AcDbEntity
  8
GR1-1
  6
CENTER
 62
     6
100
AcDbLine
 10
450.006886
 20
298.597219
 30
0.0
 11
450.006886
 21
284.429625
 31
0.0
  0
LINE
  5
293
330
1F
100
AcDbEntity
  8
GR1-1
  6
CENTER
 62
     6
100
AcDbLine
 10
442.040042
 20
291.063615
 30
0.0
 11
457.041024
 21
291.063615
 31
0.0
  0
LINE
  5
294
330
1F
100
AcDbEntity
  8
GR1-1
  6
CENTER
 62
     6
100
AcDbLine
 10
448.506886
 20
298.948119
 30
0.0
 11
448.506886
 21
284.648937
 31
0.0
  0
LINE
  5
295
330
1F
100
AcDbEntity
  8
GR1-1
  6
CENTER
 62
     6
100
AcDbLine
 10
376.193044
 20
292.563615
 30
0.0
 11
362.069312
 21
292.563615
 31
0.0
  0
LINE
  5
296
330
1F
100
AcDbEntity
  8
GR1-1
  6
CENTER
 62
     6
100
AcDbLine
 10
368.006886
 20
298.597219
 30
0.0
 11
368.006886
 21
284.429625
 31
0.0
  0
LINE
  5
297
330
1F
100
AcDbEntity
  8
GR1-1
  6
CENTER
 62
     6
100
AcDbLine
 10
375.973731
 20
291.063615
 30
0.0
 11
360.972749
 21
291.063615
 31
0.0
  0
LINE
  5
298
330
1F
100
AcDbEntity
  8
GR1-1
  6
CENTER
 62
     6
100
AcDbLine
 10
369.506886
 20
298.948119
 30
0.0
 11
369.506886
 21
284.648937
 31
0.0
  0
LINE
  5
299
330
1F
100
AcDbEntity
  8
}}ﾊﾊGG血CCТ
  6
CONTINUOUS
 62
     3
100
AcDbLine
 10
199.332246
 20
186.723742
 30
0.0
 11
199.332246
 21
178.063488
 31
0.0
  0
TEXT
  5
29A
330
1F
100
AcDbEntity
  8
GR1-1
  6
CONTINUOUS
 62
     7
100
AcDbText
 10
482.106598
 20
127.891113
 30
0.0
 40
4.0
  1
177
 50
90.0
 41
0.828947
  7
STYLE1
 72
     5
 11
482.106598
 21
136.891113
 31
0.0
100
AcDbText
  0
LINE
  5
29B
330
1F
100
AcDbEntity
  8
GR1-1
  6
CONTINUOUS
 62
     7
100
AcDbLine
 10
464.006886
 20
220.888615
 30
0.0
 11
484.106609
 21
220.888615
 31
0.0
  0
LINE
  5
29C
330
1F
100
AcDbEntity
  8
GR1-1
  6
CONTINUOUS
 62
     7
100
AcDbLine
 10
370.006886
 20
43.893615
 30
0.0
 11
484.106609
 21
43.893615
 31
0.0
  0
LINE
  5
29D
330
1F
100
AcDbEntity
  8
GR1-1
  6
CONTINUOUS
 62
     7
100
AcDbLine
 10
483.106609
 20
220.888615
 30
0.0
 11
483.106609
 21
43.893615
 31
0.0
  0
INSERT
  5
29E
330
1F
100
AcDbEntity
  8
GR1-1
  6
CONTINUOUS
 62
     7
100
AcDbBlockReference
  2
FXTIP_ARROW_S
 10
483.106609
 20
220.888615
 30
0.0
 41
4.0
 42
4.0
 50
90.0
  0
INSERT
  5
29F
330
1F
100
AcDbEntity
  8
GR1-1
  6
CONTINUOUS
 62
     7
100
AcDbBlockReference
  2
FXTIP_ARROW_E
 10
483.106609
 20
43.893615
 30
0.0
 41
4.0
 42
4.0
 50
270.0
  0
TEXT
  5
2A0
330
1F
100
AcDbEntity
  8
GR1-1
  6
CONTINUOUS
 62
     7
100
AcDbText
 10
472.106598
 20
160.391113
 30
0.0
 40
4.0
  1
112
 50
90.0
 41
0.828947
  7
STYLE1
 72
     5
 11
472.106598
 21
169.391113
 31
0.0
100
AcDbText
  0
LINE
  5
2A1
330
1F
100
AcDbEntity
  8
GR1-1
  6
CONTINUOUS
 62
     7
100
AcDbLine
 10
439.066688
 20
108.893615
 30
0.0
 11
474.106609
 21
108.893615
 31
0.0
  0
LINE
  5
2A2
330
1F
100
AcDbEntity
  8
GR1-1
  6
CONTINUOUS
 62
     7
100
AcDbLine
 10
473.106609
 20
108.893615
 30
0.0
 11
473.106609
 21
220.888615
 31
0.0
  0
INSERT
  5
2A3
330
1F
100
AcDbEntity
  8
GR1-1
  6
CONTINUOUS
 62
     7
100
AcDbBlockReference
  2
FXTIP_ARROW_S
 10
473.106609
 20
108.893615
 30
0.0
 41
4.0
 42
4.0
 50
270.0
  0
INSERT
  5
2A4
330
1F
100
AcDbEntity
  8
GR1-1
  6
CONTINUOUS
 62
     7
100
AcDbBlockReference
  2
FXTIP_ARROW_E
 10
473.106609
 20
220.888615
 30
0.0
 41
4.0
 42
4.0
 50
90.0
  0
TEXT
  5
2A5
330
1F
100
AcDbEntity
  8
GR1-1
  6
CONTINUOUS
 62
     7
100
AcDbText
 10
492.124725
 20
327.563629
 30
0.0
 40
4.0
  1
108
 50
90.0
 41
0.828947
  7
STYLE1
 72
     5
 11
492.124725
 21
336.563629
 31
0.0
100
AcDbText
  0
LINE
  5
2A6
330
1F
100
AcDbEntity
  8
GR1-1
  6
CONTINUOUS
 62
     7
100
AcDbLine
 10
450.006886
 20
278.063615
 30
0.0
 11
494.124725
 21
278.063615
 31
0.0
  0
LINE
  5
2A7
330
1F
100
AcDbEntity
  8
GR1-1
  6
CONTINUOUS
 62
     7
100
AcDbLine
 10
450.006886
 20
386.063615
 30
0.0
 11
494.124725
 21
386.063615
 31
0.0
  0
LINE
  5
2A8
330
1F
100
AcDbEntity
  8
GR1-1
  6
CONTINUOUS
 62
     7
100
AcDbLine
 10
493.124725
 20
278.063615
 30
0.0
 11
493.124725
 21
386.063615
 31
0.0
  0
INSERT
  5
2A9
330
1F
100
AcDbEntity
  8
GR1-1
  6
CONTINUOUS
 62
     7
100
AcDbBlockReference
  2
FXTIP_ARROW_S
 10
493.124725
 20
278.063615
 30
0.0
 41
4.0
 42
4.0
 50
270.0
  0
INSERT
  5
2AA
330
1F
100
AcDbEntity
  8
GR1-1
  6
CONTINUOUS
 62
     7
100
AcDbBlockReference
  2
FXTIP_ARROW_E
 10
493.124725
 20
386.063615
 30
0.0
 41
4.0
 42
4.0
 50
90.0
  0
TEXT
  5
2AB
330
1F
100
AcDbEntity
  8
GR1-1
  6
CONTINUOUS
 62
     7
100
AcDbText
 10
482.124725
 20
329.063629
 30
0.0
 40
4.0
  1
82
 50
90.0
 41
0.851351
  7
STYLE1
 72
     5
 11
482.124725
 21
335.063629
 31
0.0
100
AcDbText
  0
LINE
  5
2AC
330
1F
100
AcDbEntity
  8
GR1-1
  6
CONTINUOUS
 62
     7
100
AcDbLine
 10
458.162759
 20
373.063615
 30
0.0
 11
484.124725
 21
373.063615
 31
0.0
  0
LINE
  5
2AD
330
1F
100
AcDbEntity
  8
GR1-1
  6
CONTINUOUS
 62
     7
100
AcDbLine
 10
458.162759
 20
291.063615
 30
0.0
 11
484.124725
 21
291.063615
 31
0.0
  0
LINE
  5
2AE
330
1F
100
AcDbEntity
  8
GR1-1
  6
CONTINUOUS
 62
     7
100
AcDbLine
 10
483.124725
 20
373.063615
 30
0.0
 11
483.124725
 21
291.063615
 31
0.0
  0
INSERT
  5
2AF
330
1F
100
AcDbEntity
  8
GR1-1
  6
CONTINUOUS
 62
     7
100
AcDbBlockReference
  2
FXTIP_ARROW_S
 10
483.124725
 20
373.063615
 30
0.0
 41
4.0
 42
4.0
 50
90.0
  0
INSERT
  5
2B0
330
1F
100
AcDbEntity
  8
GR1-1
  6
CONTINUOUS
 62
     7
100
AcDbBlockReference
  2
FXTIP_ARROW_E
 10
483.124725
 20
291.063615
 30
0.0
 41
4.0
 42
4.0
 50
270.0
  0
TEXT
  5
2B1
330
1F
100
AcDbEntity
  8
GR1-1
  6
CONTINUOUS
 62
     7
100
AcDbText
 10
472.124725
 20
329.063629
 30
0.0
 40
4.0
  1
79
 50
90.0
 41
0.875
  7
STYLE1
 72
     5
 11
472.124725
 21
335.063629
 31
0.0
100
AcDbText
  0
LINE
  5
2B2
330
1F
100
AcDbEntity
  8
GR1-1
  6
CONTINUOUS
 62
     7
100
AcDbLine
 10
456.662759
 20
292.563615
 30
0.0
 11
474.124725
 21
292.563615
 31
0.0
  0
LINE
  5
2B3
330
1F
100
AcDbEntity
  8
GR1-1
  6
CONTINUOUS
 62
     7
100
AcDbLine
 10
456.662759
 20
371.563615
 30
0.0
 11
474.124725
 21
371.563615
 31
0.0
  0
LINE
  5
2B4
330
1F
100
AcDbEntity
  8
GR1-1
  6
CONTINUOUS
 62
     7
100
AcDbLine
 10
473.124725
 20
292.563615
 30
0.0
 11
473.124725
 21
371.563615
 31
0.0
  0
INSERT
  5
2B5
330
1F
100
AcDbEntity
  8
GR1-1
  6
CONTINUOUS
 62
     7
100
AcDbBlockReference
  2
FXTIP_ARROW_S
 10
473.124725
 20
292.563615
 30
0.0
 41
4.0
 42
4.0
 50
270.0
  0
INSERT
  5
2B6
330
1F
100
AcDbEntity
  8
GR1-1
  6
CONTINUOUS
 62
     7
100
AcDbBlockReference
  2
FXTIP_ARROW_E
 10
473.124725
 20
371.563615
 30
0.0
 41
4.0
 42
4.0
 50
90.0
  0
TEXT
  5
2B7
330
1F
100
AcDbEntity
  8
GR1-1
  6
CONTINUOUS
 62
     7
100
AcDbText
 10
386.006897
 20
34.816528
 30
0.0
 40
4.0
  1
40
 41
0.851351
  7
STYLE1
 72
     5
 11
392.006897
 21
34.816528
 31
0.0
100
AcDbText
  0
LINE
  5
2B8
330
1F
100
AcDbEntity
  8
GR1-1
  6
CONTINUOUS
 62
     7
100
AcDbLine
 10
369.006886
 20
40.483527
 30
0.0
 11
369.006886
 21
32.816531
 31
0.0
  0
LINE
  5
2B9
330
1F
100
AcDbEntity
  8
GR1-1
  6
CONTINUOUS
 62
     7
100
AcDbLine
 10
409.006886
 20
134.898886
 30
0.0
 11
409.006886
 21
32.816531
 31
0.0
  0
LINE
  5
2BA
330
1F
100
AcDbEntity
  8
GR1-1
  6
CONTINUOUS
 62
     7
100
AcDbLine
 10
369.006886
 20
33.816531
 30
0.0
 11
409.006886
 21
33.816531
 31
0.0
  0
INSERT
  5
2BB
330
1F
100
AcDbEntity
  8
GR1-1
  6
CONTINUOUS
 62
     7
100
AcDbBlockReference
  2
FXTIP_ARROW_S
 10
369.006886
 20
33.816531
 30
0.0
 41
4.0
 42
4.0
 50
180.0
  0
INSERT
  5
2BC
330
1F
100
AcDbEntity
  8
GR1-1
  6
CONTINUOUS
 62
     7
100
AcDbBlockReference
  2
FXTIP_ARROW_E
 10
409.006886
 20
33.816531
 30
0.0
 41
4.0
 42
4.0
 50
360.0
  0
TEXT
  5
2BD
330
1F
100
AcDbEntity
  8
GR1-1
  6
CONTINUOUS
 62
     7
100
AcDbText
 10
342.487309
 20
390.097935
 30
0.0
 40
4.0
  1
4-11
 50
45.0
 41
0.818182
  7
STYLE1
 72
     5
 11
350.972591
 21
398.583217
 31
0.0
100
AcDbText
  0
LINE
  5
2BE
330
1F
100
AcDbEntity
  8
GR1-1
  6
CONTINUOUS
 62
     7
100
AcDbLine
 10
363.410692
 20
369.881634
 30
0.0
 11
342.840851
 21
390.451476
 31
0.0
  0
LINE
  5
2BF
330
1F
100
AcDbEntity
  8
GR1-1
  6
CONTINUOUS
 62
     7
100
AcDbLine
 10
371.188867
 20
377.659809
 30
0.0
 11
350.619025
 21
398.22965
 31
0.0
  0
LINE
  5
2C0
330
1F
100
AcDbEntity
  8
GR1-1
  6
CONTINUOUS
 62
     7
100
AcDbLine
 10
343.547958
 20
389.744369
 30
0.0
 11
351.326132
 21
397.522544
 31
0.0
  0
INSERT
  5
2C1
330
1F
100
AcDbEntity
  8
GR1-1
  6
CONTINUOUS
 62
     7
100
AcDbBlockReference
  2
FXTIP_ARROW_S
 10
343.547958
 20
389.744369
 30
0.0
 41
4.0
 42
4.0
 50
225.0
  0
INSERT
  5
2C2
330
1F
100
AcDbEntity
  8
GR1-1
  6
CONTINUOUS
 62
     7
100
AcDbBlockReference
  2
FXTIP_ARROW_E
 10
351.326132
 20
397.522544
 30
0.0
 41
4.0
 42
4.0
 50
45.0
  0
TEXT
  5
2C3
330
1F
100
AcDbEntity
  8
GR1-1
  6
CONTINUOUS
 62
     7
100
AcDbText
 10
404.506897
 20
239.284988
 30
0.0
 40
4.0
  1
108
 41
0.828947
  7
STYLE1
 72
     5
 11
413.506897
 21
239.284988
 31
0.0
100
AcDbText
  0
LINE
  5
2C4
330
1F
100
AcDbEntity
  8
GR1-1
  6
CONTINUOUS
 62
     7
100
AcDbLine
 10
355.006886
 20
291.063615
 30
0.0
 11
355.006886
 21
237.284991
 31
0.0
  0
LINE
  5
2C5
330
1F
100
AcDbEntity
  8
GR1-1
  6
CONTINUOUS
 62
     7
100
AcDbLine
 10
463.006886
 20
291.563615
 30
0.0
 11
463.006886
 21
237.284991
 31
0.0
  0
LINE
  5
2C6
330
1F
100
AcDbEntity
  8
GR1-1
  6
CONTINUOUS
 62
     7
100
AcDbLine
 10
355.006886
 20
238.284991
 30
0.0
 11
463.006886
 21
238.284991
 31
0.0
  0
INSERT
  5
2C7
330
1F
100
AcDbEntity
  8
GR1-1
  6
CONTINUOUS
 62
     7
100
AcDbBlockReference
  2
FXTIP_ARROW_S
 10
355.006886
 20
238.284991
 30
0.0
 41
4.0
 42
4.0
 50
180.0
  0
INSERT
  5
2C8
330
1F
100
AcDbEntity
  8
GR1-1
  6
CONTINUOUS
 62
     7
100
AcDbBlockReference
  2
FXTIP_ARROW_E
 10
463.006886
 20
238.284991
 30
0.0
 41
4.0
 42
4.0
 50
360.0
  0
TEXT
  5
2C9
330
1F
100
AcDbEntity
  8
GR1-1
  6
CONTINUOUS
 62
     7
100
AcDbText
 10
406.006897
 20
249.284988
 30
0.0
 40
4.0
  1
82
 41
0.851351
  7
STYLE1
 72
     5
 11
412.006897
 21
249.284988
 31
0.0
100
AcDbText
  0
LINE
  5
2CA
330
1F
100
AcDbEntity
  8
GR1-1
  6
CONTINUOUS
 62
     7
100
AcDbLine
 10
368.006886
 20
282.730817
 30
0.0
 11
368.006886
 21
247.284991
 31
0.0
  0
LINE
  5
2CB
330
1F
100
AcDbEntity
  8
GR1-1
  6
CONTINUOUS
 62
     7
100
AcDbLine
 10
450.006886
 20
282.799383
 30
0.0
 11
450.006886
 21
247.284991
 31
0.0
  0
LINE
  5
2CC
330
1F
100
AcDbEntity
  8
GR1-1
  6
CONTINUOUS
 62
     7
100
AcDbLine
 10
368.006886
 20
248.284991
 30
0.0
 11
450.006886
 21
248.284991
 31
0.0
  0
INSERT
  5
2CD
330
1F
100
AcDbEntity
  8
GR1-1
  6
CONTINUOUS
 62
     7
100
AcDbBlockReference
  2
FXTIP_ARROW_S
 10
368.006886
 20
248.284991
 30
0.0
 41
4.0
 42
4.0
 50
180.0
  0
INSERT
  5
2CE
330
1F
100
AcDbEntity
  8
GR1-1
  6
CONTINUOUS
 62
     7
100
AcDbBlockReference
  2
FXTIP_ARROW_E
 10
450.006886
 20
248.284991
 30
0.0
 41
4.0
 42
4.0
 50
360.0
  0
TEXT
  5
2CF
330
1F
100
AcDbEntity
  8
GR1-1
  6
CONTINUOUS
 62
     7
100
AcDbText
 10
406.006897
 20
259.285004
 30
0.0
 40
4.0
  1
79
 41
0.875
  7
STYLE1
 72
     5
 11
412.006897
 21
259.285004
 31
0.0
100
AcDbText
  0
LINE
  5
2D0
330
1F
100
AcDbEntity
  8
GR1-1
  6
CONTINUOUS
 62
     7
100
AcDbLine
 10
369.506886
 20
284.299383
 30
0.0
 11
369.506886
 21
257.284991
 31
0.0
  0
LINE
  5
2D1
330
1F
100
AcDbEntity
  8
GR1-1
  6
CONTINUOUS
 62
     7
100
AcDbLine
 10
448.506886
 20
284.299383
 30
0.0
 11
448.506886
 21
257.284991
 31
0.0
  0
LINE
  5
2D2
330
1F
100
AcDbEntity
  8
GR1-1
  6
CONTINUOUS
 62
     7
100
AcDbLine
 10
369.506886
 20
258.284991
 30
0.0
 11
448.506886
 21
258.284991
 31
0.0
  0
INSERT
  5
2D3
330
1F
100
AcDbEntity
  8
GR1-1
  6
CONTINUOUS
 62
     7
100
AcDbBlockReference
  2
FXTIP_ARROW_S
 10
369.506886
 20
258.284991
 30
0.0
 41
4.0
 42
4.0
 50
180.0
  0
INSERT
  5
2D4
330
1F
100
AcDbEntity
  8
GR1-1
  6
CONTINUOUS
 62
     7
100
AcDbBlockReference
  2
FXTIP_ARROW_E
 10
448.506886
 20
258.284991
 30
0.0
 41
4.0
 42
4.0
 50
360.0
  0
TEXT
  5
2D5
330
1F
100
AcDbEntity
  8
GR1-1
  6
CONTINUOUS
 62
     7
100
AcDbText
 10
211.632263
 20
240.370117
 30
0.0
 40
4.0
  1
101
 41
0.926471
  7
STYLE1
 72
     5
 11
220.632263
 21
240.370117
 31
0.0
100
AcDbText
  0
LINE
  5
2D6
330
1F
100
AcDbEntity
  8
GR1-1
  6
CONTINUOUS
 62
     7
100
AcDbLine
 10
165.632246
 20
221.888615
 30
0.0
 11
165.632246
 21
240.370116
 31
0.0
  0
LINE
  5
2D7
330
1F
100
AcDbEntity
  8
GR1-1
  6
CONTINUOUS
 62
     7
100
AcDbLine
 10
266.632246
 20
166.293615
 30
0.0
 11
266.632246
 21
240.370116
 31
0.0
  0
LINE
  5
2D8
330
1F
100
AcDbEntity
  8
GR1-1
  6
CONTINUOUS
 62
     7
100
AcDbLine
 10
165.632246
 20
239.370116
 30
0.0
 11
266.632246
 21
239.370116
 31
0.0
  0
INSERT
  5
2D9
330
1F
100
AcDbEntity
  8
GR1-1
  6
CONTINUOUS
 62
     7
100
AcDbBlockReference
  2
FXTIP_ARROW_S
 10
165.632246
 20
239.370116
 30
0.0
 41
4.0
 42
4.0
 50
180.0
  0
INSERT
  5
2DA
330
1F
100
AcDbEntity
  8
GR1-1
  6
CONTINUOUS
 62
     7
100
AcDbBlockReference
  2
FXTIP_ARROW_E
 10
266.632246
 20
239.370116
 30
0.0
 41
4.0
 42
4.0
 50
360.0
  0
TEXT
  5
2DB
330
1F
100
AcDbEntity
  8
GR1-1
  6
CONTINUOUS
 62
     7
100
AcDbText
 10
310.944815
 20
268.323855
 30
0.0
 40
4.0
  1
131
 50
33.430359
 41
0.926471
  7
STYLE1
 72
     5
 11
318.45582
 21
273.282163
 31
0.0
100
AcDbText
  0
LINE
  5
2DC
330
1F
100
AcDbEntity
  8
GR1-1
  6
CONTINUOUS
 62
     7
100
AcDbLine
 10
300.231822
 20
260.25694
 30
0.0
 11
409.006886
 21
332.063615
 31
0.0
  0
INSERT
  5
2DD
330
1F
100
AcDbEntity
  8
GR1-1
  6
CONTINUOUS
 62
     7
100
AcDbBlockReference
  2
FXTIP_ARROW_S
 10
300.231822
 20
260.25694
 30
0.0
 41
4.0
 42
4.0
 50
213.430363
  0
TEXT
  5
2DE
330
1F
100
AcDbEntity
  8
GR1-1
  6
CONTINUOUS
 62
     7
100
AcDbText
 10
162.632263
 20
24.681232
 30
0.0
 40
4.0
  1
52
 41
0.851351
  7
STYLE1
 72
     5
 11
168.632263
 21
24.681232
 31
0.0
100
AcDbText
  0
LINE
  5
2DF
330
1F
100
AcDbEntity
  8
GR1-1
  6
CONTINUOUS
 62
     7
100
AcDbLine
 10
139.632246
 20
94.693615
 30
0.0
 11
139.632246
 21
22.681235
 31
0.0
  0
LINE
  5
2E0
330
1F
100
AcDbEntity
  8
GR1-1
  6
CONTINUOUS
 62
     7
100
AcDbLine
 10
191.632246
 20
95.094625
 30
0.0
 11
191.632246
 21
22.681235
 31
0.0
  0
LINE
  5
2E1
330
1F
100
AcDbEntity
  8
GR1-1
  6
CONTINUOUS
 62
     7
100
AcDbLine
 10
139.632246
 20
23.681235
 30
0.0
 11
191.632246
 21
23.681235
 31
0.0
  0
INSERT
  5
2E2
330
1F
100
AcDbEntity
  8
GR1-1
  6
CONTINUOUS
 62
     7
100
AcDbBlockReference
  2
FXTIP_ARROW_S
 10
139.632246
 20
23.681235
 30
0.0
 41
4.0
 42
4.0
 50
180.0
  0
INSERT
  5
2E3
330
1F
100
AcDbEntity
  8
GR1-1
  6
CONTINUOUS
 62
     7
100
AcDbBlockReference
  2
FXTIP_ARROW_E
 10
191.632246
 20
23.681235
 30
0.0
 41
4.0
 42
4.0
 50
360.0
  0
TEXT
  5
2E4
330
1F
100
AcDbEntity
  8
GR1-1
  6
CONTINUOUS
 62
     7
100
AcDbText
 10
162.632263
 20
34.681236
 30
0.0
 40
4.0
  1
38
 41
0.851351
  7
STYLE1
 72
     5
 11
168.632263
 21
34.681236
 31
0.0
100
AcDbText
  0
LINE
  5
2E5
330
1F
100
AcDbEntity
  8
GR1-1
  6
CONTINUOUS
 62
     7
100
AcDbLine
 10
146.632246
 20
55.893615
 30
0.0
 11
146.632246
 21
32.681235
 31
0.0
  0
LINE
  5
2E6
330
1F
100
AcDbEntity
  8
GR1-1
  6
CONTINUOUS
 62
     7
100
AcDbLine
 10
184.632246
 20
55.893615
 30
0.0
 11
184.632246
 21
32.681235
 31
0.0
  0
LINE
  5
2E7
330
1F
100
AcDbEntity
  8
GR1-1
  6
CONTINUOUS
 62
     7
100
AcDbLine
 10
146.632246
 20
33.681235
 30
0.0
 11
184.632246
 21
33.681235
 31
0.0
  0
INSERT
  5
2E8
330
1F
100
AcDbEntity
  8
GR1-1
  6
CONTINUOUS
 62
     7
100
AcDbBlockReference
  2
FXTIP_ARROW_S
 10
146.632246
 20
33.681235
 30
0.0
 41
4.0
 42
4.0
 50
180.0
  0
INSERT
  5
2E9
330
1F
100
AcDbEntity
  8
GR1-1
  6
CONTINUOUS
 62
     7
100
AcDbBlockReference
  2
FXTIP_ARROW_E
 10
184.632246
 20
33.681235
 30
0.0
 41
4.0
 42
4.0
 50
360.0
  0
TEXT
  5
2EA
330
1F
100
AcDbEntity
  8
GR1-1
  6
CONTINUOUS
 62
     7
100
AcDbText
 10
110.703621
 20
102.893616
 30
0.0
 40
4.0
  1
%%c130
 50
90.0
 41
0.828947
  7
STYLE1
 72
     5
 11
110.703621
 21
114.893616
 31
0.0
100
AcDbText
  0
LINE
  5
2EB
330
1F
100
AcDbEntity
  8
GR1-1
  6
CONTINUOUS
 62
     7
100
AcDbLine
 10
164.632246
 20
43.893619
 30
0.0
 11
110.703616
 21
43.893619
 31
0.0
  0
LINE
  5
2EC
330
1F
100
AcDbEntity
  8
GR1-1
  6
CONTINUOUS
 62
     7
100
AcDbLine
 10
164.632246
 20
173.893611
 30
0.0
 11
110.703616
 21
173.893611
 31
0.0
  0
LINE
  5
2ED
330
1F
100
AcDbEntity
  8
GR1-1
  6
CONTINUOUS
 62
     7
100
AcDbLine
 10
111.703616
 20
43.893619
 30
0.0
 11
111.703616
 21
173.893611
 31
0.0
  0
INSERT
  5
2EE
330
1F
100
AcDbEntity
  8
GR1-1
  6
CONTINUOUS
 62
     7
100
AcDbBlockReference
  2
FXTIP_ARROW_S
 10
111.703616
 20
43.893619
 30
0.0
 41
4.0
 42
4.0
 50
270.0
  0
INSERT
  5
2EF
330
1F
100
AcDbEntity
  8
GR1-1
  6
CONTINUOUS
 62
     7
100
AcDbBlockReference
  2
FXTIP_ARROW_E
 10
111.703616
 20
173.893611
 30
0.0
 41
4.0
 42
4.0
 50
90.0
  0
TEXT
  5
2F0
330
1F
100
AcDbEntity
  8
}}ﾊﾊGG血CCТ
  6
CONTINUOUS
 62
     7
100
AcDbText
 10
429.0
 20
12.0
 30
0.0
 40
6.0
  1
W36A2ALA-C01
 41
0.72103
  7
FX_VECTOR
 72
     5
 11
477.0
 21
12.0
 31
0.0
100
AcDbText
  0
LINE
  5
2F1
330
1F
100
AcDbEntity
  8
LAYERGROUP-1
  6
CONTINUOUS
 62
     3
100
AcDbLine
 10
188.466239
 20
137.716477
 30
0.0
 11
184.632246
 21
145.173095
 31
0.0
  0
LINE
  5
2F3
330
1F
100
AcDbEntity
  8
1-1
  6
CONTINUOUS
 62
     3
100
AcDbLine
 10
184.632246
 20
108.893615
 30
0.0
 11
184.632246
 21
158.893615
 31
0.0
  0
ARC
  5
2F4
330
1F
100
AcDbEntity
  8
1-1
  6
CONTINUOUS
 62
     3
100
AcDbCircle
 10
165.632246
 20
133.893615
 30
0.0
 40
40.0
100
AcDbArc
 50
79.093422
 51
100.906578
  0
ARC
  5
2F5
330
1F
100
AcDbEntity
  8
1-1
  6
CONTINUOUS
 62
     3
100
AcDbCircle
 10
159.577585
 20
165.315599
 30
0.0
 40
8.0
100
AcDbArc
 50
100.906578
 51
150.0
  0
LINE
  5
2F6
330
1F
100
AcDbEntity
  8
1-1
  6
CONTINUOUS
 62
     3
100
AcDbLine
 10
152.649382
 20
169.315599
 30
0.0
 11
146.632246
 21
158.893615
 31
0.0
  0
ARC
  5
2F7
330
1F
100
AcDbEntity
  8
1-1
  6
CONTINUOUS
 62
     3
100
AcDbCircle
 10
171.686908
 20
165.315599
 30
0.0
 40
8.0
100
AcDbArc
 50
30.0
 51
79.093422
  0
LINE
  5
2F8
330
1F
100
AcDbEntity
  8
1-1
  6
CONTINUOUS
 62
     3
100
AcDbLine
 10
178.615111
 20
169.315599
 30
0.0
 11
184.632246
 21
158.893615
 31
0.0
  0
LINE
  5
2F9
330
1F
100
AcDbEntity
  8
LAYERGROUP-1
  6
CONTINUOUS
 62
     3
100
AcDbLine
 10
191.132246
 20
123.393615
 30
0.0
 11
188.632246
 21
123.393615
 31
0.0
  0
LINE
  5
2FA
330
1F
100
AcDbEntity
  8
LAYERGROUP-1
  6
CONTINUOUS
 62
     3
100
AcDbLine
 10
191.632246
 20
122.893615
 30
0.0
 11
191.132246
 21
123.393615
 31
0.0
  0
LINE
  5
2FB
330
1F
100
AcDbEntity
  8
LAYERGROUP-1
  6
CONTINUOUS
 62
     3
100
AcDbLine
 10
191.632246
 20
122.893615
 30
0.0
 11
191.632246
 21
94.893615
 31
0.0
  0
LINE
  5
2FC
330
1F
100
AcDbEntity
  8
LAYERGROUP-1
  6
CONTINUOUS
 62
     3
100
AcDbLine
 10
188.632246
 20
137.030574
 30
0.0
 11
188.632246
 21
80.756656
 31
0.0
  0
LINE
  5
2FD
330
1F
100
AcDbEntity
  8
GR1-1
  6
CONTINUOUS
 62
     6
100
AcDbLine
 10
176.632246
 20
171.603972
 30
0.0
 11
176.632246
 21
46.183258
 31
0.0
  0
ARC
  5
2FE
330
1F
100
AcDbEntity
  8
LAYERGROUP-1
  6
CONTINUOUS
 62
     3
100
AcDbCircle
 10
187.132246
 20
137.030574
 30
0.0
 40
1.5
100
AcDbArc
 50
0.0
 51
27.211012
  0
LINE
  5
2FF
330
1F
100
AcDbEntity
  8
GR1-1
  6
CONTINUOUS
 62
     6
100
AcDbLine
 10
191.132246
 20
123.393615
 30
0.0
 11
191.132246
 21
94.393615
 31
0.0
  0
LINE
  5
300
330
1F
100
AcDbEntity
  8
LAYERGROUP-1
  6
CONTINUOUS
 62
     3
100
AcDbLine
 10
142.798253
 20
137.716477
 30
0.0
 11
146.632246
 21
145.173095
 31
0.0
  0
LINE
  5
301
330
1F
100
AcDbEntity
  8
1-1
  6
CONTINUOUS
 62
     3
100
AcDbLine
 10
146.632246
 20
108.893615
 30
0.0
 11
146.632246
 21
158.893615
 31
0.0
  0
LINE
  5
302
330
1F
100
AcDbEntity
  8
1-1
  6
CONTINUOUS
 62
     3
100
AcDbLine
 10
152.649381
 20
169.315599
 30
0.0
 11
146.632246
 21
158.893615
 31
0.0
  0
LINE
  5
303
330
1F
100
AcDbEntity
  8
LAYERGROUP-1
  6
CONTINUOUS
 62
     3
100
AcDbLine
 10
140.132246
 20
123.393615
 30
0.0
 11
142.632246
 21
123.393615
 31
0.0
  0
LINE
  5
304
330
1F
100
AcDbEntity
  8
LAYERGROUP-1
  6
CONTINUOUS
 62
     3
100
AcDbLine
 10
139.632246
 20
122.893615
 30
0.0
 11
140.132246
 21
123.393615
 31
0.0
  0
LINE
  5
305
330
1F
100
AcDbEntity
  8
LAYERGROUP-1
  6
CONTINUOUS
 62
     3
100
AcDbLine
 10
139.632246
 20
122.893615
 30
0.0
 11
139.632246
 21
94.893615
 31
0.0
  0
LINE
  5
306
330
1F
100
AcDbEntity
  8
LAYERGROUP-1
  6
CONTINUOUS
 62
     3
100
AcDbLine
 10
142.632246
 20
137.030574
 30
0.0
 11
142.632246
 21
80.756656
 31
0.0
  0
LINE
  5
307
330
1F
100
AcDbEntity
  8
GR1-1
  6
CONTINUOUS
 62
     6
100
AcDbLine
 10
154.632246
 20
171.603972
 30
0.0
 11
154.632246
 21
46.183258
 31
0.0
  0
ARC
  5
308
330
1F
100
AcDbEntity
  8
LAYERGROUP-1
  6
CONTINUOUS
 62
     3
100
AcDbCircle
 10
144.132246
 20
137.030574
 30
0.0
 40
1.5
100
AcDbArc
 50
152.788988
 51
180.0
  0
LINE
  5
309
330
1F
100
AcDbEntity
  8
GR1-1
  6
CONTINUOUS
 62
     6
100
AcDbLine
 10
140.132246
 20
123.393615
 30
0.0
 11
140.132246
 21
94.393615
 31
0.0
  0
LINE
  5
30A
330
1F
100
AcDbEntity
  8
LAYERGROUP-1
  6
CONTINUOUS
 62
     3
100
AcDbLine
 10
188.466239
 20
80.070752
 30
0.0
 11
184.632246
 21
72.614135
 31
0.0
  0
LINE
  5
30B
330
1F
100
AcDbEntity
  8
1-1
  6
CONTINUOUS
 62
     3
100
AcDbLine
 10
184.632246
 20
108.893615
 30
0.0
 11
184.632246
 21
58.893615
 31
0.0
  0
ARC
  5
30C
330
1F
100
AcDbEntity
  8
1-1
  6
CONTINUOUS
 62
     3
100
AcDbCircle
 10
165.632246
 20
83.893615
 30
0.0
 40
40.0
100
AcDbArc
 50
259.093422
 51
280.906578
  0
ARC
  5
30D
330
1F
100
AcDbEntity
  8
1-1
  6
CONTINUOUS
 62
     3
100
AcDbCircle
 10
159.577585
 20
52.471631
 30
0.0
 40
8.0
100
AcDbArc
 50
210.0
 51
259.093422
  0
LINE
  5
30E
330
1F
100
AcDbEntity
  8
1-1
  6
CONTINUOUS
 62
     3
100
AcDbLine
 10
152.649382
 20
48.471631
 30
0.0
 11
146.632246
 21
58.893615
 31
0.0
  0
ARC
  5
30F
330
1F
100
AcDbEntity
  8
1-1
  6
CONTINUOUS
 62
     3
100
AcDbCircle
 10
171.686908
 20
52.471631
 30
0.0
 40
8.0
100
AcDbArc
 50
280.906578
 51
330.0
  0
LINE
  5
310
330
1F
100
AcDbEntity
  8
1-1
  6
CONTINUOUS
 62
     3
100
AcDbLine
 10
178.615111
 20
48.471631
 30
0.0
 11
184.632246
 21
58.893615
 31
0.0
  0
LINE
  5
311
330
1F
100
AcDbEntity
  8
LAYERGROUP-1
  6
CONTINUOUS
 62
     3
100
AcDbLine
 10
191.132246
 20
94.393615
 30
0.0
 11
188.632246
 21
94.393615
 31
0.0
  0
LINE
  5
312
330
1F
100
AcDbEntity
  8
LAYERGROUP-1
  6
CONTINUOUS
 62
     3
100
AcDbLine
 10
191.632246
 20
94.893615
 30
0.0
 11
191.132246
 21
94.393615
 31
0.0
  0
ARC
  5
313
330
1F
100
AcDbEntity
  8
LAYERGROUP-1
  6
CONTINUOUS
 62
     3
100
AcDbCircle
 10
187.132246
 20
80.756656
 30
0.0
 40
1.5
100
AcDbArc
 50
332.788988
 51
360.0
  0
LINE
  5
314
330
1F
100
AcDbEntity
  8
LAYERGROUP-1
  6
CONTINUOUS
 62
     3
100
AcDbLine
 10
142.798253
 20
80.070752
 30
0.0
 11
146.632246
 21
72.614135
 31
0.0
  0
LINE
  5
315
330
1F
100
AcDbEntity
  8
1-1
  6
CONTINUOUS
 62
     3
100
AcDbLine
 10
146.632246
 20
108.893615
 30
0.0
 11
146.632246
 21
58.893615
 31
0.0
  0
LINE
  5
316
330
1F
100
AcDbEntity
  8
1-1
  6
CONTINUOUS
 62
     3
100
AcDbLine
 10
152.649381
 20
48.471631
 30
0.0
 11
146.632246
 21
58.893615
 31
0.0
  0
LINE
  5
317
330
1F
100
AcDbEntity
  8
LAYERGROUP-1
  6
CONTINUOUS
 62
     3
100
AcDbLine
 10
140.132246
 20
94.393615
 30
0.0
 11
142.632246
 21
94.393615
 31
0.0
  0
LINE
  5
318
330
1F
100
AcDbEntity
  8
LAYERGROUP-1
  6
CONTINUOUS
 62
     3
100
AcDbLine
 10
139.632246
 20
94.893615
 30
0.0
 11
140.132246
 21
94.393615
 31
0.0
  0
ARC
  5
319
330
1F
100
AcDbEntity
  8
LAYERGROUP-1
  6
CONTINUOUS
 62
     3
100
AcDbCircle
 10
144.132246
 20
80.756656
 30
0.0
 40
1.5
100
AcDbArc
 50
180.0
 51
207.211012
  0
LINE
  5
31A
330
1F
100
AcDbEntity
  8
GR1-1
  6
CONTINUOUS
 62
     3
100
AcDbLine
 10
139.632246
 20
119.547804
 30
0.0
 11
139.132246
 21
119.547804
 31
0.0
  0
LINE
  5
31B
330
1F
100
AcDbEntity
  8
GR1-1
  6
CONTINUOUS
 62
     3
100
AcDbLine
 10
139.132246
 20
99.547804
 30
0.0
 11
139.632246
 21
99.547804
 31
0.0
  0
LINE
  5
31C
330
1F
100
AcDbEntity
  8
GR1-1
  6
CONTINUOUS
 62
     3
100
AcDbLine
 10
191.632246
 20
119.547804
 30
0.0
 11
192.132246
 21
119.547804
 31
0.0
  0
LINE
  5
31D
330
1F
100
AcDbEntity
  8
GR1-1
  6
CONTINUOUS
 62
     3
100
AcDbLine
 10
192.132246
 20
99.547804
 30
0.0
 11
191.632246
 21
99.547804
 31
0.0
  0
LINE
  5
31E
330
1F
100
AcDbEntity
  8
LAYERGROUP-1
  6
CONTINUOUS
 62
     3
100
AcDbLine
 10
355.006886
 20
309.063615
 30
0.0
 11
340.869927
 21
309.063615
 31
0.0
  0
LINE
  5
31F
330
1F
100
AcDbEntity
  8
GR1-1
  6
CONTINUOUS
 62
     6
100
AcDbLine
 10
355.006886
 20
321.063615
 30
0.0
 11
306.29653
 21
321.063615
 31
0.0
  0
LINE
  5
320
330
1F
100
AcDbEntity
  8
LAYERGROUP-1
  6
CONTINUOUS
 62
     3
100
AcDbLine
 10
355.006886
 20
355.063615
 30
0.0
 11
340.869927
 21
355.063615
 31
0.0
  0
LINE
  5
321
330
1F
100
AcDbEntity
  8
GR1-1
  6
CONTINUOUS
 62
     6
100
AcDbLine
 10
355.006886
 20
343.063615
 30
0.0
 11
306.29653
 21
343.063615
 31
0.0
  0
LINE
  5
322
330
1F
100
AcDbEntity
  8
LAYERGROUP-1
  6
CONTINUOUS
 62
     3
100
AcDbLine
 10
340.184024
 20
309.229622
 30
0.0
 11
332.727406
 21
313.063615
 31
0.0
  0
LINE
  5
323
330
1F
100
AcDbEntity
  8
1-1
  6
CONTINUOUS
 62
     3
100
AcDbLine
 10
355.006886
 20
313.063615
 30
0.0
 11
319.006886
 21
313.063615
 31
0.0
  0
ARC
  5
324
330
1F
100
AcDbEntity
  8
1-1
  6
CONTINUOUS
 62
     3
100
AcDbCircle
 10
344.006886
 20
332.063615
 30
0.0
 40
40.0
100
AcDbArc
 50
169.093422
 51
190.906578
  0
ARC
  5
325
330
1F
100
AcDbEntity
  8
1-1
  6
CONTINUOUS
 62
     3
100
AcDbCircle
 10
312.584902
 20
338.118276
 30
0.0
 40
8.0
100
AcDbArc
 50
120.0
 51
169.093422
  0
LINE
  5
326
330
1F
100
AcDbEntity
  8
1-1
  6
CONTINUOUS
 62
     3
100
AcDbLine
 10
308.584902
 20
345.046479
 30
0.0
 11
319.006886
 21
351.063615
 31
0.0
  0
ARC
  5
327
330
1F
100
AcDbEntity
  8
1-1
  6
CONTINUOUS
 62
     3
100
AcDbCircle
 10
312.584902
 20
326.008953
 30
0.0
 40
8.0
100
AcDbArc
 50
190.906578
 51
240.0
  0
LINE
  5
328
330
1F
100
AcDbEntity
  8
1-1
  6
CONTINUOUS
 62
     3
100
AcDbLine
 10
308.584902
 20
319.08075
 30
0.0
 11
319.006886
 21
313.063615
 31
0.0
  0
ARC
  5
329
330
1F
100
AcDbEntity
  8
LAYERGROUP-1
  6
CONTINUOUS
 62
     3
100
AcDbCircle
 10
340.869927
 20
310.563615
 30
0.0
 40
1.5
100
AcDbArc
 50
242.788988
 51
270.0
  0
LINE
  5
32A
330
1F
100
AcDbEntity
  8
LAYERGROUP-1
  6
CONTINUOUS
 62
     3
100
AcDbLine
 10
340.184024
 20
354.897608
 30
0.0
 11
332.727406
 21
351.063615
 31
0.0
  0
LINE
  5
32B
330
1F
100
AcDbEntity
  8
1-1
  6
CONTINUOUS
 62
     3
100
AcDbLine
 10
355.006886
 20
351.063615
 30
0.0
 11
319.006886
 21
351.063615
 31
0.0
  0
LINE
  5
32C
330
1F
100
AcDbEntity
  8
1-1
  6
CONTINUOUS
 62
     3
100
AcDbLine
 10
308.584902
 20
345.04648
 30
0.0
 11
319.006886
 21
351.063615
 31
0.0
  0
ARC
  5
32D
330
1F
100
AcDbEntity
  8
LAYERGROUP-1
  6
CONTINUOUS
 62
     3
100
AcDbCircle
 10
340.869927
 20
353.563615
 30
0.0
 40
1.5
100
AcDbArc
 50
90.0
 51
117.211012
  0
ARC
  5
32E
330
1F
100
AcDbEntity
  8
LAYERGROUP-1
  6
CONTINUOUS
 62
     3
100
AcDbCircle
 10
369.006886
 20
108.893615
 30
0.0
 40
23.49999999999994
100
AcDbArc
 50
159.092802
 51
354.54426
  0
ARC
  5
32F
330
1F
100
AcDbEntity
  8
LAYERGROUP-1
  6
DASHED
 62
     6
100
AcDbCircle
 10
369.006886
 20
108.893615
 30
0.0
 40
22.49999999999992
100
AcDbArc
 50
180.0
 51
346.035328
  0
ARC
  5
330
330
1F
100
AcDbEntity
  8
GR1-1
  6
CONTINUOUS
 62
     3
100
AcDbCircle
 10
369.006886
 20
108.893615
 30
0.0
 40
65.0
100
AcDbArc
 50
-232.26435
 51
44.211741
  0
ARC
  5
331
330
1F
100
AcDbEntity
  8
LAYERGROUP-1
  6
CONTINUOUS
 62
     6
100
AcDbCircle
 10
369.006886
 20
108.893615
 30
0.0
 40
45.0
100
AcDbArc
 50
-251.851562
 51
34.724493
  0
ARC
  5
332
330
1F
100
AcDbEntity
  8
LAYERGROUP-1
  6
CONTINUOUS
 62
     6
100
AcDbCircle
 10
369.006886
 20
108.893615
 30
0.0
 40
28.5
100
AcDbArc
 50
-228.24205
 51
13.455314
  0
ARC
  5
333
330
1F
100
AcDbEntity
  8
LAYERGROUP-1
  6
CONTINUOUS
 62
     6
100
AcDbCircle
 10
369.006886
 20
108.893615
 30
0.0
 40
30.0
100
AcDbArc
 50
127.885388
 51
143.416678
  0
LINE
  5
334
330
1F
100
AcDbEntity
  8
LAYERGROUP-1
  6
CONTINUOUS
 62
     6
100
AcDbLine
 10
337.113217
 20
110.565091
 30
0.0
 11
329.354138
 21
110.971727
 31
0.0
  0
LINE
  5
335
330
1F
100
AcDbEntity
  8
LAYERGROUP-1
  6
CONTINUOUS
 62
     6
100
AcDbLine
 10
342.221896
 20
126.287991
 30
0.0
 11
335.705655
 21
130.519687
 31
0.0
  0
LINE
  5
336
330
1F
100
AcDbEntity
  8
LAYERGROUP-1
  6
DASHED
 62
     6
100
AcDbLine
 10
344.287817
 20
123.157821
 30
0.0
 11
330.449752
 21
132.144365
 31
0.0
  0
LINE
  5
337
330
1F
100
AcDbEntity
  8
LAYERGROUP-1
  6
DASHED
 62
     6
100
AcDbLine
 10
340.624449
 20
111.883134
 30
0.0
 11
324.147061
 21
112.746677
 31
0.0
  0
ARC
  5
338
330
1F
100
AcDbEntity
  8
LAYERGROUP-1
  6
CONTINUOUS
 62
     6
100
AcDbCircle
 10
330.259264
 20
122.132982
 30
0.0
 40
10.0
100
AcDbArc
 50
57.0
 51
88.788331
  0
ARC
  5
339
330
1F
100
AcDbEntity
  8
LAYERGROUP-1
  6
CONTINUOUS
 62
     6
100
AcDbCircle
 10
329.877497
 20
120.958023
 30
0.0
 40
10.0
100
AcDbArc
 50
235.211669
 51
267.0
  0
ARC
  5
33A
330
1F
100
AcDbEntity
  8
LAYERGROUP-1
  6
CONTINUOUS
 62
     6
100
AcDbCircle
 10
343.311175
 20
127.965332
 30
0.0
 40
2.0
100
AcDbArc
 50
237.0
 51
323.416678
  0
ARC
  5
33B
330
1F
100
AcDbEntity
  8
LAYERGROUP-1
  6
CONTINUOUS
 62
     6
100
AcDbCircle
 10
337.008545
 20
108.567832
 30
0.0
 40
2.0
100
AcDbArc
 50
0.583322
 51
87.0
  0
LINE
  5
33C
330
1F
100
AcDbEntity
  8
LAYERGROUP-1
  6
CONTINUOUS
 62
     6
100
AcDbLine
 10
342.221896
 20
126.287991
 30
0.0
 11
344.287817
 21
123.157821
 31
0.0
  0
LINE
  5
33D
330
1F
100
AcDbEntity
  8
LAYERGROUP-1
  6
CONTINUOUS
 62
     6
100
AcDbLine
 10
344.287817
 20
123.157821
 30
0.0
 11
344.917157
 21
126.773349
 31
0.0
  0
LINE
  5
33E
330
1F
100
AcDbEntity
  8
LAYERGROUP-1
  6
CONTINUOUS
 62
     6
100
AcDbLine
 10
337.113217
 20
110.565091
 30
0.0
 11
340.624449
 21
111.883134
 31
0.0
  0
LINE
  5
33F
330
1F
100
AcDbEntity
  8
LAYERGROUP-1
  6
CONTINUOUS
 62
     6
100
AcDbLine
 10
340.624449
 20
111.883134
 30
0.0
 11
339.008441
 21
108.588193
 31
0.0
  0
LINE
  5
340
330
1F
100
AcDbEntity
  8
LAYERGROUP-1
  6
CONTINUOUS
 62
     6
100
AcDbLine
 10
357.747037
 20
79.560704
 30
0.0
 11
354.777111
 21
71.823782
 31
0.0
  0
LINE
  5
341
330
1F
100
AcDbEntity
  8
LAYERGROUP-1
  6
CONTINUOUS
 62
     6
100
AcDbLine
 10
344.186835
 20
88.794733
 30
0.0
 11
338.148623
 21
83.905085
 31
0.0
  0
LINE
  5
342
330
1F
100
AcDbEntity
  8
LAYERGROUP-1
  6
DASHED
 62
     6
100
AcDbLine
 10
347.802207
 20
89.792265
 30
0.0
 11
334.979299
 21
79.408478
 31
0.0
  0
LINE
  5
343
330
1F
100
AcDbEntity
  8
LAYERGROUP-1
  6
DASHED
 62
     6
100
AcDbLine
 10
357.393029
 20
82.824125
 30
0.0
 11
351.479958
 21
67.420047
 31
0.0
  0
ARC
  5
344
330
1F
100
AcDbEntity
  8
LAYERGROUP-1
  6
CONTINUOUS
 62
     6
100
AcDbCircle
 10
344.441827
 20
76.133626
 30
0.0
 40
10.0
100
AcDbArc
 50
129.0
 51
160.788331
  0
ARC
  5
345
330
1F
100
AcDbEntity
  8
LAYERGROUP-1
  6
CONTINUOUS
 62
     6
100
AcDbCircle
 10
345.441306
 20
75.407461
 30
0.0
 40
10.0
100
AcDbArc
 50
307.211669
 51
339.0
  0
ARC
  5
346
330
1F
100
AcDbEntity
  8
LAYERGROUP-1
  6
CONTINUOUS
 62
     6
100
AcDbCircle
 10
342.928194
 20
90.349025
 30
0.0
 40
2.0
100
AcDbArc
 50
-51.0
 51
35.416678
  0
ARC
  5
347
330
1F
100
AcDbEntity
  8
LAYERGROUP-1
  6
CONTINUOUS
 62
     6
100
AcDbCircle
 10
359.428693
 20
78.360711
 30
0.0
 40
2.0
100
AcDbArc
 50
72.583322
 51
159.0
  0
LINE
  5
348
330
1F
100
AcDbEntity
  8
LAYERGROUP-1
  6
CONTINUOUS
 62
     6
100
AcDbLine
 10
344.186835
 20
88.794733
 30
0.0
 11
347.802207
 21
89.792265
 31
0.0
  0
LINE
  5
349
330
1F
100
AcDbEntity
  8
LAYERGROUP-1
  6
CONTINUOUS
 62
     6
100
AcDbLine
 10
347.802207
 20
89.792265
 30
0.0
 11
344.558112
 21
91.508062
 31
0.0
  0
LINE
  5
34A
330
1F
100
AcDbEntity
  8
LAYERGROUP-1
  6
CONTINUOUS
 62
     6
100
AcDbLine
 10
357.561532
 20
79.077447
 30
0.0
 11
357.393029
 21
82.824125
 31
0.0
  0
LINE
  5
34B
330
1F
100
AcDbEntity
  8
LAYERGROUP-1
  6
CONTINUOUS
 62
     6
100
AcDbLine
 10
357.393029
 20
82.824125
 30
0.0
 11
360.02733
 21
80.269018
 31
0.0
  0
LINE
  5
34C
330
1F
100
AcDbEntity
  8
LAYERGROUP-1
  6
CONTINUOUS
 62
     6
100
AcDbLine
 10
393.424658
 20
89.120493
 30
0.0
 11
399.86515
 21
83.905085
 31
0.0
  0
LINE
  5
34D
330
1F
100
AcDbEntity
  8
LAYERGROUP-1
  6
CONTINUOUS
 62
     6
100
AcDbLine
 10
380.452241
 20
79.077447
 30
0.0
 11
383.236662
 21
71.823782
 31
0.0
  0
LINE
  5
34E
330
1F
100
AcDbEntity
  8
LAYERGROUP-1
  6
DASHED
 62
     6
100
AcDbLine
 10
380.620744
 20
82.824125
 30
0.0
 11
386.533815
 21
67.420047
 31
0.0
  0
LINE
  5
34F
330
1F
100
AcDbEntity
  8
LAYERGROUP-1
  6
DASHED
 62
     6
100
AcDbLine
 10
390.211566
 20
89.792265
 30
0.0
 11
403.034474
 21
79.408478
 31
0.0
  0
ARC
  5
350
330
1F
100
AcDbEntity
  8
LAYERGROUP-1
  6
CONTINUOUS
 62
     6
100
AcDbCircle
 10
392.572466
 20
75.407461
 30
0.0
 40
10.0
100
AcDbArc
 50
201.0
 51
232.788331
  0
ARC
  5
351
330
1F
100
AcDbEntity
  8
LAYERGROUP-1
  6
CONTINUOUS
 62
     6
100
AcDbCircle
 10
393.571946
 20
76.133626
 30
0.0
 40
10.0
100
AcDbArc
 50
19.211669
 51
51.0
  0
ARC
  5
352
330
1F
100
AcDbEntity
  8
LAYERGROUP-1
  6
CONTINUOUS
 62
     6
100
AcDbCircle
 10
378.58508
 20
78.360711
 30
0.0
 40
2.0
100
AcDbArc
 50
21.0
 51
107.416678
  0
ARC
  5
353
330
1F
100
AcDbEntity
  8
LAYERGROUP-1
  6
CONTINUOUS
 62
     6
100
AcDbCircle
 10
395.085579
 20
90.349025
 30
0.0
 40
2.0
100
AcDbArc
 50
144.583322
 51
231.0
  0
LINE
  5
354
330
1F
100
AcDbEntity
  8
LAYERGROUP-1
  6
CONTINUOUS
 62
     6
100
AcDbLine
 10
380.452241
 20
79.077447
 30
0.0
 11
380.620744
 21
82.824125
 31
0.0
  0
LINE
  5
355
330
1F
100
AcDbEntity
  8
LAYERGROUP-1
  6
CONTINUOUS
 62
     6
100
AcDbLine
 10
380.620744
 20
82.824125
 30
0.0
 11
377.986443
 21
80.269018
 31
0.0
  0
LINE
  5
356
330
1F
100
AcDbEntity
  8
LAYERGROUP-1
  6
CONTINUOUS
 62
     6
100
AcDbLine
 10
393.826938
 20
88.794733
 30
0.0
 11
390.211566
 21
89.792265
 31
0.0
  0
LINE
  5
357
330
1F
100
AcDbEntity
  8
LAYERGROUP-1
  6
CONTINUOUS
 62
     6
100
AcDbLine
 10
390.211566
 20
89.792265
 30
0.0
 11
393.455661
 21
91.508062
 31
0.0
  0
LINE
  5
358
330
1F
100
AcDbEntity
  8
LAYERGROUP-1
  6
CONTINUOUS
 62
     6
100
AcDbLine
 10
400.900556
 20
110.565091
 30
0.0
 11
408.659635
 21
110.971727
 31
0.0
  0
LINE
  5
359
330
1F
100
AcDbEntity
  8
LAYERGROUP-1
  6
DASHED
 62
     6
100
AcDbLine
 10
397.389324
 20
111.883134
 30
0.0
 11
413.866712
 21
112.746677
 31
0.0
  0
LINE
  5
35A
330
1F
100
AcDbEntity
  8
LAYERGROUP-1
  6
DASHED
 62
     6
100
AcDbLine
 10
403.563073
 20
129.54612
 30
0.0
 11
407.564021
 21
132.144365
 31
0.0
  0
ARC
  5
35B
330
1F
100
AcDbEntity
  8
LAYERGROUP-1
  6
CONTINUOUS
 62
     6
100
AcDbCircle
 10
408.136276
 20
120.958023
 30
0.0
 40
10.0
100
AcDbArc
 50
273.0
 51
304.788331
  0
ARC
  5
35C
330
1F
100
AcDbEntity
  8
LAYERGROUP-1
  6
CONTINUOUS
 62
     6
100
AcDbCircle
 10
407.754508
 20
122.132982
 30
0.0
 40
10.0
100
AcDbArc
 50
91.211669
 51
108.563096
  0
ARC
  5
35D
330
1F
100
AcDbEntity
  8
LAYERGROUP-1
  6
CONTINUOUS
 62
     6
100
AcDbCircle
 10
401.005228
 20
108.567832
 30
0.0
 40
2.0
100
AcDbArc
 50
93.0
 51
179.416678
  0
LINE
  5
35E
330
1F
100
AcDbEntity
  8
LAYERGROUP-1
  6
CONTINUOUS
 62
     6
100
AcDbLine
 10
400.900556
 20
110.565091
 30
0.0
 11
397.389324
 21
111.883134
 31
0.0
  0
LINE
  5
35F
330
1F
100
AcDbEntity
  8
LAYERGROUP-1
  6
CONTINUOUS
 62
     6
100
AcDbLine
 10
397.389324
 20
111.883134
 30
0.0
 11
399.005332
 21
108.588193
 31
0.0
  0
ARC
  5
360
330
1F
100
AcDbEntity
  8
LAYERGROUP-1
  6
CONTINUOUS
 62
     6
100
AcDbCircle
 10
369.006886
 20
108.893615
 30
0.0
 40
30.0
100
AcDbArc
 50
180.583322
 51
215.416678
  0
ARC
  5
361
330
1F
100
AcDbEntity
  8
LAYERGROUP-1
  6
CONTINUOUS
 62
     6
100
AcDbCircle
 10
369.006886
 20
108.893615
 30
0.0
 40
30.0
100
AcDbArc
 50
324.583322
 51
359.416678
  0
ARC
  5
362
330
1F
100
AcDbEntity
  8
LAYERGROUP-1
  6
CONTINUOUS
 62
     6
100
AcDbCircle
 10
369.006886
 20
108.893615
 30
0.0
 40
30.0
100
AcDbArc
 50
252.583322
 51
287.416678
  0
ARC
  5
363
330
1F
100
AcDbEntity
  8
LAYERGROUP-1
  6
CONTINUOUS
 62
     6
100
AcDbCircle
 10
369.006886
 20
108.893615
 30
0.0
 40
40.33
100
AcDbArc
 50
112.250523
 51
147.027582
  0
ARC
  5
364
330
1F
100
AcDbEntity
  8
LAYERGROUP-1
  6
CONTINUOUS
 62
     6
100
AcDbCircle
 10
369.006886
 20
108.893615
 30
0.0
 40
40.33
100
AcDbArc
 50
-39.027582
 51
3.027582
  0
ARC
  5
365
330
1F
100
AcDbEntity
  8
LAYERGROUP-1
  6
CONTINUOUS
 62
     6
100
AcDbCircle
 10
369.006886
 20
108.893615
 30
0.0
 40
41.26
100
AcDbArc
 50
5.083437
 51
30.916563
  0
ARC
  5
366
330
1F
100
AcDbEntity
  8
LAYERGROUP-1
  6
CONTINUOUS
 62
     6
100
AcDbCircle
 10
369.006886
 20
108.893615
 30
0.0
 40
41.26
100
AcDbArc
 50
149.083437
 51
174.916563
  0
ARC
  5
367
330
1F
100
AcDbEntity
  8
LAYERGROUP-1
  6
CONTINUOUS
 62
     6
100
AcDbCircle
 10
369.006886
 20
108.893615
 30
0.0
 40
40.33
100
AcDbArc
 50
176.972418
 51
219.027582
  0
ARC
  5
368
330
1F
100
AcDbEntity
  8
LAYERGROUP-1
  6
CONTINUOUS
 62
     6
100
AcDbCircle
 10
369.006886
 20
108.893615
 30
0.0
 40
41.26
100
AcDbArc
 50
221.083437
 51
246.916563
  0
ARC
  5
369
330
1F
100
AcDbEntity
  8
LAYERGROUP-1
  6
CONTINUOUS
 62
     6
100
AcDbCircle
 10
369.006886
 20
108.893615
 30
0.0
 40
41.26
100
AcDbArc
 50
293.083437
 51
318.916563
  0
ARC
  5
36A
330
1F
100
AcDbEntity
  8
LAYERGROUP-1
  6
CONTINUOUS
 62
     6
100
AcDbCircle
 10
369.006886
 20
108.893615
 30
0.0
 40
40.33
100
AcDbArc
 50
248.972418
 51
291.027582
  0
TEXT
  5
36B
330
1F
100
AcDbEntity
  8
LAYERGROUP-1
  6
CONTINUOUS
 62
     7
100
AcDbText
 10
337.74127
 20
100.759035
 30
0.0
 40
5.283366
  1
3
 50
99.814941
 41
0.896158
  7
FX_VECTOR
 72
     5
 11
337.087893
 21
104.535811
 31
0.0
100
AcDbText
  0
TEXT
  5
36C
330
1F
100
AcDbEntity
  8
LAYERGROUP-1
  6
CONTINUOUS
 62
     7
100
AcDbText
 10
337.040477
 20
104.445402
 30
0.0
 40
5.405993
  1
0
 50
93.414932
 41
0.926571
  7
FX_VECTOR
 72
     5
 11
336.798939
 21
108.493136
 31
0.0
100
AcDbText
  0
TEXT
  5
36D
330
1F
100
AcDbEntity
  8
LAYERGROUP-1
  6
CONTINUOUS
 62
     7
100
AcDbText
 10
338.842858
 20
97.324583
 30
0.0
 40
5.283366
  1
1
 50
106.214935
 41
1.384971
  7
FX_VECTOR
 72
     5
 11
337.77256
 21
101.004991
 31
0.0
100
AcDbText
  0
TEXT
  5
36E
330
1F
100
AcDbEntity
  8
LAYERGROUP-1
  6
CONTINUOUS
 62
     7
100
AcDbText
 10
340.320466
 20
94.03433
 30
0.0
 40
5.283366
  1
－
 50
112.614929
 41
1.015645
  7
FX_VECTOR
 72
     5
 11
338.846587
 21
97.572497
 31
0.0
100
AcDbText
  0
TEXT
  5
36F
330
1F
100
AcDbEntity
  8
LAYERGROUP-1
  6
CONTINUOUS
 62
     7
100
AcDbText
 10
342.397085
 20
90.173847
 30
0.0
 40
4.943328
  1
Ｗ
 50
119.014938
 41
1.500669
  7
FX_VECTOR
 72
     5
 11
339.826975
 21
94.807598
 31
0.0
100
AcDbText
  0
TEXT
  5
370
330
1F
100
AcDbEntity
  8
GR1-1
  6
CONTINUOUS
 62
     7
100
AcDbText
 10
324.905731
 20
77.730179
 30
0.0
 40
6.859291
  1
G
 50
119.0
 41
1.227141
  7
STYLE1
 72
     5
 11
321.407904
 21
84.040425
 31
0.0
100
AcDbText
  0
TEXT
  5
371
330
1F
100
AcDbEntity
  8
GR1-1
  6
CONTINUOUS
 62
     7
100
AcDbText
 10
320.971222
 20
84.242508
 30
0.0
 40
6.871621
  1
O
 50
111.0
 41
1.078764
  7
STYLE1
 72
     5
 11
318.567695
 21
90.503911
 31
0.0
100
AcDbText
  0
TEXT
  5
372
330
1F
100
AcDbEntity
  8
GR1-1
  6
CONTINUOUS
 62
     7
100
AcDbText
 10
317.715057
 20
92.111526
 30
0.0
 40
6.527997
  1
L
 50
103.0
 41
1.226867
  7
STYLE1
 72
     5
 11
316.342387
 21
98.057214
 31
0.0
100
AcDbText
  0
TEXT
  5
373
330
1F
100
AcDbEntity
  8
GR1-1
  6
CONTINUOUS
 62
     7
100
AcDbText
 10
315.951324
 20
98.759476
 30
0.0
 40
6.86603
  1
D
 50
95.0
 41
1.212857
  7
STYLE1
 72
     5
 11
315.329218
 21
105.870183
 31
0.0
100
AcDbText
  0
TEXT
  5
374
330
1F
100
AcDbEntity
  8
GR1-1
  6
CONTINUOUS
 62
     7
100
AcDbText
 10
315.229706
 20
113.209
 30
0.0
 40
6.936107
  1
C
 50
79.0
 41
1.179358
  7
STYLE1
 72
     5
 11
316.567575
 21
120.091737
 31
0.0
100
AcDbText
  0
TEXT
  5
375
330
1F
100
AcDbEntity
  8
GR1-1
  6
CONTINUOUS
 62
     7
100
AcDbText
 10
316.237518
 20
120.551407
 30
0.0
 40
6.849169
  1
A
 50
71.0
 41
1.194904
  7
STYLE1
 72
     5
 11
318.39448
 21
126.815678
 31
0.0
100
AcDbText
  0
TEXT
  5
376
330
1F
100
AcDbEntity
  8
GR1-1
  6
CONTINUOUS
 62
     7
100
AcDbText
 10
318.684967
 20
128.037735
 30
0.0
 40
7.00028
  1
S
 50
63.0
 41
1.081364
  7
STYLE1
 72
     5
 11
321.467008
 21
133.497798
 31
0.0
100
AcDbText
  0
TEXT
  5
377
330
1F
100
AcDbEntity
  8
GR1-1
  6
CONTINUOUS
 62
     7
100
AcDbText
 10
321.42038
 20
134.372391
 30
0.0
 40
6.900629
  1
T
 50
55.0
 41
1.337405
  7
STYLE1
 72
     5
 11
325.201451
 21
139.77232
 31
0.0
100
AcDbText
  0
TEXT
  5
378
330
1F
100
AcDbEntity
  8
GR1-1
  6
CONTINUOUS
 62
     7
100
AcDbText
 10
325.59549
 20
140.850967
 30
0.0
 40
6.901481
  1
E
 50
47.0
 41
1.173553
  7
STYLE1
 72
     5
 11
330.067037
 21
145.646115
 31
0.0
100
AcDbText
  0
TEXT
  5
379
330
1F
100
AcDbEntity
  8
GR1-1
  6
CONTINUOUS
 62
     7
100
AcDbText
 10
330.922333
 20
147.041641
 30
0.0
 40
7.06454
  1
R
 50
39.0
 41
1.128308
  7
STYLE1
 72
     5
 11
336.232001
 21
151.341325
 31
0.0
100
AcDbText
  0
LINE
  5
37A
330
1F
100
AcDbEntity
  8
GR1-1
  6
CONTINUOUS
 62
     7
100
AcDbLine
 10
331.005795
 20
62.371987
 30
0.0
 11
326.546926
 21
66.386771
 31
0.0
  0
LINE
  5
37B
330
1F
100
AcDbEntity
  8
GR1-1
  6
CONTINUOUS
 62
     7
100
AcDbLine
 10
326.546926
 20
66.386771
 30
0.0
 11
330.56171
 21
70.84564
 31
0.0
  0
LINE
  5
37C
330
1F
100
AcDbEntity
  8
GR1-1
  6
CONTINUOUS
 62
     7
100
AcDbLine
 10
330.56171
 20
70.84564
 30
0.0
 11
335.020579
 21
66.830856
 31
0.0
  0
LINE
  5
37D
330
1F
100
AcDbEntity
  8
GR1-1
  6
CONTINUOUS
 62
     7
100
AcDbLine
 10
335.020579
 20
66.830856
 30
0.0
 11
331.005795
 21
62.371987
 31
0.0
  0
LINE
  5
37E
330
1F
100
AcDbEntity
  8
GR1-1
  6
CONTINUOUS
 62
     7
100
AcDbLine
 10
332.885683
 20
64.716227
 30
0.0
 11
328.891165
 21
64.506883
 31
0.0
  0
LINE
  5
37F
330
1F
100
AcDbEntity
  8
GR1-1
  6
CONTINUOUS
 62
     7
100
AcDbLine
 10
328.891165
 20
64.506883
 30
0.0
 11
328.704025
 21
68.077718
 31
0.0
  0
LINE
  5
380
330
1F
100
AcDbEntity
  8
GR1-1
  6
CONTINUOUS
 62
     7
100
AcDbLine
 10
328.704025
 20
68.077718
 30
0.0
 11
329.754991
 21
67.131425
 31
0.0
  0
LINE
  5
381
330
1F
100
AcDbEntity
  8
GR1-1
  6
CONTINUOUS
 62
     7
100
AcDbLine
 10
329.754991
 20
67.131425
 30
0.0
 11
329.837459
 21
65.557848
 31
0.0
  0
LINE
  5
382
330
1F
100
AcDbEntity
  8
GR1-1
  6
CONTINUOUS
 62
     7
100
AcDbLine
 10
329.837459
 20
65.557848
 30
0.0
 11
331.834718
 21
65.66252
 31
0.0
  0
LINE
  5
383
330
1F
100
AcDbEntity
  8
GR1-1
  6
CONTINUOUS
 62
     7
100
AcDbLine
 10
331.834718
 20
65.66252
 30
0.0
 11
331.730046
 21
67.659779
 31
0.0
  0
LINE
  5
384
330
1F
100
AcDbEntity
  8
GR1-1
  6
CONTINUOUS
 62
     7
100
AcDbLine
 10
331.730046
 20
67.659779
 30
0.0
 11
330.680015
 21
67.604749
 31
0.0
  0
ARC
  5
385
330
1F
100
AcDbEntity
  8
GR1-1
  6
CONTINUOUS
 62
     7
100
AcDbCircle
 10
330.685249
 20
67.504886
 30
0.0
 40
0.1
100
AcDbArc
 50
93.0
 51
228.0
  0
LINE
  5
386
330
1F
100
AcDbEntity
  8
GR1-1
  6
CONTINUOUS
 62
     7
100
AcDbLine
 10
330.618335
 20
67.430572
 30
0.0
 11
331.118318
 21
66.980386
 31
0.0
  0
LINE
  5
387
330
1F
100
AcDbEntity
  8
GR1-1
  6
CONTINUOUS
 62
     7
100
AcDbLine
 10
331.118318
 20
66.980386
 30
0.0
 11
330.783752
 21
66.608814
 31
0.0
  0
LINE
  5
388
330
1F
100
AcDbEntity
  8
GR1-1
  6
CONTINUOUS
 62
     7
100
AcDbLine
 10
330.783752
 20
66.608814
 30
0.0
 11
328.681821
 21
68.501401
 31
0.0
  0
LINE
  5
389
330
1F
100
AcDbEntity
  8
GR1-1
  6
CONTINUOUS
 62
     7
100
AcDbLine
 10
328.681821
 20
68.501401
 30
0.0
 11
330.036356
 21
70.005764
 31
0.0
  0
LINE
  5
38A
330
1F
100
AcDbEntity
  8
GR1-1
  6
CONTINUOUS
 62
     7
100
AcDbLine
 10
330.036356
 20
70.005764
 30
0.0
 11
330.779501
 21
69.336634
 31
0.0
  0
LINE
  5
38B
330
1F
100
AcDbEntity
  8
GR1-1
  6
CONTINUOUS
 62
     7
100
AcDbLine
 10
330.779501
 20
69.336634
 30
0.0
 11
330.255639
 21
68.754826
 31
0.0
  0
ARC
  5
38C
330
1F
100
AcDbEntity
  8
GR1-1
  6
CONTINUOUS
 62
     7
100
AcDbCircle
 10
330.329954
 20
68.687913
 30
0.0
 40
0.1
100
AcDbArc
 50
138.0
 51
273.0
  0
LINE
  5
38D
330
1F
100
AcDbEntity
  8
GR1-1
  6
CONTINUOUS
 62
     7
100
AcDbLine
 10
330.335187
 20
68.58805
 30
0.0
 11
332.676339
 21
68.710745
 31
0.0
  0
LINE
  5
38E
330
1F
100
AcDbEntity
  8
GR1-1
  6
CONTINUOUS
 62
     7
100
AcDbLine
 10
332.676339
 20
68.710745
 30
0.0
 11
332.885683
 21
64.716227
 31
0.0
  0
TEXT
  5
38F
330
1F
100
AcDbEntity
  8
GR1-1
  6
CONTINUOUS
 62
     7
100
AcDbText
 10
416.678741
 20
134.001663
 30
0.0
 40
6.9309
  1
1
 50
293.5
 41
2.052611
  7
STYLE1
 72
     5
 11
419.650197
 21
127.167783
 31
0.0
100
AcDbText
  0
TEXT
  5
390
330
1F
100
AcDbEntity
  8
GR1-1
  6
CONTINUOUS
 62
     7
100
AcDbText
 10
420.070526
 20
126.200455
 30
0.0
 40
6.997731
  1
3
 50
284.0
 41
1.480446
  7
STYLE1
 72
     5
 11
422.099399
 21
118.063091
 31
0.0
100
AcDbText
  0
TEXT
  5
391
330
1F
100
AcDbEntity
  8
GR1-1
  6
CONTINUOUS
 62
     7
100
AcDbText
 10
422.275238
 20
116.873001
 30
0.0
 40
7.022617
  1
0
 50
274.5
 41
1.413865
  7
STYLE1
 72
     5
 11
422.905876
 21
108.859991
 31
0.0
100
AcDbText
  0
TEXT
  5
392
330
1F
100
AcDbEntity
  8
GR1-1
  6
CONTINUOUS
 62
     7
100
AcDbText
 10
423.462372
 20
106.697525
 30
0.0
 40
5.666904
  1
X
 50
265.5
 41
1.08942
  7
STYLE1
 72
     5
 11
423.070256
 21
101.715225
 31
0.0
100
AcDbText
  0
TEXT
  5
393
330
1F
100
AcDbEntity
  8
GR1-1
  6
CONTINUOUS
 62
     7
100
AcDbText
 10
422.105621
 20
99.405106
 30
0.0
 40
6.781535
  1
3
 50
256.0
 41
1.506753
  7
STYLE1
 72
     5
 11
420.104494
 21
91.379022
 31
0.0
100
AcDbText
  0
TEXT
  5
394
330
1F
100
AcDbEntity
  8
GR1-1
  6
CONTINUOUS
 62
     7
100
AcDbText
 10
419.731354
 20
90.58638
 30
0.0
 40
6.721664
  1
8
 50
246.5
 41
1.434063
  7
STYLE1
 72
     5
 11
416.619822
 21
83.430347
 31
0.0
100
AcDbText
  0
ARC
  5
395
330
1F
100
AcDbEntity
  8
LAYERGROUP-1
  6
CONTINUOUS
 62
     6
100
AcDbCircle
 10
369.006886
 20
108.893615
 30
0.0
 40
50.25
100
AcDbArc
 50
-255.405223
 51
38.028816
  0
ARC
  5
396
330
1F
100
AcDbEntity
  8
LAYERGROUP-1
  6
CONTINUOUS
 62
     3
100
AcDbCircle
 10
369.006886
 20
108.893615
 30
0.0
 40
47.49999999999997
100
AcDbArc
 50
-253.657251
 51
36.401537
  0
LINE
  5
397
330
1F
100
AcDbEntity
  8
GR1-1
  6
CONTINUOUS
 62
     7
100
AcDbLine
 10
330.771903
 20
70.656381
 30
0.0
 11
330.372451
 21
70.635447
 31
0.0
  0
LINE
  5
398
330
1F
100
AcDbEntity
  8
GR1-1
  6
CONTINUOUS
 62
     7
100
AcDbLine
 10
330.982096
 20
70.467123
 30
0.0
 11
330.183192
 21
70.425254
 31
0.0
  0
LINE
  5
399
330
1F
100
AcDbEntity
  8
GR1-1
  6
CONTINUOUS
 62
     7
100
AcDbLine
 10
331.192289
 20
70.277864
 30
0.0
 11
329.993933
 21
70.215061
 31
0.0
  0
LINE
  5
39A
330
1F
100
AcDbEntity
  8
GR1-1
  6
CONTINUOUS
 62
     7
100
AcDbLine
 10
331.402482
 20
70.088605
 30
0.0
 11
329.804675
 21
70.004868
 31
0.0
  0
LINE
  5
39B
330
1F
100
AcDbEntity
  8
GR1-1
  6
CONTINUOUS
 62
     7
100
AcDbLine
 10
331.612675
 20
69.899346
 30
0.0
 11
330.234747
 21
69.827132
 31
0.0
  0
LINE
  5
39C
330
1F
100
AcDbEntity
  8
GR1-1
  6
CONTINUOUS
 62
     7
100
AcDbLine
 10
329.857724
 20
69.807373
 30
0.0
 11
329.615416
 21
69.794675
 31
0.0
  0
LINE
  5
39D
330
1F
100
AcDbEntity
  8
GR1-1
  6
CONTINUOUS
 62
     7
100
AcDbLine
 10
331.822868
 20
69.710088
 30
0.0
 11
330.44494
 21
69.637874
 31
0.0
  0
LINE
  5
39E
330
1F
100
AcDbEntity
  8
GR1-1
  6
CONTINUOUS
 62
     7
100
AcDbLine
 10
329.668465
 20
69.59718
 30
0.0
 11
329.426157
 21
69.584481
 31
0.0
  0
LINE
  5
39F
330
1F
100
AcDbEntity
  8
GR1-1
  6
CONTINUOUS
 62
     7
100
AcDbLine
 10
332.033061
 20
69.520829
 30
0.0
 11
330.655133
 21
69.448615
 31
0.0
  0
LINE
  5
3A0
330
1F
100
AcDbEntity
  8
GR1-1
  6
CONTINUOUS
 62
     7
100
AcDbLine
 10
329.479207
 20
69.386987
 30
0.0
 11
329.236899
 21
69.374288
 31
0.0
  0
LINE
  5
3A1
330
1F
100
AcDbEntity
  8
GR1-1
  6
CONTINUOUS
 62
     7
100
AcDbLine
 10
332.243254
 20
69.33157
 30
0.0
 11
330.702223
 21
69.250808
 31
0.0
  0
LINE
  5
3A2
330
1F
100
AcDbEntity
  8
GR1-1
  6
CONTINUOUS
 62
     7
100
AcDbLine
 10
329.289948
 20
69.176794
 30
0.0
 11
329.04764
 21
69.164095
 31
0.0
  0
LINE
  5
3A3
330
1F
100
AcDbEntity
  8
GR1-1
  6
CONTINUOUS
 62
     7
100
AcDbLine
 10
332.453447
 20
69.142312
 30
0.0
 11
330.512965
 21
69.040615
 31
0.0
  0
LINE
  5
3A4
330
1F
100
AcDbEntity
  8
GR1-1
  6
CONTINUOUS
 62
     7
100
AcDbLine
 10
329.100689
 20
68.966601
 30
0.0
 11
328.858381
 21
68.953902
 31
0.0
  0
LINE
  5
3A5
330
1F
100
AcDbEntity
  8
GR1-1
  6
CONTINUOUS
 62
     7
100
AcDbLine
 10
332.663641
 20
68.953053
 30
0.0
 11
330.323706
 21
68.830422
 31
0.0
  0
LINE
  5
3A6
330
1F
100
AcDbEntity
  8
GR1-1
  6
CONTINUOUS
 62
     7
100
AcDbLine
 10
328.911431
 20
68.756408
 30
0.0
 11
328.669122
 21
68.743709
 31
0.0
  0
LINE
  5
3A7
330
1F
100
AcDbEntity
  8
GR1-1
  6
CONTINUOUS
 62
     7
100
AcDbLine
 10
332.873834
 20
68.763794
 30
0.0
 11
330.251154
 21
68.626345
 31
0.0
  0
LINE
  5
3A8
330
1F
100
AcDbEntity
  8
GR1-1
  6
CONTINUOUS
 62
     7
100
AcDbLine
 10
328.722172
 20
68.546215
 30
0.0
 11
328.479864
 21
68.533516
 31
0.0
  0
LINE
  5
3A9
330
1F
100
AcDbEntity
  8
GR1-1
  6
CONTINUOUS
 62
     7
100
AcDbLine
 10
333.084027
 20
68.574535
 30
0.0
 11
332.684575
 21
68.553601
 31
0.0
  0
LINE
  5
3AA
330
1F
100
AcDbEntity
  8
GR1-1
  6
CONTINUOUS
 62
     7
100
AcDbLine
 10
328.8472
 20
68.352493
 30
0.0
 11
328.290605
 21
68.323323
 31
0.0
  0
LINE
  5
3AB
330
1F
100
AcDbEntity
  8
GR1-1
  6
CONTINUOUS
 62
     7
100
AcDbLine
 10
333.29422
 20
68.385277
 30
0.0
 11
332.695042
 21
68.353875
 31
0.0
  0
LINE
  5
3AC
330
1F
100
AcDbEntity
  8
GR1-1
  6
CONTINUOUS
 62
     7
100
AcDbLine
 10
329.057394
 20
68.163234
 30
0.0
 11
328.101346
 21
68.11313
 31
0.0
  0
LINE
  5
3AD
330
1F
100
AcDbEntity
  8
GR1-1
  6
CONTINUOUS
 62
     7
100
AcDbLine
 10
333.504413
 20
68.196018
 30
0.0
 11
332.705509
 21
68.154149
 31
0.0
  0
LINE
  5
3AE
330
1F
100
AcDbEntity
  8
GR1-1
  6
CONTINUOUS
 62
     7
100
AcDbLine
 10
329.267587
 20
67.973975
 30
0.0
 11
328.843904
 21
67.951771
 31
0.0
  0
LINE
  5
3AF
330
1F
100
AcDbEntity
  8
GR1-1
  6
CONTINUOUS
 62
     7
100
AcDbLine
 10
328.710991
 20
67.944805
 30
0.0
 11
327.912088
 21
67.902937
 31
0.0
  0
LINE
  5
3B0
330
1F
100
AcDbEntity
  8
GR1-1
  6
CONTINUOUS
 62
     7
100
AcDbLine
 10
333.714606
 20
68.006759
 30
0.0
 11
332.715976
 21
67.954423
 31
0.0
  0
LINE
  5
3B1
330
1F
100
AcDbEntity
  8
GR1-1
  6
CONTINUOUS
 62
     7
100
AcDbLine
 10
329.47778
 20
67.784717
 30
0.0
 11
329.054097
 21
67.762512
 31
0.0
  0
LINE
  5
3B2
330
1F
100
AcDbEntity
  8
GR1-1
  6
CONTINUOUS
 62
     7
100
AcDbLine
 10
328.721458
 20
67.74508
 30
0.0
 11
327.722829
 21
67.692744
 31
0.0
  0
LINE
  5
3B3
330
1F
100
AcDbEntity
  8
GR1-1
  6
CONTINUOUS
 62
     7
100
AcDbLine
 10
333.924799
 20
67.817501
 30
0.0
 11
332.726444
 21
67.754697
 31
0.0
  0
LINE
  5
3B4
330
1F
100
AcDbEntity
  8
GR1-1
  6
CONTINUOUS
 62
     7
100
AcDbLine
 10
329.687973
 20
67.595458
 30
0.0
 11
329.26429
 21
67.573254
 31
0.0
  0
LINE
  5
3B5
330
1F
100
AcDbEntity
  8
GR1-1
  6
CONTINUOUS
 62
     7
100
AcDbLine
 10
328.731926
 20
67.545354
 30
0.0
 11
327.53357
 21
67.48255
 31
0.0
  0
LINE
  5
3B6
330
1F
100
AcDbEntity
  8
GR1-1
  6
CONTINUOUS
 62
     7
100
AcDbLine
 10
334.134992
 20
67.628242
 30
0.0
 11
332.736911
 21
67.554972
 31
0.0
  0
LINE
  5
3B7
330
1F
100
AcDbEntity
  8
GR1-1
  6
CONTINUOUS
 62
     7
100
AcDbLine
 10
331.738281
 20
67.502636
 30
0.0
 11
330.606449
 21
67.443319
 31
0.0
  0
LINE
  5
3B8
330
1F
100
AcDbEntity
  8
GR1-1
  6
CONTINUOUS
 62
     7
100
AcDbLine
 10
329.898166
 20
67.406199
 30
0.0
 11
329.474483
 21
67.383995
 31
0.0
  0
LINE
  5
3B9
330
1F
100
AcDbEntity
  8
GR1-1
  6
CONTINUOUS
 62
     7
100
AcDbLine
 10
328.742393
 20
67.345628
 30
0.0
 11
327.344311
 21
67.272357
 31
0.0
  0
LINE
  5
3BA
330
1F
100
AcDbEntity
  8
GR1-1
  6
CONTINUOUS
 62
     7
100
AcDbLine
 10
334.345185
 20
67.438983
 30
0.0
 11
332.747378
 21
67.355246
 31
0.0
  0
LINE
  5
3BB
330
1F
100
AcDbEntity
  8
GR1-1
  6
CONTINUOUS
 62
     7
100
AcDbLine
 10
331.748749
 20
67.30291
 30
0.0
 11
330.814497
 21
67.253948
 31
0.0
  0
LINE
  5
3BC
330
1F
100
AcDbEntity
  8
GR1-1
  6
CONTINUOUS
 62
     7
100
AcDbLine
 10
330.108359
 20
67.21694
 30
0.0
 11
329.684676
 21
67.194736
 31
0.0
  0
LINE
  5
3BD
330
1F
100
AcDbEntity
  8
GR1-1
  6
CONTINUOUS
 62
     7
100
AcDbLine
 10
328.75286
 20
67.145902
 30
0.0
 11
327.155053
 21
67.062164
 31
0.0
  0
LINE
  5
3BE
330
1F
100
AcDbEntity
  8
GR1-1
  6
CONTINUOUS
 62
     7
100
AcDbLine
 10
334.555378
 20
67.249724
 30
0.0
 11
332.757845
 21
67.15552
 31
0.0
  0
LINE
  5
3BF
330
1F
100
AcDbEntity
  8
GR1-1
  6
CONTINUOUS
 62
     7
100
AcDbLine
 10
331.759216
 20
67.103184
 30
0.0
 11
331.02469
 21
67.064689
 31
0.0
  0
LINE
  5
3C0
330
1F
100
AcDbEntity
  8
GR1-1
  6
CONTINUOUS
 62
     7
100
AcDbLine
 10
330.318552
 20
67.027682
 30
0.0
 11
329.761957
 21
66.998512
 31
0.0
  0
LINE
  5
3C1
330
1F
100
AcDbEntity
  8
GR1-1
  6
CONTINUOUS
 62
     7
100
AcDbLine
 10
328.763327
 20
66.946176
 30
0.0
 11
326.965794
 21
66.851971
 31
0.0
  0
LINE
  5
3C2
330
1F
100
AcDbEntity
  8
GR1-1
  6
CONTINUOUS
 62
     7
100
AcDbLine
 10
334.765572
 20
67.060466
 30
0.0
 11
332.768312
 21
66.955794
 31
0.0
  0
LINE
  5
3C3
330
1F
100
AcDbEntity
  8
GR1-1
  6
CONTINUOUS
 62
     7
100
AcDbLine
 10
331.769683
 20
66.903458
 30
0.0
 11
331.013362
 21
66.863821
 31
0.0
  0
LINE
  5
3C4
330
1F
100
AcDbEntity
  8
GR1-1
  6
CONTINUOUS
 62
     7
100
AcDbLine
 10
330.528745
 20
66.838423
 30
0.0
 11
329.772424
 21
66.798786
 31
0.0
  0
LINE
  5
3C5
330
1F
100
AcDbEntity
  8
GR1-1
  6
CONTINUOUS
 62
     7
100
AcDbLine
 10
328.773794
 20
66.74645
 30
0.0
 11
326.776535
 21
66.641778
 31
0.0
  0
LINE
  5
3C6
330
1F
100
AcDbEntity
  8
GR1-1
  6
CONTINUOUS
 62
     7
100
AcDbLine
 10
334.975765
 20
66.871207
 30
0.0
 11
332.77878
 21
66.756068
 31
0.0
  0
LINE
  5
3C7
330
1F
100
AcDbEntity
  8
GR1-1
  6
CONTINUOUS
 62
     7
100
AcDbLine
 10
331.78015
 20
66.703732
 30
0.0
 11
330.824103
 21
66.653628
 31
0.0
  0
LINE
  5
3C8
330
1F
100
AcDbEntity
  8
GR1-1
  6
CONTINUOUS
 62
     7
100
AcDbLine
 10
330.738938
 20
66.649164
 30
0.0
 11
329.782891
 21
66.59906
 31
0.0
  0
LINE
  5
3C9
330
1F
100
AcDbEntity
  8
GR1-1
  6
CONTINUOUS
 62
     7
100
AcDbLine
 10
328.784262
 20
66.546724
 30
0.0
 11
326.587277
 21
66.431585
 31
0.0
  0
LINE
  5
3CA
330
1F
100
AcDbEntity
  8
GR1-1
  6
CONTINUOUS
 62
     7
100
AcDbLine
 10
334.87167
 20
66.665477
 30
0.0
 11
332.789247
 21
66.556342
 31
0.0
  0
LINE
  5
3CB
330
1F
100
AcDbEntity
  8
GR1-1
  6
CONTINUOUS
 62
     7
100
AcDbLine
 10
331.790617
 20
66.504006
 30
0.0
 11
329.793358
 21
66.399334
 31
0.0
  0
LINE
  5
3CC
330
1F
100
AcDbEntity
  8
GR1-1
  6
CONTINUOUS
 62
     7
100
AcDbLine
 10
328.794729
 20
66.346998
 30
0.0
 11
326.712305
 21
66.237863
 31
0.0
  0
LINE
  5
3CD
330
1F
100
AcDbEntity
  8
GR1-1
  6
CONTINUOUS
 62
     7
100
AcDbLine
 10
334.682412
 20
66.455284
 30
0.0
 11
332.799714
 21
66.356616
 31
0.0
  0
LINE
  5
3CE
330
1F
100
AcDbEntity
  8
GR1-1
  6
CONTINUOUS
 62
     7
100
AcDbLine
 10
331.801084
 20
66.30428
 30
0.0
 11
329.803825
 21
66.199608
 31
0.0
  0
LINE
  5
3CF
330
1F
100
AcDbEntity
  8
GR1-1
  6
CONTINUOUS
 62
     7
100
AcDbLine
 10
328.805196
 20
66.147272
 30
0.0
 11
326.922498
 21
66.048604
 31
0.0
  0
LINE
  5
3D0
330
1F
100
AcDbEntity
  8
GR1-1
  6
CONTINUOUS
 62
     7
100
AcDbLine
 10
334.493153
 20
66.245091
 30
0.0
 11
332.810181
 21
66.15689
 31
0.0
  0
LINE
  5
3D1
330
1F
100
AcDbEntity
  8
GR1-1
  6
CONTINUOUS
 62
     7
100
AcDbLine
 10
331.811552
 20
66.104554
 30
0.0
 11
329.814293
 21
65.999882
 31
0.0
  0
LINE
  5
3D2
330
1F
100
AcDbEntity
  8
GR1-1
  6
CONTINUOUS
 62
     7
100
AcDbLine
 10
328.815663
 20
65.947546
 30
0.0
 11
327.132691
 21
65.859346
 31
0.0
  0
LINE
  5
3D3
330
1F
100
AcDbEntity
  8
GR1-1
  6
CONTINUOUS
 62
     7
100
AcDbLine
 10
334.303894
 20
66.034898
 30
0.0
 11
332.820648
 21
65.957164
 31
0.0
  0
LINE
  5
3D4
330
1F
100
AcDbEntity
  8
GR1-1
  6
CONTINUOUS
 62
     7
100
AcDbLine
 10
331.822019
 20
65.904828
 30
0.0
 11
329.82476
 21
65.800156
 31
0.0
  0
LINE
  5
3D5
330
1F
100
AcDbEntity
  8
GR1-1
  6
CONTINUOUS
 62
     7
100
AcDbLine
 10
328.82613
 20
65.74782
 30
0.0
 11
327.342884
 21
65.670087
 31
0.0
  0
LINE
  5
3D6
330
1F
100
AcDbEntity
  8
GR1-1
  6
CONTINUOUS
 62
     7
100
AcDbLine
 10
334.114636
 20
65.824705
 30
0.0
 11
332.831116
 21
65.757438
 31
0.0
  0
LINE
  5
3D7
330
1F
100
AcDbEntity
  8
GR1-1
  6
CONTINUOUS
 62
     7
100
AcDbLine
 10
331.832486
 20
65.705102
 30
0.0
 11
329.835227
 21
65.60043
 31
0.0
  0
LINE
  5
3D8
330
1F
100
AcDbEntity
  8
GR1-1
  6
CONTINUOUS
 62
     7
100
AcDbLine
 10
328.836597
 20
65.548095
 30
0.0
 11
327.553078
 21
65.480828
 31
0.0
  0
LINE
  5
3D9
330
1F
100
AcDbEntity
  8
GR1-1
  6
CONTINUOUS
 62
     7
100
AcDbLine
 10
333.925377
 20
65.614512
 30
0.0
 11
332.841583
 21
65.557712
 31
0.0
  0
LINE
  5
3DA
330
1F
100
AcDbEntity
  8
GR1-1
  6
CONTINUOUS
 62
     7
100
AcDbLine
 10
328.847065
 20
65.348369
 30
0.0
 11
327.763271
 21
65.291569
 31
0.0
  0
LINE
  5
3DB
330
1F
100
AcDbEntity
  8
GR1-1
  6
CONTINUOUS
 62
     7
100
AcDbLine
 10
333.736118
 20
65.404319
 30
0.0
 11
332.85205
 21
65.357987
 31
0.0
  0
LINE
  5
3DC
330
1F
100
AcDbEntity
  8
GR1-1
  6
CONTINUOUS
 62
     7
100
AcDbLine
 10
328.857532
 20
65.148643
 30
0.0
 11
327.973464
 21
65.102311
 31
0.0
  0
LINE
  5
3DD
330
1F
100
AcDbEntity
  8
GR1-1
  6
CONTINUOUS
 62
     7
100
AcDbLine
 10
333.546859
 20
65.194126
 30
0.0
 11
332.862517
 21
65.158261
 31
0.0
  0
LINE
  5
3DE
330
1F
100
AcDbEntity
  8
GR1-1
  6
CONTINUOUS
 62
     7
100
AcDbLine
 10
328.867999
 20
64.948917
 30
0.0
 11
328.183657
 21
64.913052
 31
0.0
  0
LINE
  5
3DF
330
1F
100
AcDbEntity
  8
GR1-1
  6
CONTINUOUS
 62
     7
100
AcDbLine
 10
333.357601
 20
64.983932
 30
0.0
 11
332.872984
 21
64.958535
 31
0.0
  0
LINE
  5
3E0
330
1F
100
AcDbEntity
  8
GR1-1
  6
CONTINUOUS
 62
     7
100
AcDbLine
 10
328.878466
 20
64.749191
 30
0.0
 11
328.39385
 21
64.723793
 31
0.0
  0
LINE
  5
3E1
330
1F
100
AcDbEntity
  8
GR1-1
  6
CONTINUOUS
 62
     7
100
AcDbLine
 10
333.168342
 20
64.773739
 30
0.0
 11
332.883452
 21
64.758809
 31
0.0
  0
LINE
  5
3E2
330
1F
100
AcDbEntity
  8
GR1-1
  6
CONTINUOUS
 62
     7
100
AcDbLine
 10
328.888933
 20
64.549465
 30
0.0
 11
328.604043
 21
64.534535
 31
0.0
  0
LINE
  5
3E3
330
1F
100
AcDbEntity
  8
GR1-1
  6
CONTINUOUS
 62
     7
100
AcDbLine
 10
332.979083
 20
64.563546
 30
0.0
 11
328.814236
 21
64.345276
 31
0.0
  0
LINE
  5
3E4
330
1F
100
AcDbEntity
  8
GR1-1
  6
CONTINUOUS
 62
     7
100
AcDbLine
 10
332.789825
 20
64.353353
 30
0.0
 11
329.024429
 21
64.156017
 31
0.0
  0
LINE
  5
3E5
330
1F
100
AcDbEntity
  8
GR1-1
  6
CONTINUOUS
 62
     7
100
AcDbLine
 10
332.600566
 20
64.14316
 30
0.0
 11
329.234622
 21
63.966758
 31
0.0
  0
LINE
  5
3E6
330
1F
100
AcDbEntity
  8
GR1-1
  6
CONTINUOUS
 62
     7
100
AcDbLine
 10
332.411307
 20
63.932967
 30
0.0
 11
329.444815
 21
63.7775
 31
0.0
  0
LINE
  5
3E7
330
1F
100
AcDbEntity
  8
GR1-1
  6
CONTINUOUS
 62
     7
100
AcDbLine
 10
332.222048
 20
63.722774
 30
0.0
 11
329.655008
 21
63.588241
 31
0.0
  0
LINE
  5
3E8
330
1F
100
AcDbEntity
  8
GR1-1
  6
CONTINUOUS
 62
     7
100
AcDbLine
 10
332.03279
 20
63.512581
 30
0.0
 11
329.865202
 21
63.398982
 31
0.0
  0
LINE
  5
3E9
330
1F
100
AcDbEntity
  8
GR1-1
  6
CONTINUOUS
 62
     7
100
AcDbLine
 10
331.843531
 20
63.302388
 30
0.0
 11
330.075395
 21
63.209724
 31
0.0
  0
LINE
  5
3EA
330
1F
100
AcDbEntity
  8
GR1-1
  6
CONTINUOUS
 62
     7
100
AcDbLine
 10
331.654272
 20
63.092195
 30
0.0
 11
330.285588
 21
63.020465
 31
0.0
  0
LINE
  5
3EB
330
1F
100
AcDbEntity
  8
GR1-1
  6
CONTINUOUS
 62
     7
100
AcDbLine
 10
331.465014
 20
62.882001
 30
0.0
 11
330.495781
 21
62.831206
 31
0.0
  0
LINE
  5
3EC
330
1F
100
AcDbEntity
  8
GR1-1
  6
CONTINUOUS
 62
     7
100
AcDbLine
 10
331.275755
 20
62.671808
 30
0.0
 11
330.705974
 21
62.641947
 31
0.0
  0
LINE
  5
3ED
330
1F
100
AcDbEntity
  8
GR1-1
  6
CONTINUOUS
 62
     7
100
AcDbLine
 10
331.086496
 20
62.461615
 30
0.0
 11
330.916167
 21
62.452689
 31
0.0
  0
LINE
  5
3EE
330
1F
100
AcDbEntity
  8
}}ﾊﾊGG血CCТ
  6
CONTINUOUS
 62
     7
100
AcDbLine
 10
10.0
 20
10.0
 30
0.0
 11
584.0
 21
10.0
 31
0.0
  0
LINE
  5
3EF
330
1F
100
AcDbEntity
  8
}}ﾊﾊGG血CCТ
  6
CONTINUOUS
 62
     7
100
AcDbLine
 10
10.0
 20
10.0
 30
0.0
 11
10.0
 21
410.0
 31
0.0
  0
LINE
  5
3F0
330
1F
100
AcDbEntity
  8
}}ﾊﾊGG血CCТ
  6
CONTINUOUS
 62
     7
100
AcDbLine
 10
10.0
 20
410.0
 30
0.0
 11
584.0
 21
410.0
 31
0.0
  0
LINE
  5
3F1
330
1F
100
AcDbEntity
  8
}}ﾊﾊGG血CCТ
  6
CONTINUOUS
 62
     7
100
AcDbLine
 10
584.0
 20
410.0
 30
0.0
 11
584.0
 21
10.0
 31
0.0
  0
LINE
  5
3F2
330
1F
100
AcDbEntity
  8
}}ﾊﾊGG血CCТ
  6
CONTINUOUS
 62
     7
100
AcDbLine
 10
327.0
 20
10.0
 30
0.0
 11
327.0
 21
20.0
 31
0.0
  0
TEXT
  5
3F3
330
1F
100
AcDbEntity
  8
}}ﾊﾊGG血CCТ
  6
CONTINUOUS
 62
     7
100
AcDbText
 10
311.738831
 20
11.596879
 30
0.0
 40
6.648749
  1
品名
 41
1.083413
  7
FX_VECTOR
 72
     5
 11
323.058371
 21
11.596879
 31
0.0
100
AcDbText
  0
LINE
  5
3F4
330
1F
100
AcDbEntity
  8
}}ﾊﾊGG血CCТ
  6
CONTINUOUS
 62
     7
100
AcDbLine
 10
407.0
 20
20.0
 30
0.0
 11
407.0
 21
10.0
 31
0.0
  0
LINE
  5
3F5
330
1F
100
AcDbEntity
  8
}}ﾊﾊGG血CCТ
  6
CONTINUOUS
 62
     7
100
AcDbLine
 10
307.0
 20
20.0
 30
0.0
 11
584.0
 21
20.0
 31
0.0
  0
TEXT
  5
3F6
330
1F
100
AcDbEntity
  8
}}ﾊﾊGG血CCТ
  6
CONTINUOUS
 62
     7
100
AcDbText
 10
523.225769
 20
11.461285
 30
0.0
 40
6.0
  1
GOLD CASTER
 41
0.719626
  7
FX_VECTOR
 72
     5
 11
567.225769
 21
11.461285
 31
0.0
100
AcDbText
  0
LINE
  5
3F7
330
1F
100
AcDbEntity
  8
}}ﾊﾊGG血CCТ
  6
CONTINUOUS
 62
     7
100
AcDbLine
 10
427.0
 20
10.0
 30
0.0
 11
427.0
 21
20.0
 31
0.0
  0
TEXT
  5
3F8
330
1F
100
AcDbEntity
  8
}}ﾊﾊGG血CCТ
  6
CONTINUOUS
 62
     7
100
AcDbText
 10
411.738831
 20
11.596879
 30
0.0
 40
6.648749
  1
図番
 41
1.083413
  7
FX_VECTOR
 72
     5
 11
423.058371
 21
11.596879
 31
0.0
100
AcDbText
  0
LINE
  5
3F9
330
1F
100
AcDbEntity
  8
}}ﾊﾊGG血CCТ
  6
CONTINUOUS
 62
     7
100
AcDbLine
 10
507.0
 20
20.0
 30
0.0
 11
507.0
 21
10.0
 31
0.0
  0
LINE
  5
3FA
330
1F
100
AcDbEntity
  8
}}ﾊﾊGG血CCТ
  6
CONTINUOUS
 62
     7
100
AcDbLine
 10
307.0
 20
20.0
 30
0.0
 11
307.0
 21
10.0
 31
0.0
  0
LINE
  5
3FC
330
1F
100
AcDbEntity
  8
0-1
  6
CONTINUOUS
 62
     7
100
AcDbLine
 10
518.8019
 20
17.913462
 30
0.0
 11
512.8019
 21
17.913462
 31
0.0
  0
LINE
  5
3FD
330
1F
100
AcDbEntity
  8
0-1
  6
CONTINUOUS
 62
     7
100
AcDbLine
 10
512.8019
 20
17.913462
 30
0.0
 11
512.8019
 21
11.913462
 31
0.0
  0
LINE
  5
3FE
330
1F
100
AcDbEntity
  8
0-1
  6
CONTINUOUS
 62
     7
100
AcDbLine
 10
512.8019
 20
11.913462
 30
0.0
 11
518.8019
 21
11.913462
 31
0.0
  0
LINE
  5
3FF
330
1F
100
AcDbEntity
  8
0-1
  6
CONTINUOUS
 62
     7
100
AcDbLine
 10
518.8019
 20
11.913462
 30
0.0
 11
518.8019
 21
17.913462
 31
0.0
  0
LINE
  5
400
330
1F
100
AcDbEntity
  8
0-1
  6
CONTINUOUS
 62
     7
100
AcDbLine
 10
518.224977
 20
15.346154
 30
0.0
 11
515.8019
 21
17.769231
 31
0.0
  0
LINE
  5
401
330
1F
100
AcDbEntity
  8
0-1
  6
CONTINUOUS
 62
     7
100
AcDbLine
 10
515.8019
 20
17.769231
 30
0.0
 11
512.946131
 21
14.913462
 31
0.0
  0
LINE
  5
402
330
1F
100
AcDbEntity
  8
0-1
  6
CONTINUOUS
 62
     7
100
AcDbLine
 10
512.946131
 20
14.913462
 30
0.0
 11
515.8019
 21
12.057692
 31
0.0
  0
LINE
  5
403
330
1F
100
AcDbEntity
  8
0-1
  6
CONTINUOUS
 62
     7
100
AcDbLine
 10
515.8019
 20
12.057692
 30
0.0
 11
517.359592
 21
13.615385
 31
0.0
  0
LINE
  5
404
330
1F
100
AcDbEntity
  8
0-1
  6
CONTINUOUS
 62
     7
100
AcDbLine
 10
517.359592
 20
13.615385
 30
0.0
 11
517.359592
 21
12.980769
 31
0.0
  0
LINE
  5
405
330
1F
100
AcDbEntity
  8
0-1
  6
CONTINUOUS
 62
     7
100
AcDbLine
 10
517.359592
 20
12.980769
 30
0.0
 11
518.224977
 21
12.980769
 31
0.0
  0
LINE
  5
406
330
1F
100
AcDbEntity
  8
0-1
  6
CONTINUOUS
 62
     7
100
AcDbLine
 10
518.224977
 20
12.980769
 30
0.0
 11
518.224977
 21
15.0
 31
0.0
  0
LINE
  5
407
330
1F
100
AcDbEntity
  8
0-1
  6
CONTINUOUS
 62
     7
100
AcDbLine
 10
518.224977
 20
15.0
 30
0.0
 11
515.8019
 21
15.0
 31
0.0
  0
LINE
  5
408
330
1F
100
AcDbEntity
  8
0-1
  6
CONTINUOUS
 62
     7
100
AcDbLine
 10
515.8019
 20
15.0
 30
0.0
 11
515.8019
 21
14.134615
 31
0.0
  0
LINE
  5
409
330
1F
100
AcDbEntity
  8
0-1
  6
CONTINUOUS
 62
     7
100
AcDbLine
 10
515.8019
 20
14.134615
 30
0.0
 11
516.246131
 21
14.134615
 31
0.0
  0
LINE
  5
40A
330
1F
100
AcDbEntity
  8
0-1
  6
CONTINUOUS
 62
     7
100
AcDbLine
 10
516.246131
 20
14.134615
 30
0.0
 11
515.8019
 21
13.690385
 31
0.0
  0
LINE
  5
40B
330
1F
100
AcDbEntity
  8
0-1
  6
CONTINUOUS
 62
     7
100
AcDbLine
 10
515.8019
 20
13.690385
 30
0.0
 11
514.578823
 21
14.913462
 31
0.0
  0
LINE
  5
40C
330
1F
100
AcDbEntity
  8
0-1
  6
CONTINUOUS
 62
     7
100
AcDbLine
 10
514.578823
 20
14.913462
 30
0.0
 11
515.8019
 21
16.136538
 31
0.0
  0
LINE
  5
40D
330
1F
100
AcDbEntity
  8
0-1
  6
CONTINUOUS
 62
     7
100
AcDbLine
 10
515.8019
 20
16.136538
 30
0.0
 11
516.592284
 21
15.346154
 31
0.0
  0
LINE
  5
40E
330
1F
100
AcDbEntity
  8
0-1
  6
CONTINUOUS
 62
     7
100
AcDbLine
 10
516.592284
 20
15.346154
 30
0.0
 11
518.224977
 21
15.346154
 31
0.0
  0
LINE
  5
40F
330
1F
100
AcDbEntity
  8
GR1-1
  6
CONTINUOUS
 62
     7
100
AcDbLine
 10
513.72238
 20
11.913462
 30
0.0
 11
514.834255
 21
13.025337
 31
0.0
  0
LINE
  5
410
330
1F
100
AcDbEntity
  8
GR1-1
  6
CONTINUOUS
 62
     7
100
AcDbLine
 10
515.650601
 20
13.841683
 30
0.0
 11
515.943534
 21
14.134615
 31
0.0
  0
LINE
  5
411
330
1F
100
AcDbEntity
  8
GR1-1
  6
CONTINUOUS
 62
     7
100
AcDbLine
 10
516.808918
 20
15.0
 30
0.0
 11
517.155072
 21
15.346154
 31
0.0
  0
LINE
  5
412
330
1F
100
AcDbEntity
  8
GR1-1
  6
CONTINUOUS
 62
     7
100
AcDbLine
 10
517.690024
 20
15.881106
 30
0.0
 11
518.8019
 21
16.992981
 31
0.0
  0
LINE
  5
413
330
1F
100
AcDbEntity
  8
GR1-1
  6
CONTINUOUS
 62
     7
100
AcDbLine
 10
513.651669
 20
11.913462
 30
0.0
 11
514.7989
 21
13.060692
 31
0.0
  0
LINE
  5
414
330
1F
100
AcDbEntity
  8
GR1-1
  6
CONTINUOUS
 62
     7
100
AcDbLine
 10
515.615246
 20
13.877038
 30
0.0
 11
515.872823
 21
14.134615
 31
0.0
  0
LINE
  5
415
330
1F
100
AcDbEntity
  8
GR1-1
  6
CONTINUOUS
 62
     7
100
AcDbLine
 10
516.738208
 20
15.0
 30
0.0
 11
517.084362
 21
15.346154
 31
0.0
  0
LINE
  5
416
330
1F
100
AcDbEntity
  8
GR1-1
  6
CONTINUOUS
 62
     7
100
AcDbLine
 10
517.654669
 20
15.916461
 30
0.0
 11
518.8019
 21
17.063692
 31
0.0
  0
LINE
  5
417
330
1F
100
AcDbEntity
  8
GR1-1
  6
CONTINUOUS
 62
     7
100
AcDbLine
 10
513.580959
 20
11.913462
 30
0.0
 11
514.763545
 21
13.096047
 31
0.0
  0
LINE
  5
418
330
1F
100
AcDbEntity
  8
GR1-1
  6
CONTINUOUS
 62
     7
100
AcDbLine
 10
515.579891
 20
13.912394
 30
0.0
 11
515.802112
 21
14.134615
 31
0.0
  0
LINE
  5
419
330
1F
100
AcDbEntity
  8
GR1-1
  6
CONTINUOUS
 62
     7
100
AcDbLine
 10
516.667497
 20
15.0
 30
0.0
 11
517.013651
 21
15.346154
 31
0.0
  0
LINE
  5
41A
330
1F
100
AcDbEntity
  8
GR1-1
  6
CONTINUOUS
 62
     7
100
AcDbLine
 10
517.619314
 20
15.951817
 30
0.0
 11
518.8019
 21
17.134403
 31
0.0
  0
LINE
  5
41B
330
1F
100
AcDbEntity
  8
GR1-1
  6
CONTINUOUS
 62
     7
100
AcDbLine
 10
513.510248
 20
11.913462
 30
0.0
 11
514.728189
 21
13.131403
 31
0.0
  0
LINE
  5
41C
330
1F
100
AcDbEntity
  8
GR1-1
  6
CONTINUOUS
 62
     7
100
AcDbLine
 10
515.544535
 20
13.947749
 30
0.0
 11
515.8019
 21
14.205113
 31
0.0
  0
LINE
  5
41D
330
1F
100
AcDbEntity
  8
GR1-1
  6
CONTINUOUS
 62
     7
100
AcDbLine
 10
516.596786
 20
15.0
 30
0.0
 11
516.94294
 21
15.346154
 31
0.0
  0
LINE
  5
41E
330
1F
100
AcDbEntity
  8
GR1-1
  6
CONTINUOUS
 62
     7
100
AcDbLine
 10
517.583958
 20
15.987172
 30
0.0
 11
518.8019
 21
17.205113
 31
0.0
  0
LINE
  5
41F
330
1F
100
AcDbEntity
  8
GR1-1
  6
CONTINUOUS
 62
     7
100
AcDbLine
 10
513.439537
 20
11.913462
 30
0.0
 11
514.692834
 21
13.166758
 31
0.0
  0
LINE
  5
420
330
1F
100
AcDbEntity
  8
GR1-1
  6
CONTINUOUS
 62
     7
100
AcDbLine
 10
515.50918
 20
13.983104
 30
0.0
 11
515.8019
 21
14.275824
 31
0.0
  0
LINE
  5
421
330
1F
100
AcDbEntity
  8
GR1-1
  6
CONTINUOUS
 62
     7
100
AcDbLine
 10
516.526076
 20
15.0
 30
0.0
 11
516.87223
 21
15.346154
 31
0.0
  0
LINE
  5
422
330
1F
100
AcDbEntity
  8
GR1-1
  6
CONTINUOUS
 62
     7
100
AcDbLine
 10
517.548603
 20
16.022527
 30
0.0
 11
518.8019
 21
17.275824
 31
0.0
  0
LINE
  5
423
330
1F
100
AcDbEntity
  8
GR1-1
  6
CONTINUOUS
 62
     7
100
AcDbLine
 10
513.368827
 20
11.913462
 30
0.0
 11
514.657479
 21
13.202114
 31
0.0
  0
LINE
  5
424
330
1F
100
AcDbEntity
  8
GR1-1
  6
CONTINUOUS
 62
     7
100
AcDbLine
 10
515.473825
 20
14.01846
 30
0.0
 11
515.8019
 21
14.346535
 31
0.0
  0
LINE
  5
425
330
1F
100
AcDbEntity
  8
GR1-1
  6
CONTINUOUS
 62
     7
100
AcDbLine
 10
516.455365
 20
15.0
 30
0.0
 11
516.801519
 21
15.346154
 31
0.0
  0
LINE
  5
426
330
1F
100
AcDbEntity
  8
GR1-1
  6
CONTINUOUS
 62
     7
100
AcDbLine
 10
517.513248
 20
16.057883
 30
0.0
 11
518.8019
 21
17.346535
 31
0.0
  0
LINE
  5
427
330
1F
100
AcDbEntity
  8
GR1-1
  6
CONTINUOUS
 62
     7
100
AcDbLine
 10
513.298116
 20
11.913462
 30
0.0
 11
514.622123
 21
13.237469
 31
0.0
  0
LINE
  5
428
330
1F
100
AcDbEntity
  8
GR1-1
  6
CONTINUOUS
 62
     7
100
AcDbLine
 10
515.438469
 20
14.053815
 30
0.0
 11
515.8019
 21
14.417245
 31
0.0
  0
LINE
  5
429
330
1F
100
AcDbEntity
  8
GR1-1
  6
CONTINUOUS
 62
     7
100
AcDbLine
 10
516.384654
 20
15.0
 30
0.0
 11
516.730808
 21
15.346154
 31
0.0
  0
LINE
  5
42A
330
1F
100
AcDbEntity
  8
GR1-1
  6
CONTINUOUS
 62
     7
100
AcDbLine
 10
517.477892
 20
16.093238
 30
0.0
 11
518.8019
 21
17.417245
 31
0.0
  0
LINE
  5
42B
330
1F
100
AcDbEntity
  8
GR1-1
  6
CONTINUOUS
 62
     7
100
AcDbLine
 10
513.227405
 20
11.913462
 30
0.0
 11
514.586768
 21
13.272824
 31
0.0
  0
LINE
  5
42C
330
1F
100
AcDbEntity
  8
GR1-1
  6
CONTINUOUS
 62
     7
100
AcDbLine
 10
515.403114
 20
14.08917
 30
0.0
 11
515.8019
 21
14.487956
 31
0.0
  0
LINE
  5
42D
330
1F
100
AcDbEntity
  8
GR1-1
  6
CONTINUOUS
 62
     7
100
AcDbLine
 10
516.313944
 20
15.0
 30
0.0
 11
516.660097
 21
15.346154
 31
0.0
  0
LINE
  5
42E
330
1F
100
AcDbEntity
  8
GR1-1
  6
CONTINUOUS
 62
     7
100
AcDbLine
 10
517.442537
 20
16.128593
 30
0.0
 11
518.8019
 21
17.487956
 31
0.0
  0
LINE
  5
42F
330
1F
100
AcDbEntity
  8
GR1-1
  6
CONTINUOUS
 62
     7
100
AcDbLine
 10
513.156695
 20
11.913462
 30
0.0
 11
514.551413
 21
13.30818
 31
0.0
  0
LINE
  5
430
330
1F
100
AcDbEntity
  8
GR1-1
  6
CONTINUOUS
 62
     7
100
AcDbLine
 10
515.367759
 20
14.124526
 30
0.0
 11
515.8019
 21
14.558667
 31
0.0
  0
LINE
  5
431
330
1F
100
AcDbEntity
  8
GR1-1
  6
CONTINUOUS
 62
     7
100
AcDbLine
 10
516.243233
 20
15.0
 30
0.0
 11
516.590836
 21
15.347603
 31
0.0
  0
LINE
  5
432
330
1F
100
AcDbEntity
  8
GR1-1
  6
CONTINUOUS
 62
     7
100
AcDbLine
 10
517.407182
 20
16.163949
 30
0.0
 11
518.8019
 21
17.558667
 31
0.0
  0
LINE
  5
433
330
1F
100
AcDbEntity
  8
GR1-1
  6
CONTINUOUS
 62
     7
100
AcDbLine
 10
513.085984
 20
11.913462
 30
0.0
 11
514.516057
 21
13.343535
 31
0.0
  0
LINE
  5
434
330
1F
100
AcDbEntity
  8
GR1-1
  6
CONTINUOUS
 62
     7
100
AcDbLine
 10
515.332403
 20
14.159881
 30
0.0
 11
515.8019
 21
14.629377
 31
0.0
  0
LINE
  5
435
330
1F
100
AcDbEntity
  8
GR1-1
  6
CONTINUOUS
 62
     7
100
AcDbLine
 10
516.172522
 20
15.0
 30
0.0
 11
516.55548
 21
15.382958
 31
0.0
  0
LINE
  5
436
330
1F
100
AcDbEntity
  8
GR1-1
  6
CONTINUOUS
 62
     7
100
AcDbLine
 10
517.371826
 20
16.199304
 30
0.0
 11
518.8019
 21
17.629377
 31
0.0
  0
LINE
  5
437
330
1F
100
AcDbEntity
  8
GR1-1
  6
CONTINUOUS
 62
     7
100
AcDbLine
 10
513.015273
 20
11.913462
 30
0.0
 11
514.480702
 21
13.37889
 31
0.0
  0
LINE
  5
438
330
1F
100
AcDbEntity
  8
GR1-1
  6
CONTINUOUS
 62
     7
100
AcDbLine
 10
515.297048
 20
14.195236
 30
0.0
 11
515.8019
 21
14.700088
 31
0.0
  0
LINE
  5
439
330
1F
100
AcDbEntity
  8
GR1-1
  6
CONTINUOUS
 62
     7
100
AcDbLine
 10
516.101812
 20
15.0
 30
0.0
 11
516.520125
 21
15.418313
 31
0.0
  0
LINE
  5
43A
330
1F
100
AcDbEntity
  8
GR1-1
  6
CONTINUOUS
 62
     7
100
AcDbLine
 10
517.336471
 20
16.234659
 30
0.0
 11
518.8019
 21
17.700088
 31
0.0
  0
LINE
  5
43B
330
1F
100
AcDbEntity
  8
GR1-1
  6
CONTINUOUS
 62
     7
100
AcDbLine
 10
512.944563
 20
11.913462
 30
0.0
 11
514.445347
 21
13.414246
 31
0.0
  0
LINE
  5
43C
330
1F
100
AcDbEntity
  8
GR1-1
  6
CONTINUOUS
 62
     7
100
AcDbLine
 10
515.261693
 20
14.230592
 30
0.0
 11
515.8019
 21
14.770799
 31
0.0
  0
LINE
  5
43D
330
1F
100
AcDbEntity
  8
GR1-1
  6
CONTINUOUS
 62
     7
100
AcDbLine
 10
516.031101
 20
15.0
 30
0.0
 11
516.48477
 21
15.453669
 31
0.0
  0
LINE
  5
43E
330
1F
100
AcDbEntity
  8
GR1-1
  6
CONTINUOUS
 62
     7
100
AcDbLine
 10
517.301116
 20
16.270015
 30
0.0
 11
518.8019
 21
17.770799
 31
0.0
  0
LINE
  5
43F
330
1F
100
AcDbEntity
  8
GR1-1
  6
CONTINUOUS
 62
     7
100
AcDbLine
 10
512.873852
 20
11.913462
 30
0.0
 11
514.409991
 21
13.449601
 31
0.0
  0
LINE
  5
440
330
1F
100
AcDbEntity
  8
GR1-1
  6
CONTINUOUS
 62
     7
100
AcDbLine
 10
515.226337
 20
14.265947
 30
0.0
 11
515.8019
 21
14.841509
 31
0.0
  0
LINE
  5
441
330
1F
100
AcDbEntity
  8
GR1-1
  6
CONTINUOUS
 62
     7
100
AcDbLine
 10
515.96039
 20
15.0
 30
0.0
 11
516.449414
 21
15.489024
 31
0.0
  0
LINE
  5
442
330
1F
100
AcDbEntity
  8
GR1-1
  6
CONTINUOUS
 62
     7
100
AcDbLine
 10
517.26576
 20
16.30537
 30
0.0
 11
518.8019
 21
17.841509
 31
0.0
  0
LINE
  5
443
330
1F
100
AcDbEntity
  8
GR1-1
  6
CONTINUOUS
 62
     7
100
AcDbLine
 10
512.803141
 20
11.913462
 30
0.0
 11
514.374636
 21
13.484956
 31
0.0
  0
LINE
  5
444
330
1F
100
AcDbEntity
  8
GR1-1
  6
CONTINUOUS
 62
     7
100
AcDbLine
 10
515.190982
 20
14.301302
 30
0.0
 11
515.8019
 21
14.91222
 31
0.0
  0
LINE
  5
445
330
1F
100
AcDbEntity
  8
GR1-1
  6
CONTINUOUS
 62
     7
100
AcDbLine
 10
515.88968
 20
15.0
 30
0.0
 11
516.414059
 21
15.524379
 31
0.0
  0
LINE
  5
446
330
1F
100
AcDbEntity
  8
GR1-1
  6
CONTINUOUS
 62
     7
100
AcDbLine
 10
517.230405
 20
16.340725
 30
0.0
 11
518.8019
 21
17.91222
 31
0.0
  0
LINE
  5
447
330
1F
100
AcDbEntity
  8
GR1-1
  6
CONTINUOUS
 62
     7
100
AcDbLine
 10
512.8019
 20
11.982931
 30
0.0
 11
514.339281
 21
13.520312
 31
0.0
  0
LINE
  5
448
330
1F
100
AcDbEntity
  8
GR1-1
  6
CONTINUOUS
 62
     7
100
AcDbLine
 10
515.155627
 20
14.336658
 30
0.0
 11
515.8019
 21
14.982931
 31
0.0
  0
LINE
  5
449
330
1F
100
AcDbEntity
  8
GR1-1
  6
CONTINUOUS
 62
     7
100
AcDbLine
 10
515.818969
 20
15.0
 30
0.0
 11
516.378704
 21
15.559735
 31
0.0
  0
LINE
  5
44A
330
1F
100
AcDbEntity
  8
GR1-1
  6
CONTINUOUS
 62
     7
100
AcDbLine
 10
517.19505
 20
16.376081
 30
0.0
 11
518.73243
 21
17.913462
 31
0.0
  0
LINE
  5
44B
330
1F
100
AcDbEntity
  8
GR1-1
  6
CONTINUOUS
 62
     7
100
AcDbLine
 10
512.8019
 20
12.053642
 30
0.0
 11
514.303925
 21
13.555667
 31
0.0
  0
LINE
  5
44C
330
1F
100
AcDbEntity
  8
GR1-1
  6
CONTINUOUS
 62
     7
100
AcDbLine
 10
515.120271
 20
14.372013
 30
0.0
 11
516.343348
 21
15.59509
 31
0.0
  0
LINE
  5
44D
330
1F
100
AcDbEntity
  8
GR1-1
  6
CONTINUOUS
 62
     7
100
AcDbLine
 10
517.159694
 20
16.411436
 30
0.0
 11
518.66172
 21
17.913462
 31
0.0
  0
LINE
  5
44E
330
1F
100
AcDbEntity
  8
GR1-1
  6
CONTINUOUS
 62
     7
100
AcDbLine
 10
512.8019
 20
12.124352
 30
0.0
 11
514.26857
 21
13.591022
 31
0.0
  0
LINE
  5
44F
330
1F
100
AcDbEntity
  8
GR1-1
  6
CONTINUOUS
 62
     7
100
AcDbLine
 10
515.084916
 20
14.407368
 30
0.0
 11
516.307993
 21
15.630445
 31
0.0
  0
LINE
  5
450
330
1F
100
AcDbEntity
  8
GR1-1
  6
CONTINUOUS
 62
     7
100
AcDbLine
 10
517.124339
 20
16.446791
 30
0.0
 11
518.591009
 21
17.913462
 31
0.0
  0
LINE
  5
451
330
1F
100
AcDbEntity
  8
GR1-1
  6
CONTINUOUS
 62
     7
100
AcDbLine
 10
512.8019
 20
12.195063
 30
0.0
 11
514.233214
 21
13.626378
 31
0.0
  0
LINE
  5
452
330
1F
100
AcDbEntity
  8
GR1-1
  6
CONTINUOUS
 62
     7
100
AcDbLine
 10
515.049561
 20
14.442724
 30
0.0
 11
516.272638
 21
15.665801
 31
0.0
  0
LINE
  5
453
330
1F
100
AcDbEntity
  8
GR1-1
  6
CONTINUOUS
 62
     7
100
AcDbLine
 10
517.088984
 20
16.482147
 30
0.0
 11
518.520298
 21
17.913462
 31
0.0
  0
LINE
  5
454
330
1F
100
AcDbEntity
  8
GR1-1
  6
CONTINUOUS
 62
     7
100
AcDbLine
 10
512.8019
 20
12.265774
 30
0.0
 11
514.197859
 21
13.661733
 31
0.0
  0
LINE
  5
455
330
1F
100
AcDbEntity
  8
GR1-1
  6
CONTINUOUS
 62
     7
100
AcDbLine
 10
515.014205
 20
14.478079
 30
0.0
 11
516.237282
 21
15.701156
 31
0.0
  0
LINE
  5
456
330
1F
100
AcDbEntity
  8
GR1-1
  6
CONTINUOUS
 62
     7
100
AcDbLine
 10
517.053628
 20
16.517502
 30
0.0
 11
518.449588
 21
17.913462
 31
0.0
  0
LINE
  5
457
330
1F
100
AcDbEntity
  8
GR1-1
  6
CONTINUOUS
 62
     7
100
AcDbLine
 10
512.8019
 20
12.336484
 30
0.0
 11
514.162504
 21
13.697088
 31
0.0
  0
LINE
  5
458
330
1F
100
AcDbEntity
  8
GR1-1
  6
CONTINUOUS
 62
     7
100
AcDbLine
 10
514.97885
 20
14.513434
 30
0.0
 11
516.201927
 21
15.736511
 31
0.0
  0
LINE
  5
459
330
1F
100
AcDbEntity
  8
GR1-1
  6
CONTINUOUS
 62
     7
100
AcDbLine
 10
517.018273
 20
16.552857
 30
0.0
 11
518.378877
 21
17.913462
 31
0.0
  0
LINE
  5
45A
330
1F
100
AcDbEntity
  8
GR1-1
  6
CONTINUOUS
 62
     7
100
AcDbLine
 10
512.8019
 20
12.407195
 30
0.0
 11
514.127148
 21
13.732444
 31
0.0
  0
LINE
  5
45B
330
1F
100
AcDbEntity
  8
GR1-1
  6
CONTINUOUS
 62
     7
100
AcDbLine
 10
514.943495
 20
14.54879
 30
0.0
 11
516.166572
 21
15.771867
 31
0.0
  0
LINE
  5
45C
330
1F
100
AcDbEntity
  8
GR1-1
  6
CONTINUOUS
 62
     7
100
AcDbLine
 10
516.982918
 20
16.588213
 30
0.0
 11
518.308166
 21
17.913462
 31
0.0
  0
LINE
  5
45D
330
1F
100
AcDbEntity
  8
GR1-1
  6
CONTINUOUS
 62
     7
100
AcDbLine
 10
512.8019
 20
12.477906
 30
0.0
 11
514.091793
 21
13.767799
 31
0.0
  0
LINE
  5
45E
330
1F
100
AcDbEntity
  8
GR1-1
  6
CONTINUOUS
 62
     7
100
AcDbLine
 10
514.908139
 20
14.584145
 30
0.0
 11
516.131216
 21
15.807222
 31
0.0
  0
LINE
  5
45F
330
1F
100
AcDbEntity
  8
GR1-1
  6
CONTINUOUS
 62
     7
100
AcDbLine
 10
516.947562
 20
16.623568
 30
0.0
 11
518.237456
 21
17.913462
 31
0.0
  0
LINE
  5
460
330
1F
100
AcDbEntity
  8
GR1-1
  6
CONTINUOUS
 62
     7
100
AcDbLine
 10
512.8019
 20
12.548616
 30
0.0
 11
514.056438
 21
13.803154
 31
0.0
  0
LINE
  5
461
330
1F
100
AcDbEntity
  8
GR1-1
  6
CONTINUOUS
 62
     7
100
AcDbLine
 10
514.872784
 20
14.6195
 30
0.0
 11
516.095861
 21
15.842577
 31
0.0
  0
LINE
  5
462
330
1F
100
AcDbEntity
  8
GR1-1
  6
CONTINUOUS
 62
     7
100
AcDbLine
 10
516.912207
 20
16.658923
 30
0.0
 11
518.166745
 21
17.913462
 31
0.0
  0
LINE
  5
463
330
1F
100
AcDbEntity
  8
GR1-1
  6
CONTINUOUS
 62
     7
100
AcDbLine
 10
512.8019
 20
12.619327
 30
0.0
 11
514.021082
 21
13.83851
 31
0.0
  0
LINE
  5
464
330
1F
100
AcDbEntity
  8
GR1-1
  6
CONTINUOUS
 62
     7
100
AcDbLine
 10
514.837429
 20
14.654856
 30
0.0
 11
516.060506
 21
15.877933
 31
0.0
  0
LINE
  5
465
330
1F
100
AcDbEntity
  8
GR1-1
  6
CONTINUOUS
 62
     7
100
AcDbLine
 10
516.876852
 20
16.694279
 30
0.0
 11
518.096034
 21
17.913462
 31
0.0
  0
LINE
  5
466
330
1F
100
AcDbEntity
  8
GR1-1
  6
CONTINUOUS
 62
     7
100
AcDbLine
 10
512.8019
 20
12.690038
 30
0.0
 11
513.985727
 21
13.873865
 31
0.0
  0
LINE
  5
467
330
1F
100
AcDbEntity
  8
GR1-1
  6
CONTINUOUS
 62
     7
100
AcDbLine
 10
514.802073
 20
14.690211
 30
0.0
 11
516.02515
 21
15.913288
 31
0.0
  0
LINE
  5
468
330
1F
100
AcDbEntity
  8
GR1-1
  6
CONTINUOUS
 62
     7
100
AcDbLine
 10
516.841496
 20
16.729634
 30
0.0
 11
518.025324
 21
17.913462
 31
0.0
  0
LINE
  5
469
330
1F
100
AcDbEntity
  8
GR1-1
  6
CONTINUOUS
 62
     7
100
AcDbLine
 10
512.8019
 20
12.760748
 30
0.0
 11
513.950372
 21
13.90922
 31
0.0
  0
LINE
  5
46A
330
1F
100
AcDbEntity
  8
GR1-1
  6
CONTINUOUS
 62
     7
100
AcDbLine
 10
514.766718
 20
14.725566
 30
0.0
 11
515.989795
 21
15.948643
 31
0.0
  0
LINE
  5
46B
330
1F
100
AcDbEntity
  8
GR1-1
  6
CONTINUOUS
 62
     7
100
AcDbLine
 10
516.806141
 20
16.76499
 30
0.0
 11
517.954613
 21
17.913462
 31
0.0
  0
LINE
  5
46C
330
1F
100
AcDbEntity
  8
GR1-1
  6
CONTINUOUS
 62
     7
100
AcDbLine
 10
512.8019
 20
12.831459
 30
0.0
 11
513.915016
 21
13.944576
 31
0.0
  0
LINE
  5
46D
330
1F
100
AcDbEntity
  8
GR1-1
  6
CONTINUOUS
 62
     7
100
AcDbLine
 10
514.731363
 20
14.760922
 30
0.0
 11
515.95444
 21
15.983999
 31
0.0
  0
LINE
  5
46E
330
1F
100
AcDbEntity
  8
GR1-1
  6
CONTINUOUS
 62
     7
100
AcDbLine
 10
516.770786
 20
16.800345
 30
0.0
 11
517.883902
 21
17.913462
 31
0.0
  0
LINE
  5
46F
330
1F
100
AcDbEntity
  8
GR1-1
  6
CONTINUOUS
 62
     7
100
AcDbLine
 10
512.8019
 20
12.90217
 30
0.0
 11
513.879661
 21
13.979931
 31
0.0
  0
LINE
  5
470
330
1F
100
AcDbEntity
  8
GR1-1
  6
CONTINUOUS
 62
     7
100
AcDbLine
 10
514.696007
 20
14.796277
 30
0.0
 11
515.919084
 21
16.019354
 31
0.0
  0
LINE
  5
471
330
1F
100
AcDbEntity
  8
GR1-1
  6
CONTINUOUS
 62
     7
100
AcDbLine
 10
516.73543
 20
16.8357
 30
0.0
 11
517.813192
 21
17.913462
 31
0.0
  0
LINE
  5
472
330
1F
100
AcDbEntity
  8
GR1-1
  6
CONTINUOUS
 62
     7
100
AcDbLine
 10
512.8019
 20
12.97288
 30
0.0
 11
513.844306
 21
14.015286
 31
0.0
  0
LINE
  5
473
330
1F
100
AcDbEntity
  8
GR1-1
  6
CONTINUOUS
 62
     7
100
AcDbLine
 10
514.660652
 20
14.831632
 30
0.0
 11
515.883729
 21
16.054709
 31
0.0
  0
LINE
  5
474
330
1F
100
AcDbEntity
  8
GR1-1
  6
CONTINUOUS
 62
     7
100
AcDbLine
 10
516.700075
 20
16.871056
 30
0.0
 11
517.742481
 21
17.913462
 31
0.0
  0
LINE
  5
475
330
1F
100
AcDbEntity
  8
GR1-1
  6
CONTINUOUS
 62
     7
100
AcDbLine
 10
512.8019
 20
13.043591
 30
0.0
 11
513.80895
 21
14.050642
 31
0.0
  0
LINE
  5
476
330
1F
100
AcDbEntity
  8
GR1-1
  6
CONTINUOUS
 62
     7
100
AcDbLine
 10
514.625297
 20
14.866988
 30
0.0
 11
515.848373
 21
16.090065
 31
0.0
  0
LINE
  5
477
330
1F
100
AcDbEntity
  8
GR1-1
  6
CONTINUOUS
 62
     7
100
AcDbLine
 10
516.66472
 20
16.906411
 30
0.0
 11
517.67177
 21
17.913462
 31
0.0
  0
LINE
  5
478
330
1F
100
AcDbEntity
  8
GR1-1
  6
CONTINUOUS
 62
     7
100
AcDbLine
 10
512.8019
 20
13.114302
 30
0.0
 11
513.773595
 21
14.085997
 31
0.0
  0
LINE
  5
479
330
1F
100
AcDbEntity
  8
GR1-1
  6
CONTINUOUS
 62
     7
100
AcDbLine
 10
514.589941
 20
14.902343
 30
0.0
 11
515.813018
 21
16.12542
 31
0.0
  0
LINE
  5
47A
330
1F
100
AcDbEntity
  8
GR1-1
  6
CONTINUOUS
 62
     7
100
AcDbLine
 10
516.629364
 20
16.941766
 30
0.0
 11
517.60106
 21
17.913462
 31
0.0
  0
LINE
  5
47B
330
1F
100
AcDbEntity
  8
GR1-1
  6
CONTINUOUS
 62
     7
100
AcDbLine
 10
512.8019
 20
13.185012
 30
0.0
 11
513.73824
 21
14.121352
 31
0.0
  0
LINE
  5
47C
330
1F
100
AcDbEntity
  8
GR1-1
  6
CONTINUOUS
 62
     7
100
AcDbLine
 10
516.594009
 20
16.977122
 30
0.0
 11
517.530349
 21
17.913462
 31
0.0
  0
LINE
  5
47D
330
1F
100
AcDbEntity
  8
GR1-1
  6
CONTINUOUS
 62
     7
100
AcDbLine
 10
512.8019
 20
13.255723
 30
0.0
 11
513.702884
 21
14.156708
 31
0.0
  0
LINE
  5
47E
330
1F
100
AcDbEntity
  8
GR1-1
  6
CONTINUOUS
 62
     7
100
AcDbLine
 10
516.558654
 20
17.012477
 30
0.0
 11
517.459638
 21
17.913462
 31
0.0
  0
LINE
  5
47F
330
1F
100
AcDbEntity
  8
GR1-1
  6
CONTINUOUS
 62
     7
100
AcDbLine
 10
512.8019
 20
13.326434
 30
0.0
 11
513.667529
 21
14.192063
 31
0.0
  0
LINE
  5
480
330
1F
100
AcDbEntity
  8
GR1-1
  6
CONTINUOUS
 62
     7
100
AcDbLine
 10
516.523298
 20
17.047832
 30
0.0
 11
517.388928
 21
17.913462
 31
0.0
  0
LINE
  5
481
330
1F
100
AcDbEntity
  8
GR1-1
  6
CONTINUOUS
 62
     7
100
AcDbLine
 10
512.8019
 20
13.397144
 30
0.0
 11
513.632174
 21
14.227418
 31
0.0
  0
LINE
  5
482
330
1F
100
AcDbEntity
  8
GR1-1
  6
CONTINUOUS
 62
     7
100
AcDbLine
 10
516.487943
 20
17.083188
 30
0.0
 11
517.318217
 21
17.913462
 31
0.0
  0
LINE
  5
483
330
1F
100
AcDbEntity
  8
GR1-1
  6
CONTINUOUS
 62
     7
100
AcDbLine
 10
512.8019
 20
13.467855
 30
0.0
 11
513.596818
 21
14.262774
 31
0.0
  0
LINE
  5
484
330
1F
100
AcDbEntity
  8
GR1-1
  6
CONTINUOUS
 62
     7
100
AcDbLine
 10
516.452588
 20
17.118543
 30
0.0
 11
517.247506
 21
17.913462
 31
0.0
  0
LINE
  5
485
330
1F
100
AcDbEntity
  8
GR1-1
  6
CONTINUOUS
 62
     7
100
AcDbLine
 10
512.8019
 20
13.538566
 30
0.0
 11
513.561463
 21
14.298129
 31
0.0
  0
LINE
  5
486
330
1F
100
AcDbEntity
  8
GR1-1
  6
CONTINUOUS
 62
     7
100
AcDbLine
 10
516.417232
 20
17.153898
 30
0.0
 11
517.176796
 21
17.913462
 31
0.0
  0
LINE
  5
487
330
1F
100
AcDbEntity
  8
GR1-1
  6
CONTINUOUS
 62
     7
100
AcDbLine
 10
512.8019
 20
13.609276
 30
0.0
 11
513.526108
 21
14.333484
 31
0.0
  0
LINE
  5
488
330
1F
100
AcDbEntity
  8
GR1-1
  6
CONTINUOUS
 62
     7
100
AcDbLine
 10
516.381877
 20
17.189254
 30
0.0
 11
517.106085
 21
17.913462
 31
0.0
  0
LINE
  5
489
330
1F
100
AcDbEntity
  8
GR1-1
  6
CONTINUOUS
 62
     7
100
AcDbLine
 10
512.8019
 20
13.679987
 30
0.0
 11
513.490752
 21
14.36884
 31
0.0
  0
LINE
  5
48A
330
1F
100
AcDbEntity
  8
GR1-1
  6
CONTINUOUS
 62
     7
100
AcDbLine
 10
516.346522
 20
17.224609
 30
0.0
 11
517.035374
 21
17.913462
 31
0.0
  0
LINE
  5
48B
330
1F
100
AcDbEntity
  8
GR1-1
  6
CONTINUOUS
 62
     7
100
AcDbLine
 10
512.8019
 20
13.750698
 30
0.0
 11
513.455397
 21
14.404195
 31
0.0
  0
LINE
  5
48C
330
1F
100
AcDbEntity
  8
GR1-1
  6
CONTINUOUS
 62
     7
100
AcDbLine
 10
516.311166
 20
17.259964
 30
0.0
 11
516.964664
 21
17.913462
 31
0.0
  0
LINE
  5
48D
330
1F
100
AcDbEntity
  8
GR1-1
  6
CONTINUOUS
 62
     7
100
AcDbLine
 10
512.8019
 20
13.821408
 30
0.0
 11
513.420042
 21
14.43955
 31
0.0
  0
LINE
  5
48E
330
1F
100
AcDbEntity
  8
GR1-1
  6
CONTINUOUS
 62
     7
100
AcDbLine
 10
516.275811
 20
17.29532
 30
0.0
 11
516.893953
 21
17.913462
 31
0.0
  0
LINE
  5
48F
330
1F
100
AcDbEntity
  8
GR1-1
  6
CONTINUOUS
 62
     7
100
AcDbLine
 10
512.8019
 20
13.892119
 30
0.0
 11
513.384686
 21
14.474906
 31
0.0
  0
LINE
  5
490
330
1F
100
AcDbEntity
  8
GR1-1
  6
CONTINUOUS
 62
     7
100
AcDbLine
 10
516.240456
 20
17.330675
 30
0.0
 11
516.823242
 21
17.913462
 31
0.0
  0
LINE
  5
491
330
1F
100
AcDbEntity
  8
GR1-1
  6
CONTINUOUS
 62
     7
100
AcDbLine
 10
512.8019
 20
13.96283
 30
0.0
 11
513.349331
 21
14.510261
 31
0.0
  0
LINE
  5
492
330
1F
100
AcDbEntity
  8
GR1-1
  6
CONTINUOUS
 62
     7
100
AcDbLine
 10
516.2051
 20
17.36603
 30
0.0
 11
516.752531
 21
17.913462
 31
0.0
  0
LINE
  5
493
330
1F
100
AcDbEntity
  8
GR1-1
  6
CONTINUOUS
 62
     7
100
AcDbLine
 10
512.8019
 20
14.033541
 30
0.0
 11
513.313976
 21
14.545616
 31
0.0
  0
LINE
  5
494
330
1F
100
AcDbEntity
  8
GR1-1
  6
CONTINUOUS
 62
     7
100
AcDbLine
 10
516.169745
 20
17.401386
 30
0.0
 11
516.681821
 21
17.913462
 31
0.0
  0
LINE
  5
495
330
1F
100
AcDbEntity
  8
GR1-1
  6
CONTINUOUS
 62
     7
100
AcDbLine
 10
512.8019
 20
14.104251
 30
0.0
 11
513.27862
 21
14.580972
 31
0.0
  0
LINE
  5
496
330
1F
100
AcDbEntity
  8
GR1-1
  6
CONTINUOUS
 62
     7
100
AcDbLine
 10
516.13439
 20
17.436741
 30
0.0
 11
516.61111
 21
17.913462
 31
0.0
  0
LINE
  5
497
330
1F
100
AcDbEntity
  8
GR1-1
  6
CONTINUOUS
 62
     7
100
AcDbLine
 10
512.8019
 20
14.174962
 30
0.0
 11
513.243265
 21
14.616327
 31
0.0
  0
LINE
  5
498
330
1F
100
AcDbEntity
  8
GR1-1
  6
CONTINUOUS
 62
     7
100
AcDbLine
 10
516.099034
 20
17.472096
 30
0.0
 11
516.540399
 21
17.913462
 31
0.0
  0
LINE
  5
499
330
1F
100
AcDbEntity
  8
GR1-1
  6
CONTINUOUS
 62
     7
100
AcDbLine
 10
512.8019
 20
14.245673
 30
0.0
 11
513.20791
 21
14.651682
 31
0.0
  0
LINE
  5
49A
330
1F
100
AcDbEntity
  8
GR1-1
  6
CONTINUOUS
 62
     7
100
AcDbLine
 10
516.063679
 20
17.507452
 30
0.0
 11
516.469689
 21
17.913462
 31
0.0
  0
LINE
  5
49B
330
1F
100
AcDbEntity
  8
GR1-1
  6
CONTINUOUS
 62
     7
100
AcDbLine
 10
512.8019
 20
14.316383
 30
0.0
 11
513.172554
 21
14.687038
 31
0.0
  0
LINE
  5
49C
330
1F
100
AcDbEntity
  8
GR1-1
  6
CONTINUOUS
 62
     7
100
AcDbLine
 10
516.028324
 20
17.542807
 30
0.0
 11
516.398978
 21
17.913462
 31
0.0
  0
LINE
  5
49D
330
1F
100
AcDbEntity
  8
GR1-1
  6
CONTINUOUS
 62
     7
100
AcDbLine
 10
512.8019
 20
14.387094
 30
0.0
 11
513.137199
 21
14.722393
 31
0.0
  0
LINE
  5
49E
330
1F
100
AcDbEntity
  8
GR1-1
  6
CONTINUOUS
 62
     7
100
AcDbLine
 10
515.992968
 20
17.578162
 30
0.0
 11
516.328267
 21
17.913462
 31
0.0
  0
LINE
  5
49F
330
1F
100
AcDbEntity
  8
GR1-1
  6
CONTINUOUS
 62
     7
100
AcDbLine
 10
512.8019
 20
14.457805
 30
0.0
 11
513.101844
 21
14.757748
 31
0.0
  0
LINE
  5
4A0
330
1F
100
AcDbEntity
  8
GR1-1
  6
CONTINUOUS
 62
     7
100
AcDbLine
 10
515.957613
 20
17.613518
 30
0.0
 11
516.257557
 21
17.913462
 31
0.0
  0
LINE
  5
4A1
330
1F
100
AcDbEntity
  8
GR1-1
  6
CONTINUOUS
 62
     7
100
AcDbLine
 10
512.8019
 20
14.528515
 30
0.0
 11
513.066488
 21
14.793104
 31
0.0
  0
LINE
  5
4A2
330
1F
100
AcDbEntity
  8
GR1-1
  6
CONTINUOUS
 62
     7
100
AcDbLine
 10
515.922258
 20
17.648873
 30
0.0
 11
516.186846
 21
17.913462
 31
0.0
  0
LINE
  5
4A3
330
1F
100
AcDbEntity
  8
GR1-1
  6
CONTINUOUS
 62
     7
100
AcDbLine
 10
512.8019
 20
14.599226
 30
0.0
 11
513.031133
 21
14.828459
 31
0.0
  0
LINE
  5
4A4
330
1F
100
AcDbEntity
  8
GR1-1
  6
CONTINUOUS
 62
     7
100
AcDbLine
 10
515.886902
 20
17.684228
 30
0.0
 11
516.116135
 21
17.913462
 31
0.0
  0
LINE
  5
4A5
330
1F
100
AcDbEntity
  8
GR1-1
  6
CONTINUOUS
 62
     7
100
AcDbLine
 10
512.8019
 20
14.669937
 30
0.0
 11
512.995778
 21
14.863814
 31
0.0
  0
LINE
  5
4A6
330
1F
100
AcDbEntity
  8
GR1-1
  6
CONTINUOUS
 62
     7
100
AcDbLine
 10
515.851547
 20
17.719584
 30
0.0
 11
516.045425
 21
17.913462
 31
0.0
  0
LINE
  5
4A7
330
1F
100
AcDbEntity
  8
GR1-1
  6
CONTINUOUS
 62
     7
100
AcDbLine
 10
512.8019
 20
14.740647
 30
0.0
 11
512.960422
 21
14.89917
 31
0.0
  0
LINE
  5
4A8
330
1F
100
AcDbEntity
  8
GR1-1
  6
CONTINUOUS
 62
     7
100
AcDbLine
 10
515.816192
 20
17.754939
 30
0.0
 11
515.974714
 21
17.913462
 31
0.0
  0
LINE
  5
4A9
330
1F
100
AcDbEntity
  8
GR1-1
  6
CONTINUOUS
 62
     7
100
AcDbLine
 10
512.8019
 20
14.811358
 30
0.0
 11
515.904003
 21
17.913462
 31
0.0
  0
LINE
  5
4AA
330
1F
100
AcDbEntity
  8
GR1-1
  6
CONTINUOUS
 62
     7
100
AcDbLine
 10
512.8019
 20
14.882069
 30
0.0
 11
515.833293
 21
17.913462
 31
0.0
  0
LINE
  5
4AB
330
1F
100
AcDbEntity
  8
GR1-1
  6
CONTINUOUS
 62
     7
100
AcDbLine
 10
512.8019
 20
14.952779
 30
0.0
 11
515.762582
 21
17.913462
 31
0.0
  0
LINE
  5
4AC
330
1F
100
AcDbEntity
  8
GR1-1
  6
CONTINUOUS
 62
     7
100
AcDbLine
 10
512.8019
 20
15.02349
 30
0.0
 11
515.691871
 21
17.913462
 31
0.0
  0
LINE
  5
4AD
330
1F
100
AcDbEntity
  8
GR1-1
  6
CONTINUOUS
 62
     7
100
AcDbLine
 10
512.8019
 20
15.094201
 30
0.0
 11
515.621161
 21
17.913462
 31
0.0
  0
LINE
  5
4AE
330
1F
100
AcDbEntity
  8
GR1-1
  6
CONTINUOUS
 62
     7
100
AcDbLine
 10
512.8019
 20
15.164911
 30
0.0
 11
515.55045
 21
17.913462
 31
0.0
  0
LINE
  5
4AF
330
1F
100
AcDbEntity
  8
GR1-1
  6
CONTINUOUS
 62
     7
100
AcDbLine
 10
512.8019
 20
15.235622
 30
0.0
 11
515.479739
 21
17.913462
 31
0.0
  0
LINE
  5
4B0
330
1F
100
AcDbEntity
  8
GR1-1
  6
CONTINUOUS
 62
     7
100
AcDbLine
 10
512.8019
 20
15.306333
 30
0.0
 11
515.409029
 21
17.913462
 31
0.0
  0
LINE
  5
4B1
330
1F
100
AcDbEntity
  8
GR1-1
  6
CONTINUOUS
 62
     7
100
AcDbLine
 10
512.8019
 20
15.377043
 30
0.0
 11
515.338318
 21
17.913462
 31
0.0
  0
LINE
  5
4B2
330
1F
100
AcDbEntity
  8
GR1-1
  6
CONTINUOUS
 62
     7
100
AcDbLine
 10
512.8019
 20
15.447754
 30
0.0
 11
515.267607
 21
17.913462
 31
0.0
  0
LINE
  5
4B3
330
1F
100
AcDbEntity
  8
GR1-1
  6
CONTINUOUS
 62
     7
100
AcDbLine
 10
512.8019
 20
15.518465
 30
0.0
 11
515.196897
 21
17.913462
 31
0.0
  0
LINE
  5
4B4
330
1F
100
AcDbEntity
  8
GR1-1
  6
CONTINUOUS
 62
     7
100
AcDbLine
 10
512.8019
 20
15.589175
 30
0.0
 11
515.126186
 21
17.913462
 31
0.0
  0
LINE
  5
4B5
330
1F
100
AcDbEntity
  8
GR1-1
  6
CONTINUOUS
 62
     7
100
AcDbLine
 10
512.8019
 20
15.659886
 30
0.0
 11
515.055475
 21
17.913462
 31
0.0
  0
LINE
  5
4B6
330
1F
100
AcDbEntity
  8
GR1-1
  6
CONTINUOUS
 62
     7
100
AcDbLine
 10
512.8019
 20
15.730597
 30
0.0
 11
514.984765
 21
17.913462
 31
0.0
  0
LINE
  5
4B7
330
1F
100
AcDbEntity
  8
GR1-1
  6
CONTINUOUS
 62
     7
100
AcDbLine
 10
512.8019
 20
15.801307
 30
0.0
 11
514.914054
 21
17.913462
 31
0.0
  0
LINE
  5
4B8
330
1F
100
AcDbEntity
  8
GR1-1
  6
CONTINUOUS
 62
     7
100
AcDbLine
 10
512.8019
 20
15.872018
 30
0.0
 11
514.843343
 21
17.913462
 31
0.0
  0
LINE
  5
4B9
330
1F
100
AcDbEntity
  8
GR1-1
  6
CONTINUOUS
 62
     7
100
AcDbLine
 10
512.8019
 20
15.942729
 30
0.0
 11
514.772632
 21
17.913462
 31
0.0
  0
LINE
  5
4BA
330
1F
100
AcDbEntity
  8
GR1-1
  6
CONTINUOUS
 62
     7
100
AcDbLine
 10
512.8019
 20
16.013439
 30
0.0
 11
514.701922
 21
17.913462
 31
0.0
  0
LINE
  5
4BB
330
1F
100
AcDbEntity
  8
GR1-1
  6
CONTINUOUS
 62
     7
100
AcDbLine
 10
512.8019
 20
16.08415
 30
0.0
 11
514.631211
 21
17.913462
 31
0.0
  0
LINE
  5
4BC
330
1F
100
AcDbEntity
  8
GR1-1
  6
CONTINUOUS
 62
     7
100
AcDbLine
 10
512.8019
 20
16.154861
 30
0.0
 11
514.5605
 21
17.913462
 31
0.0
  0
LINE
  5
4BD
330
1F
100
AcDbEntity
  8
GR1-1
  6
CONTINUOUS
 62
     7
100
AcDbLine
 10
512.8019
 20
16.225572
 30
0.0
 11
514.48979
 21
17.913462
 31
0.0
  0
LINE
  5
4BE
330
1F
100
AcDbEntity
  8
GR1-1
  6
CONTINUOUS
 62
     7
100
AcDbLine
 10
512.8019
 20
16.296282
 30
0.0
 11
514.419079
 21
17.913462
 31
0.0
  0
LINE
  5
4BF
330
1F
100
AcDbEntity
  8
GR1-1
  6
CONTINUOUS
 62
     7
100
AcDbLine
 10
512.8019
 20
16.366993
 30
0.0
 11
514.348368
 21
17.913462
 31
0.0
  0
LINE
  5
4C0
330
1F
100
AcDbEntity
  8
GR1-1
  6
CONTINUOUS
 62
     7
100
AcDbLine
 10
512.8019
 20
16.437704
 30
0.0
 11
514.277658
 21
17.913462
 31
0.0
  0
LINE
  5
4C1
330
1F
100
AcDbEntity
  8
GR1-1
  6
CONTINUOUS
 62
     7
100
AcDbLine
 10
512.8019
 20
16.508414
 30
0.0
 11
514.206947
 21
17.913462
 31
0.0
  0
LINE
  5
4C2
330
1F
100
AcDbEntity
  8
GR1-1
  6
CONTINUOUS
 62
     7
100
AcDbLine
 10
512.8019
 20
16.579125
 30
0.0
 11
514.136236
 21
17.913462
 31
0.0
  0
LINE
  5
4C3
330
1F
100
AcDbEntity
  8
GR1-1
  6
CONTINUOUS
 62
     7
100
AcDbLine
 10
512.8019
 20
16.649836
 30
0.0
 11
514.065526
 21
17.913462
 31
0.0
  0
LINE
  5
4C4
330
1F
100
AcDbEntity
  8
GR1-1
  6
CONTINUOUS
 62
     7
100
AcDbLine
 10
512.8019
 20
16.720546
 30
0.0
 11
513.994815
 21
17.913462
 31
0.0
  0
LINE
  5
4C5
330
1F
100
AcDbEntity
  8
GR1-1
  6
CONTINUOUS
 62
     7
100
AcDbLine
 10
512.8019
 20
16.791257
 30
0.0
 11
513.924104
 21
17.913462
 31
0.0
  0
LINE
  5
4C6
330
1F
100
AcDbEntity
  8
GR1-1
  6
CONTINUOUS
 62
     7
100
AcDbLine
 10
512.8019
 20
16.861968
 30
0.0
 11
513.853394
 21
17.913462
 31
0.0
  0
LINE
  5
4C7
330
1F
100
AcDbEntity
  8
GR1-1
  6
CONTINUOUS
 62
     7
100
AcDbLine
 10
512.8019
 20
16.932678
 30
0.0
 11
513.782683
 21
17.913462
 31
0.0
  0
LINE
  5
4C8
330
1F
100
AcDbEntity
  8
GR1-1
  6
CONTINUOUS
 62
     7
100
AcDbLine
 10
512.8019
 20
17.003389
 30
0.0
 11
513.711972
 21
17.913462
 31
0.0
  0
LINE
  5
4C9
330
1F
100
AcDbEntity
  8
GR1-1
  6
CONTINUOUS
 62
     7
100
AcDbLine
 10
512.8019
 20
17.0741
 30
0.0
 11
513.641262
 21
17.913462
 31
0.0
  0
LINE
  5
4CA
330
1F
100
AcDbEntity
  8
GR1-1
  6
CONTINUOUS
 62
     7
100
AcDbLine
 10
512.8019
 20
17.14481
 30
0.0
 11
513.570551
 21
17.913462
 31
0.0
  0
LINE
  5
4CB
330
1F
100
AcDbEntity
  8
GR1-1
  6
CONTINUOUS
 62
     7
100
AcDbLine
 10
512.8019
 20
17.215521
 30
0.0
 11
513.49984
 21
17.913462
 31
0.0
  0
LINE
  5
4CC
330
1F
100
AcDbEntity
  8
GR1-1
  6
CONTINUOUS
 62
     7
100
AcDbLine
 10
512.8019
 20
17.286232
 30
0.0
 11
513.42913
 21
17.913462
 31
0.0
  0
LINE
  5
4CD
330
1F
100
AcDbEntity
  8
GR1-1
  6
CONTINUOUS
 62
     7
100
AcDbLine
 10
512.8019
 20
17.356942
 30
0.0
 11
513.358419
 21
17.913462
 31
0.0
  0
LINE
  5
4CE
330
1F
100
AcDbEntity
  8
GR1-1
  6
CONTINUOUS
 62
     7
100
AcDbLine
 10
512.8019
 20
17.427653
 30
0.0
 11
513.287708
 21
17.913462
 31
0.0
  0
LINE
  5
4CF
330
1F
100
AcDbEntity
  8
GR1-1
  6
CONTINUOUS
 62
     7
100
AcDbLine
 10
512.8019
 20
17.498364
 30
0.0
 11
513.216998
 21
17.913462
 31
0.0
  0
LINE
  5
4D0
330
1F
100
AcDbEntity
  8
GR1-1
  6
CONTINUOUS
 62
     7
100
AcDbLine
 10
512.8019
 20
17.569074
 30
0.0
 11
513.146287
 21
17.913462
 31
0.0
  0
LINE
  5
4D1
330
1F
100
AcDbEntity
  8
GR1-1
  6
CONTINUOUS
 62
     7
100
AcDbLine
 10
512.8019
 20
17.639785
 30
0.0
 11
513.075576
 21
17.913462
 31
0.0
  0
LINE
  5
4D2
330
1F
100
AcDbEntity
  8
GR1-1
  6
CONTINUOUS
 62
     7
100
AcDbLine
 10
512.8019
 20
17.710496
 30
0.0
 11
513.004866
 21
17.913462
 31
0.0
  0
LINE
  5
4D3
330
1F
100
AcDbEntity
  8
GR1-1
  6
CONTINUOUS
 62
     7
100
AcDbLine
 10
512.8019
 20
17.781206
 30
0.0
 11
512.934155
 21
17.913462
 31
0.0
  0
LINE
  5
4D4
330
1F
100
AcDbEntity
  8
GR1-1
  6
CONTINUOUS
 62
     7
100
AcDbLine
 10
512.8019
 20
17.851917
 30
0.0
 11
512.863444
 21
17.913462
 31
0.0
  0
LINE
  5
4D5
330
1F
100
AcDbEntity
  8
GR1-1
  6
CONTINUOUS
 62
     7
100
AcDbLine
 10
513.793091
 20
11.913462
 30
0.0
 11
514.869611
 21
12.989981
 31
0.0
  0
LINE
  5
4D6
330
1F
100
AcDbEntity
  8
GR1-1
  6
CONTINUOUS
 62
     7
100
AcDbLine
 10
515.685957
 20
13.806328
 30
0.0
 11
516.014245
 21
14.134615
 31
0.0
  0
LINE
  5
4D7
330
1F
100
AcDbEntity
  8
GR1-1
  6
CONTINUOUS
 62
     7
100
AcDbLine
 10
516.879629
 20
15.0
 30
0.0
 11
517.225783
 21
15.346154
 31
0.0
  0
LINE
  5
4D8
330
1F
100
AcDbEntity
  8
GR1-1
  6
CONTINUOUS
 62
     7
100
AcDbLine
 10
517.72538
 20
15.845751
 30
0.0
 11
518.8019
 21
16.922271
 31
0.0
  0
LINE
  5
4D9
330
1F
100
AcDbEntity
  8
GR1-1
  6
CONTINUOUS
 62
     7
100
AcDbLine
 10
513.863801
 20
11.913462
 30
0.0
 11
514.904966
 21
12.954626
 31
0.0
  0
LINE
  5
4DA
330
1F
100
AcDbEntity
  8
GR1-1
  6
CONTINUOUS
 62
     7
100
AcDbLine
 10
515.721312
 20
13.770972
 30
0.0
 11
516.084955
 21
14.134615
 31
0.0
  0
LINE
  5
4DB
330
1F
100
AcDbEntity
  8
GR1-1
  6
CONTINUOUS
 62
     7
100
AcDbLine
 10
516.95034
 20
15.0
 30
0.0
 11
517.296494
 21
15.346154
 31
0.0
  0
LINE
  5
4DC
330
1F
100
AcDbEntity
  8
GR1-1
  6
CONTINUOUS
 62
     7
100
AcDbLine
 10
517.760735
 20
15.810395
 30
0.0
 11
518.8019
 21
16.85156
 31
0.0
  0
LINE
  5
4DD
330
1F
100
AcDbEntity
  8
GR1-1
  6
CONTINUOUS
 62
     7
100
AcDbLine
 10
513.934512
 20
11.913462
 30
0.0
 11
514.940321
 21
12.919271
 31
0.0
  0
LINE
  5
4DE
330
1F
100
AcDbEntity
  8
GR1-1
  6
CONTINUOUS
 62
     7
100
AcDbLine
 10
515.756667
 20
13.735617
 30
0.0
 11
516.155666
 21
14.134615
 31
0.0
  0
LINE
  5
4DF
330
1F
100
AcDbEntity
  8
GR1-1
  6
CONTINUOUS
 62
     7
100
AcDbLine
 10
517.02105
 20
15.0
 30
0.0
 11
517.367204
 21
15.346154
 31
0.0
  0
LINE
  5
4E0
330
1F
100
AcDbEntity
  8
GR1-1
  6
CONTINUOUS
 62
     7
100
AcDbLine
 10
517.79609
 20
15.77504
 30
0.0
 11
518.8019
 21
16.780849
 31
0.0
  0
LINE
  5
4E1
330
1F
100
AcDbEntity
  8
GR1-1
  6
CONTINUOUS
 62
     7
100
AcDbLine
 10
514.005223
 20
11.913462
 30
0.0
 11
514.975677
 21
12.883915
 31
0.0
  0
LINE
  5
4E2
330
1F
100
AcDbEntity
  8
GR1-1
  6
CONTINUOUS
 62
     7
100
AcDbLine
 10
515.792023
 20
13.700262
 30
0.0
 11
516.226377
 21
14.134615
 31
0.0
  0
LINE
  5
4E3
330
1F
100
AcDbEntity
  8
GR1-1
  6
CONTINUOUS
 62
     7
100
AcDbLine
 10
517.091761
 20
15.0
 30
0.0
 11
517.437915
 21
15.346154
 31
0.0
  0
LINE
  5
4E4
330
1F
100
AcDbEntity
  8
GR1-1
  6
CONTINUOUS
 62
     7
100
AcDbLine
 10
517.831446
 20
15.739685
 30
0.0
 11
518.8019
 21
16.710139
 31
0.0
  0
LINE
  5
4E5
330
1F
100
AcDbEntity
  8
GR1-1
  6
CONTINUOUS
 62
     7
100
AcDbLine
 10
514.075933
 20
11.913462
 30
0.0
 11
515.011032
 21
12.84856
 31
0.0
  0
LINE
  5
4E6
330
1F
100
AcDbEntity
  8
GR1-1
  6
CONTINUOUS
 62
     7
100
AcDbLine
 10
517.162472
 20
15.0
 30
0.0
 11
517.508626
 21
15.346154
 31
0.0
  0
LINE
  5
4E7
330
1F
100
AcDbEntity
  8
GR1-1
  6
CONTINUOUS
 62
     7
100
AcDbLine
 10
517.866801
 20
15.704329
 30
0.0
 11
518.8019
 21
16.639428
 31
0.0
  0
LINE
  5
4E8
330
1F
100
AcDbEntity
  8
GR1-1
  6
CONTINUOUS
 62
     7
100
AcDbLine
 10
514.146644
 20
11.913462
 30
0.0
 11
515.046387
 21
12.813205
 31
0.0
  0
LINE
  5
4E9
330
1F
100
AcDbEntity
  8
GR1-1
  6
CONTINUOUS
 62
     7
100
AcDbLine
 10
517.233183
 20
15.0
 30
0.0
 11
517.579336
 21
15.346154
 31
0.0
  0
LINE
  5
4EA
330
1F
100
AcDbEntity
  8
GR1-1
  6
CONTINUOUS
 62
     7
100
AcDbLine
 10
517.902157
 20
15.668974
 30
0.0
 11
518.8019
 21
16.568717
 31
0.0
  0
LINE
  5
4EB
330
1F
100
AcDbEntity
  8
GR1-1
  6
CONTINUOUS
 62
     7
100
AcDbLine
 10
514.217355
 20
11.913462
 30
0.0
 11
515.081743
 21
12.777849
 31
0.0
  0
LINE
  5
4EC
330
1F
100
AcDbEntity
  8
GR1-1
  6
CONTINUOUS
 62
     7
100
AcDbLine
 10
517.303893
 20
15.0
 30
0.0
 11
517.650047
 21
15.346154
 31
0.0
  0
LINE
  5
4ED
330
1F
100
AcDbEntity
  8
GR1-1
  6
CONTINUOUS
 62
     7
100
AcDbLine
 10
517.937512
 20
15.633619
 30
0.0
 11
518.8019
 21
16.498007
 31
0.0
  0
LINE
  5
4EE
330
1F
100
AcDbEntity
  8
GR1-1
  6
CONTINUOUS
 62
     7
100
AcDbLine
 10
514.288065
 20
11.913462
 30
0.0
 11
515.117098
 21
12.742494
 31
0.0
  0
LINE
  5
4EF
330
1F
100
AcDbEntity
  8
GR1-1
  6
CONTINUOUS
 62
     7
100
AcDbLine
 10
517.374604
 20
15.0
 30
0.0
 11
517.720758
 21
15.346154
 31
0.0
  0
LINE
  5
4F0
330
1F
100
AcDbEntity
  8
GR1-1
  6
CONTINUOUS
 62
     7
100
AcDbLine
 10
517.972867
 20
15.598263
 30
0.0
 11
518.8019
 21
16.427296
 31
0.0
  0
LINE
  5
4F1
330
1F
100
AcDbEntity
  8
GR1-1
  6
CONTINUOUS
 62
     7
100
AcDbLine
 10
514.358776
 20
11.913462
 30
0.0
 11
515.152453
 21
12.707139
 31
0.0
  0
LINE
  5
4F2
330
1F
100
AcDbEntity
  8
GR1-1
  6
CONTINUOUS
 62
     7
100
AcDbLine
 10
517.445315
 20
15.0
 30
0.0
 11
517.791468
 21
15.346154
 31
0.0
  0
LINE
  5
4F3
330
1F
100
AcDbEntity
  8
GR1-1
  6
CONTINUOUS
 62
     7
100
AcDbLine
 10
518.008223
 20
15.562908
 30
0.0
 11
518.8019
 21
16.356585
 31
0.0
  0
LINE
  5
4F4
330
1F
100
AcDbEntity
  8
GR1-1
  6
CONTINUOUS
 62
     7
100
AcDbLine
 10
514.429487
 20
11.913462
 30
0.0
 11
515.187809
 21
12.671783
 31
0.0
  0
LINE
  5
4F5
330
1F
100
AcDbEntity
  8
GR1-1
  6
CONTINUOUS
 62
     7
100
AcDbLine
 10
517.516025
 20
15.0
 30
0.0
 11
517.862179
 21
15.346154
 31
0.0
  0
LINE
  5
4F6
330
1F
100
AcDbEntity
  8
GR1-1
  6
CONTINUOUS
 62
     7
100
AcDbLine
 10
518.043578
 20
15.527553
 30
0.0
 11
518.8019
 21
16.285875
 31
0.0
  0
LINE
  5
4F7
330
1F
100
AcDbEntity
  8
GR1-1
  6
CONTINUOUS
 62
     7
100
AcDbLine
 10
514.500197
 20
11.913462
 30
0.0
 11
515.223164
 21
12.636428
 31
0.0
  0
LINE
  5
4F8
330
1F
100
AcDbEntity
  8
GR1-1
  6
CONTINUOUS
 62
     7
100
AcDbLine
 10
517.586736
 20
15.0
 30
0.0
 11
517.93289
 21
15.346154
 31
0.0
  0
LINE
  5
4F9
330
1F
100
AcDbEntity
  8
GR1-1
  6
CONTINUOUS
 62
     7
100
AcDbLine
 10
518.078933
 20
15.492197
 30
0.0
 11
518.8019
 21
16.215164
 31
0.0
  0
LINE
  5
4FA
330
1F
100
AcDbEntity
  8
GR1-1
  6
CONTINUOUS
 62
     7
100
AcDbLine
 10
514.570908
 20
11.913462
 30
0.0
 11
515.258519
 21
12.601073
 31
0.0
  0
LINE
  5
4FB
330
1F
100
AcDbEntity
  8
GR1-1
  6
CONTINUOUS
 62
     7
100
AcDbLine
 10
517.657447
 20
15.0
 30
0.0
 11
518.0036
 21
15.346154
 31
0.0
  0
LINE
  5
4FC
330
1F
100
AcDbEntity
  8
GR1-1
  6
CONTINUOUS
 62
     7
100
AcDbLine
 10
518.114289
 20
15.456842
 30
0.0
 11
518.8019
 21
16.144453
 31
0.0
  0
LINE
  5
4FD
330
1F
100
AcDbEntity
  8
GR1-1
  6
CONTINUOUS
 62
     7
100
AcDbLine
 10
514.641619
 20
11.913462
 30
0.0
 11
515.293875
 21
12.565717
 31
0.0
  0
LINE
  5
4FE
330
1F
100
AcDbEntity
  8
GR1-1
  6
CONTINUOUS
 62
     7
100
AcDbLine
 10
517.728157
 20
15.0
 30
0.0
 11
518.074311
 21
15.346154
 31
0.0
  0
LINE
  5
4FF
330
1F
100
AcDbEntity
  8
GR1-1
  6
CONTINUOUS
 62
     7
100
AcDbLine
 10
518.149644
 20
15.421487
 30
0.0
 11
518.8019
 21
16.073743
 31
0.0
  0
LINE
  5
500
330
1F
100
AcDbEntity
  8
GR1-1
  6
CONTINUOUS
 62
     7
100
AcDbLine
 10
514.712329
 20
11.913462
 30
0.0
 11
515.32923
 21
12.530362
 31
0.0
  0
LINE
  5
501
330
1F
100
AcDbEntity
  8
GR1-1
  6
CONTINUOUS
 62
     7
100
AcDbLine
 10
517.798868
 20
15.0
 30
0.0
 11
518.145022
 21
15.346154
 31
0.0
  0
LINE
  5
502
330
1F
100
AcDbEntity
  8
GR1-1
  6
CONTINUOUS
 62
     7
100
AcDbLine
 10
518.184999
 20
15.386131
 30
0.0
 11
518.8019
 21
16.003032
 31
0.0
  0
LINE
  5
503
330
1F
100
AcDbEntity
  8
GR1-1
  6
CONTINUOUS
 62
     7
100
AcDbLine
 10
514.78304
 20
11.913462
 30
0.0
 11
515.364585
 21
12.495007
 31
0.0
  0
LINE
  5
504
330
1F
100
AcDbEntity
  8
GR1-1
  6
CONTINUOUS
 62
     7
100
AcDbLine
 10
517.869579
 20
15.0
 30
0.0
 11
518.215732
 21
15.346154
 31
0.0
  0
LINE
  5
505
330
1F
100
AcDbEntity
  8
GR1-1
  6
CONTINUOUS
 62
     7
100
AcDbLine
 10
518.220355
 20
15.350776
 30
0.0
 11
518.8019
 21
15.932321
 31
0.0
  0
LINE
  5
506
330
1F
100
AcDbEntity
  8
GR1-1
  6
CONTINUOUS
 62
     7
100
AcDbLine
 10
514.853751
 20
11.913462
 30
0.0
 11
515.399941
 21
12.459651
 31
0.0
  0
LINE
  5
507
330
1F
100
AcDbEntity
  8
GR1-1
  6
CONTINUOUS
 62
     7
100
AcDbLine
 10
517.940289
 20
15.0
 30
0.0
 11
518.8019
 21
15.86161
 31
0.0
  0
LINE
  5
508
330
1F
100
AcDbEntity
  8
GR1-1
  6
CONTINUOUS
 62
     7
100
AcDbLine
 10
514.924461
 20
11.913462
 30
0.0
 11
515.435296
 21
12.424296
 31
0.0
  0
LINE
  5
509
330
1F
100
AcDbEntity
  8
GR1-1
  6
CONTINUOUS
 62
     7
100
AcDbLine
 10
518.011
 20
15.0
 30
0.0
 11
518.8019
 21
15.7909
 31
0.0
  0
LINE
  5
50A
330
1F
100
AcDbEntity
  8
GR1-1
  6
CONTINUOUS
 62
     7
100
AcDbLine
 10
514.995172
 20
11.913462
 30
0.0
 11
515.470651
 21
12.388941
 31
0.0
  0
LINE
  5
50B
330
1F
100
AcDbEntity
  8
GR1-1
  6
CONTINUOUS
 62
     7
100
AcDbLine
 10
518.081711
 20
15.0
 30
0.0
 11
518.8019
 21
15.720189
 31
0.0
  0
LINE
  5
50C
330
1F
100
AcDbEntity
  8
GR1-1
  6
CONTINUOUS
 62
     7
100
AcDbLine
 10
515.065883
 20
11.913462
 30
0.0
 11
515.506007
 21
12.353585
 31
0.0
  0
LINE
  5
50D
330
1F
100
AcDbEntity
  8
GR1-1
  6
CONTINUOUS
 62
     7
100
AcDbLine
 10
518.152421
 20
15.0
 30
0.0
 11
518.8019
 21
15.649478
 31
0.0
  0
LINE
  5
50E
330
1F
100
AcDbEntity
  8
GR1-1
  6
CONTINUOUS
 62
     7
100
AcDbLine
 10
515.136594
 20
11.913462
 30
0.0
 11
515.541362
 21
12.31823
 31
0.0
  0
LINE
  5
50F
330
1F
100
AcDbEntity
  8
GR1-1
  6
CONTINUOUS
 62
     7
100
AcDbLine
 10
518.223132
 20
15.0
 30
0.0
 11
518.8019
 21
15.578768
 31
0.0
  0
LINE
  5
510
330
1F
100
AcDbEntity
  8
GR1-1
  6
CONTINUOUS
 62
     7
100
AcDbLine
 10
515.207304
 20
11.913462
 30
0.0
 11
515.576717
 21
12.282875
 31
0.0
  0
LINE
  5
511
330
1F
100
AcDbEntity
  8
GR1-1
  6
CONTINUOUS
 62
     7
100
AcDbLine
 10
518.224977
 20
14.931134
 30
0.0
 11
518.8019
 21
15.508057
 31
0.0
  0
LINE
  5
512
330
1F
100
AcDbEntity
  8
GR1-1
  6
CONTINUOUS
 62
     7
100
AcDbLine
 10
515.278015
 20
11.913462
 30
0.0
 11
515.612073
 21
12.247519
 31
0.0
  0
LINE
  5
513
330
1F
100
AcDbEntity
  8
GR1-1
  6
CONTINUOUS
 62
     7
100
AcDbLine
 10
518.224977
 20
14.860423
 30
0.0
 11
518.8019
 21
15.437346
 31
0.0
  0
LINE
  5
514
330
1F
100
AcDbEntity
  8
GR1-1
  6
CONTINUOUS
 62
     7
100
AcDbLine
 10
515.348726
 20
11.913462
 30
0.0
 11
515.647428
 21
12.212164
 31
0.0
  0
LINE
  5
515
330
1F
100
AcDbEntity
  8
GR1-1
  6
CONTINUOUS
 62
     7
100
AcDbLine
 10
518.224977
 20
14.789713
 30
0.0
 11
518.8019
 21
15.366636
 31
0.0
  0
LINE
  5
516
330
1F
100
AcDbEntity
  8
GR1-1
  6
CONTINUOUS
 62
     7
100
AcDbLine
 10
515.419436
 20
11.913462
 30
0.0
 11
515.682783
 21
12.176809
 31
0.0
  0
LINE
  5
517
330
1F
100
AcDbEntity
  8
GR1-1
  6
CONTINUOUS
 62
     7
100
AcDbLine
 10
518.224977
 20
14.719002
 30
0.0
 11
518.8019
 21
15.295925
 31
0.0
  0
LINE
  5
518
330
1F
100
AcDbEntity
  8
GR1-1
  6
CONTINUOUS
 62
     7
100
AcDbLine
 10
515.490147
 20
11.913462
 30
0.0
 11
515.718139
 21
12.141453
 31
0.0
  0
LINE
  5
519
330
1F
100
AcDbEntity
  8
GR1-1
  6
CONTINUOUS
 62
     7
100
AcDbLine
 10
518.224977
 20
14.648291
 30
0.0
 11
518.8019
 21
15.225214
 31
0.0
  0
LINE
  5
51A
330
1F
100
AcDbEntity
  8
GR1-1
  6
CONTINUOUS
 62
     7
100
AcDbLine
 10
515.560858
 20
11.913462
 30
0.0
 11
515.753494
 21
12.106098
 31
0.0
  0
LINE
  5
51B
330
1F
100
AcDbEntity
  8
GR1-1
  6
CONTINUOUS
 62
     7
100
AcDbLine
 10
518.224977
 20
14.577581
 30
0.0
 11
518.8019
 21
15.154504
 31
0.0
  0
LINE
  5
51C
330
1F
100
AcDbEntity
  8
GR1-1
  6
CONTINUOUS
 62
     7
100
AcDbLine
 10
515.631568
 20
11.913462
 30
0.0
 11
515.788849
 21
12.070743
 31
0.0
  0
LINE
  5
51D
330
1F
100
AcDbEntity
  8
GR1-1
  6
CONTINUOUS
 62
     7
100
AcDbLine
 10
518.224977
 20
14.50687
 30
0.0
 11
518.8019
 21
15.083793
 31
0.0
  0
LINE
  5
51E
330
1F
100
AcDbEntity
  8
GR1-1
  6
CONTINUOUS
 62
     7
100
AcDbLine
 10
515.702279
 20
11.913462
 30
0.0
 11
517.359592
 21
13.570775
 31
0.0
  0
LINE
  5
51F
330
1F
100
AcDbEntity
  8
GR1-1
  6
CONTINUOUS
 62
     7
100
AcDbLine
 10
518.224977
 20
14.436159
 30
0.0
 11
518.8019
 21
15.013082
 31
0.0
  0
LINE
  5
520
330
1F
100
AcDbEntity
  8
GR1-1
  6
CONTINUOUS
 62
     7
100
AcDbLine
 10
515.77299
 20
11.913462
 30
0.0
 11
517.359592
 21
13.500064
 31
0.0
  0
LINE
  5
521
330
1F
100
AcDbEntity
  8
GR1-1
  6
CONTINUOUS
 62
     7
100
AcDbLine
 10
518.224977
 20
14.365449
 30
0.0
 11
518.8019
 21
14.942372
 31
0.0
  0
LINE
  5
522
330
1F
100
AcDbEntity
  8
GR1-1
  6
CONTINUOUS
 62
     7
100
AcDbLine
 10
515.8437
 20
11.913462
 30
0.0
 11
517.359592
 21
13.429353
 31
0.0
  0
LINE
  5
523
330
1F
100
AcDbEntity
  8
GR1-1
  6
CONTINUOUS
 62
     7
100
AcDbLine
 10
518.224977
 20
14.294738
 30
0.0
 11
518.8019
 21
14.871661
 31
0.0
  0
LINE
  5
524
330
1F
100
AcDbEntity
  8
GR1-1
  6
CONTINUOUS
 62
     7
100
AcDbLine
 10
515.914411
 20
11.913462
 30
0.0
 11
517.359592
 21
13.358643
 31
0.0
  0
LINE
  5
525
330
1F
100
AcDbEntity
  8
GR1-1
  6
CONTINUOUS
 62
     7
100
AcDbLine
 10
518.224977
 20
14.224027
 30
0.0
 11
518.8019
 21
14.80095
 31
0.0
  0
LINE
  5
526
330
1F
100
AcDbEntity
  8
GR1-1
  6
CONTINUOUS
 62
     7
100
AcDbLine
 10
515.985122
 20
11.913462
 30
0.0
 11
517.359592
 21
13.287932
 31
0.0
  0
LINE
  5
527
330
1F
100
AcDbEntity
  8
GR1-1
  6
CONTINUOUS
 62
     7
100
AcDbLine
 10
518.224977
 20
14.153317
 30
0.0
 11
518.8019
 21
14.73024
 31
0.0
  0
LINE
  5
528
330
1F
100
AcDbEntity
  8
GR1-1
  6
CONTINUOUS
 62
     7
100
AcDbLine
 10
516.055832
 20
11.913462
 30
0.0
 11
517.359592
 21
13.217221
 31
0.0
  0
LINE
  5
529
330
1F
100
AcDbEntity
  8
GR1-1
  6
CONTINUOUS
 62
     7
100
AcDbLine
 10
518.224977
 20
14.082606
 30
0.0
 11
518.8019
 21
14.659529
 31
0.0
  0
LINE
  5
52A
330
1F
100
AcDbEntity
  8
GR1-1
  6
CONTINUOUS
 62
     7
100
AcDbLine
 10
516.126543
 20
11.913462
 30
0.0
 11
517.359592
 21
13.146511
 31
0.0
  0
LINE
  5
52B
330
1F
100
AcDbEntity
  8
GR1-1
  6
CONTINUOUS
 62
     7
100
AcDbLine
 10
518.224977
 20
14.011895
 30
0.0
 11
518.8019
 21
14.588818
 31
0.0
  0
LINE
  5
52C
330
1F
100
AcDbEntity
  8
GR1-1
  6
CONTINUOUS
 62
     7
100
AcDbLine
 10
516.197254
 20
11.913462
 30
0.0
 11
517.359592
 21
13.0758
 31
0.0
  0
LINE
  5
52D
330
1F
100
AcDbEntity
  8
GR1-1
  6
CONTINUOUS
 62
     7
100
AcDbLine
 10
518.224977
 20
13.941185
 30
0.0
 11
518.8019
 21
14.518108
 31
0.0
  0
LINE
  5
52E
330
1F
100
AcDbEntity
  8
GR1-1
  6
CONTINUOUS
 62
     7
100
AcDbLine
 10
516.267964
 20
11.913462
 30
0.0
 11
517.359592
 21
13.005089
 31
0.0
  0
LINE
  5
52F
330
1F
100
AcDbEntity
  8
GR1-1
  6
CONTINUOUS
 62
     7
100
AcDbLine
 10
518.224977
 20
13.870474
 30
0.0
 11
518.8019
 21
14.447397
 31
0.0
  0
LINE
  5
530
330
1F
100
AcDbEntity
  8
GR1-1
  6
CONTINUOUS
 62
     7
100
AcDbLine
 10
516.338675
 20
11.913462
 30
0.0
 11
517.405983
 21
12.980769
 31
0.0
  0
LINE
  5
531
330
1F
100
AcDbEntity
  8
GR1-1
  6
CONTINUOUS
 62
     7
100
AcDbLine
 10
518.224977
 20
13.799763
 30
0.0
 11
518.8019
 21
14.376686
 31
0.0
  0
LINE
  5
532
330
1F
100
AcDbEntity
  8
GR1-1
  6
CONTINUOUS
 62
     7
100
AcDbLine
 10
516.409386
 20
11.913462
 30
0.0
 11
517.476693
 21
12.980769
 31
0.0
  0
LINE
  5
533
330
1F
100
AcDbEntity
  8
GR1-1
  6
CONTINUOUS
 62
     7
100
AcDbLine
 10
518.224977
 20
13.729052
 30
0.0
 11
518.8019
 21
14.305976
 31
0.0
  0
LINE
  5
534
330
1F
100
AcDbEntity
  8
GR1-1
  6
CONTINUOUS
 62
     7
100
AcDbLine
 10
516.480096
 20
11.913462
 30
0.0
 11
517.547404
 21
12.980769
 31
0.0
  0
LINE
  5
535
330
1F
100
AcDbEntity
  8
GR1-1
  6
CONTINUOUS
 62
     7
100
AcDbLine
 10
518.224977
 20
13.658342
 30
0.0
 11
518.8019
 21
14.235265
 31
0.0
  0
LINE
  5
536
330
1F
100
AcDbEntity
  8
GR1-1
  6
CONTINUOUS
 62
     7
100
AcDbLine
 10
516.550807
 20
11.913462
 30
0.0
 11
517.618115
 21
12.980769
 31
0.0
  0
LINE
  5
537
330
1F
100
AcDbEntity
  8
GR1-1
  6
CONTINUOUS
 62
     7
100
AcDbLine
 10
518.224977
 20
13.587631
 30
0.0
 11
518.8019
 21
14.164554
 31
0.0
  0
LINE
  5
538
330
1F
100
AcDbEntity
  8
GR1-1
  6
CONTINUOUS
 62
     7
100
AcDbLine
 10
516.621518
 20
11.913462
 30
0.0
 11
517.688825
 21
12.980769
 31
0.0
  0
LINE
  5
539
330
1F
100
AcDbEntity
  8
GR1-1
  6
CONTINUOUS
 62
     7
100
AcDbLine
 10
518.224977
 20
13.51692
 30
0.0
 11
518.8019
 21
14.093844
 31
0.0
  0
LINE
  5
53A
330
1F
100
AcDbEntity
  8
GR1-1
  6
CONTINUOUS
 62
     7
100
AcDbLine
 10
516.692228
 20
11.913462
 30
0.0
 11
517.759536
 21
12.980769
 31
0.0
  0
LINE
  5
53B
330
1F
100
AcDbEntity
  8
GR1-1
  6
CONTINUOUS
 62
     7
100
AcDbLine
 10
518.224977
 20
13.44621
 30
0.0
 11
518.8019
 21
14.023133
 31
0.0
  0
LINE
  5
53C
330
1F
100
AcDbEntity
  8
GR1-1
  6
CONTINUOUS
 62
     7
100
AcDbLine
 10
516.762939
 20
11.913462
 30
0.0
 11
517.830247
 21
12.980769
 31
0.0
  0
LINE
  5
53D
330
1F
100
AcDbEntity
  8
GR1-1
  6
CONTINUOUS
 62
     7
100
AcDbLine
 10
518.224977
 20
13.375499
 30
0.0
 11
518.8019
 21
13.952422
 31
0.0
  0
LINE
  5
53E
330
1F
100
AcDbEntity
  8
GR1-1
  6
CONTINUOUS
 62
     7
100
AcDbLine
 10
516.83365
 20
11.913462
 30
0.0
 11
517.900958
 21
12.980769
 31
0.0
  0
LINE
  5
53F
330
1F
100
AcDbEntity
  8
GR1-1
  6
CONTINUOUS
 62
     7
100
AcDbLine
 10
518.224977
 20
13.304788
 30
0.0
 11
518.8019
 21
13.881712
 31
0.0
  0
LINE
  5
540
330
1F
100
AcDbEntity
  8
GR1-1
  6
CONTINUOUS
 62
     7
100
AcDbLine
 10
516.90436
 20
11.913462
 30
0.0
 11
517.971668
 21
12.980769
 31
0.0
  0
LINE
  5
541
330
1F
100
AcDbEntity
  8
GR1-1
  6
CONTINUOUS
 62
     7
100
AcDbLine
 10
518.224977
 20
13.234078
 30
0.0
 11
518.8019
 21
13.811001
 31
0.0
  0
LINE
  5
542
330
1F
100
AcDbEntity
  8
GR1-1
  6
CONTINUOUS
 62
     7
100
AcDbLine
 10
516.975071
 20
11.913462
 30
0.0
 11
518.042379
 21
12.980769
 31
0.0
  0
LINE
  5
543
330
1F
100
AcDbEntity
  8
GR1-1
  6
CONTINUOUS
 62
     7
100
AcDbLine
 10
518.224977
 20
13.163367
 30
0.0
 11
518.8019
 21
13.74029
 31
0.0
  0
LINE
  5
544
330
1F
100
AcDbEntity
  8
GR1-1
  6
CONTINUOUS
 62
     7
100
AcDbLine
 10
517.045782
 20
11.913462
 30
0.0
 11
518.11309
 21
12.980769
 31
0.0
  0
LINE
  5
545
330
1F
100
AcDbEntity
  8
GR1-1
  6
CONTINUOUS
 62
     7
100
AcDbLine
 10
518.224977
 20
13.092656
 30
0.0
 11
518.8019
 21
13.669579
 31
0.0
  0
LINE
  5
546
330
1F
100
AcDbEntity
  8
GR1-1
  6
CONTINUOUS
 62
     7
100
AcDbLine
 10
517.116493
 20
11.913462
 30
0.0
 11
518.1838
 21
12.980769
 31
0.0
  0
LINE
  5
547
330
1F
100
AcDbEntity
  8
GR1-1
  6
CONTINUOUS
 62
     7
100
AcDbLine
 10
518.224977
 20
13.021946
 30
0.0
 11
518.8019
 21
13.598869
 31
0.0
  0
LINE
  5
548
330
1F
100
AcDbEntity
  8
GR1-1
  6
CONTINUOUS
 62
     7
100
AcDbLine
 10
517.187203
 20
11.913462
 30
0.0
 11
518.8019
 21
13.528158
 31
0.0
  0
LINE
  5
549
330
1F
100
AcDbEntity
  8
GR1-1
  6
CONTINUOUS
 62
     7
100
AcDbLine
 10
517.257914
 20
11.913462
 30
0.0
 11
518.8019
 21
13.457447
 31
0.0
  0
LINE
  5
54A
330
1F
100
AcDbEntity
  8
GR1-1
  6
CONTINUOUS
 62
     7
100
AcDbLine
 10
517.328625
 20
11.913462
 30
0.0
 11
518.8019
 21
13.386737
 31
0.0
  0
LINE
  5
54B
330
1F
100
AcDbEntity
  8
GR1-1
  6
CONTINUOUS
 62
     7
100
AcDbLine
 10
517.399335
 20
11.913462
 30
0.0
 11
518.8019
 21
13.316026
 31
0.0
  0
LINE
  5
54C
330
1F
100
AcDbEntity
  8
GR1-1
  6
CONTINUOUS
 62
     7
100
AcDbLine
 10
517.470046
 20
11.913462
 30
0.0
 11
518.8019
 21
13.245315
 31
0.0
  0
LINE
  5
54D
330
1F
100
AcDbEntity
  8
GR1-1
  6
CONTINUOUS
 62
     7
100
AcDbLine
 10
517.540757
 20
11.913462
 30
0.0
 11
518.8019
 21
13.174605
 31
0.0
  0
LINE
  5
54E
330
1F
100
AcDbEntity
  8
GR1-1
  6
CONTINUOUS
 62
     7
100
AcDbLine
 10
517.611467
 20
11.913462
 30
0.0
 11
518.8019
 21
13.103894
 31
0.0
  0
LINE
  5
54F
330
1F
100
AcDbEntity
  8
GR1-1
  6
CONTINUOUS
 62
     7
100
AcDbLine
 10
517.682178
 20
11.913462
 30
0.0
 11
518.8019
 21
13.033183
 31
0.0
  0
LINE
  5
550
330
1F
100
AcDbEntity
  8
GR1-1
  6
CONTINUOUS
 62
     7
100
AcDbLine
 10
517.752889
 20
11.913462
 30
0.0
 11
518.8019
 21
12.962473
 31
0.0
  0
LINE
  5
551
330
1F
100
AcDbEntity
  8
GR1-1
  6
CONTINUOUS
 62
     7
100
AcDbLine
 10
517.823599
 20
11.913462
 30
0.0
 11
518.8019
 21
12.891762
 31
0.0
  0
LINE
  5
552
330
1F
100
AcDbEntity
  8
GR1-1
  6
CONTINUOUS
 62
     7
100
AcDbLine
 10
517.89431
 20
11.913462
 30
0.0
 11
518.8019
 21
12.821051
 31
0.0
  0
LINE
  5
553
330
1F
100
AcDbEntity
  8
GR1-1
  6
CONTINUOUS
 62
     7
100
AcDbLine
 10
517.965021
 20
11.913462
 30
0.0
 11
518.8019
 21
12.750341
 31
0.0
  0
LINE
  5
554
330
1F
100
AcDbEntity
  8
GR1-1
  6
CONTINUOUS
 62
     7
100
AcDbLine
 10
518.035731
 20
11.913462
 30
0.0
 11
518.8019
 21
12.67963
 31
0.0
  0
LINE
  5
555
330
1F
100
AcDbEntity
  8
GR1-1
  6
CONTINUOUS
 62
     7
100
AcDbLine
 10
518.106442
 20
11.913462
 30
0.0
 11
518.8019
 21
12.608919
 31
0.0
  0
LINE
  5
556
330
1F
100
AcDbEntity
  8
GR1-1
  6
CONTINUOUS
 62
     7
100
AcDbLine
 10
518.177153
 20
11.913462
 30
0.0
 11
518.8019
 21
12.538209
 31
0.0
  0
LINE
  5
557
330
1F
100
AcDbEntity
  8
GR1-1
  6
CONTINUOUS
 62
     7
100
AcDbLine
 10
518.247863
 20
11.913462
 30
0.0
 11
518.8019
 21
12.467498
 31
0.0
  0
LINE
  5
558
330
1F
100
AcDbEntity
  8
GR1-1
  6
CONTINUOUS
 62
     7
100
AcDbLine
 10
518.318574
 20
11.913462
 30
0.0
 11
518.8019
 21
12.396787
 31
0.0
  0
LINE
  5
559
330
1F
100
AcDbEntity
  8
GR1-1
  6
CONTINUOUS
 62
     7
100
AcDbLine
 10
518.389285
 20
11.913462
 30
0.0
 11
518.8019
 21
12.326077
 31
0.0
  0
LINE
  5
55A
330
1F
100
AcDbEntity
  8
GR1-1
  6
CONTINUOUS
 62
     7
100
AcDbLine
 10
518.459995
 20
11.913462
 30
0.0
 11
518.8019
 21
12.255366
 31
0.0
  0
LINE
  5
55B
330
1F
100
AcDbEntity
  8
GR1-1
  6
CONTINUOUS
 62
     7
100
AcDbLine
 10
518.530706
 20
11.913462
 30
0.0
 11
518.8019
 21
12.184655
 31
0.0
  0
LINE
  5
55C
330
1F
100
AcDbEntity
  8
GR1-1
  6
CONTINUOUS
 62
     7
100
AcDbLine
 10
518.601417
 20
11.913462
 30
0.0
 11
518.8019
 21
12.113945
 31
0.0
  0
LINE
  5
55D
330
1F
100
AcDbEntity
  8
GR1-1
  6
CONTINUOUS
 62
     7
100
AcDbLine
 10
518.672127
 20
11.913462
 30
0.0
 11
518.8019
 21
12.043234
 31
0.0
  0
LINE
  5
55E
330
1F
100
AcDbEntity
  8
GR1-1
  6
CONTINUOUS
 62
     7
100
AcDbLine
 10
518.742838
 20
11.913462
 30
0.0
 11
518.8019
 21
11.972523
 31
0.0
  0
ENDSEC
  0
SECTION
  2
OBJECTS
  0
DICTIONARY
  5
C
330
0
100
AcDbDictionary
  3
ACAD_GROUP
350
D
  3
ACAD_LAYOUT
350
1A
  3
ACAD_MLINESTYLE
350
17
  3
ACAD_PLOTSETTINGS
350
19
  3
ACDBHEADERROUNDTRIPXREC
350
55F
  0
DICTIONARY
  5
D
102
{ACAD_REACTORS
330
C
102
}
330
C
100
AcDbDictionary
  0
DICTIONARY
  5
1A
102
{ACAD_REACTORS
330
C
102
}
330
C
100
AcDbDictionary
  0
DICTIONARY
  5
17
102
{ACAD_REACTORS
330
C
102
}
330
C
100
AcDbDictionary
  3
STANDARD
350
18
  0
DICTIONARY
  5
19
102
{ACAD_REACTORS
330
C
102
}
330
C
100
AcDbDictionary
  0
DICTIONARY
  5
55F
102
{ACAD_REACTORS
330
C
102
}
330
C
100
AcDbDictionary
  3
CEPSNTYPE
350
568
  3
DIMSTYLEDATA
350
57E
  3
FINGERPRINTGUID
350
569
  3
HYPERLINKBASE
350
562
  3
INSUNITS
350
567
  3
LAYOUTDICT
350
564
  3
LWETCUNION
350
566
  3
PLOTSETDICT
350
565
  3
PSVPSCALE
350
56B
  3
PUCSBASE
350
56E
  3
PUCSORGBACK
350
574
  3
PUCSORGBOTTOM
350
570
  3
PUCSORGFRONT
350
573
  3
PUCSORGLEFT
350
571
  3
PUCSORGRIGHT
350
572
  3
PUCSORGTOP
350
56F
  3
PUCSORTHOREF
350
56C
  3
PUCSORTHOVIEW
350
56D
  3
STYLESHEET
350
563
  3
TSTACKALIGN
350
560
  3
TSTACKSIZE
350
561
  3
UCSBASE
350
577
  3
UCSORGBACK
350
57D
  3
UCSORGBOTTOM
350
579
  3
UCSORGFRONT
350
57C
  3
UCSORGLEFT
350
57A
  3
UCSORGRIGHT
350
57B
  3
UCSORGTOP
350
578
  3
UCSORTHOREF
350
575
  3
UCSORTHOVIEW
350
576
  3
VERSIONGUID
350
56A
  0
MLINESTYLE
  5
18
102
{ACAD_REACTORS
330
17
102
}
330
17
100
AcDbMlineStyle
  2
Standard
 70
     0
  3

 62
   256
 51
90.0
 52
90.0
 71
     2
 49
0.5
 62
   256
  6
BYLAYER
 49
-0.5
 62
   256
  6
BYLAYER
  0
XRECORD
  5
568
102
{ACAD_REACTORS
330
55F
102
}
330
55F
100
AcDbXrecord
 90
        0
  0
XRECORD
  5
57E
102
{ACAD_REACTORS
330
55F
102
}
330
55F
100
AcDbXrecord
1000
DSTYLE
1002
{
1070
   179
 70
     2
1070
   171
 70
     3
1070
   143
 40
0.03937
1070
   274
 70
     3
1070
    41
 40
4.0
1070
   343
340
41
1070
   344
340
47
1070
   141
 40
2.5
1070
   176
 70
     7
1070
   177
 70
     7
1070
   178
 70
     7
1070
   271
 70
     2
1070
    46
 40
6.0
1070
    43
 40
10.0
1070
    44
 40
1.0
1070
    42
 40
1.0
1070
   147
 40
1.0
1070
   341
340
41
1070
   173
 70
     1
1070
    77
 70
     1
1070
   272
 70
     2
1070
    73
 70
     0
1070
   172
 70
     1
1070
    74
 70
     0
1070
   283
 70
     0
1070
   340
340
3F
1070
   140
 40
4.0
1070
   284
 70
     8
1070
    78
 70
     8
1002
}
  0
XRECORD
  5
569
102
{ACAD_REACTORS
330
55F
102
}
330
55F
100
AcDbXrecord
  1
{01DA0AC6-C9AD-43BB-A852-35CF938C9A4E}
  0
XRECORD
  5
562
102
{ACAD_REACTORS
330
55F
102
}
330
55F
100
AcDbXrecord
  1

  0
XRECORD
  5
567
102
{ACAD_REACTORS
330
55F
102
}
330
55F
100
AcDbXrecord
 90
        1
  0
XRECORD
  5
564
102
{ACAD_REACTORS
330
55F
102
}
330
55F
100
AcDbXrecord
340
1A
  0
XRECORD
  5
566
102
{ACAD_REACTORS
330
55F
102
}
330
55F
100
AcDbXrecord
 90
    10781
  0
XRECORD
  5
565
102
{ACAD_REACTORS
330
55F
102
}
330
55F
100
AcDbXrecord
340
19
  0
XRECORD
  5
56B
102
{ACAD_REACTORS
330
55F
102
}
330
55F
100
AcDbXrecord
 40
0.0
  0
XRECORD
  5
56E
102
{ACAD_REACTORS
330
55F
102
}
330
55F
100
AcDbXrecord
340
0
  0
XRECORD
  5
574
102
{ACAD_REACTORS
330
55F
102
}
330
55F
100
AcDbXrecord
 10
0.0
 20
0.0
 30
0.0
  0
XRECORD
  5
570
102
{ACAD_REACTORS
330
55F
102
}
330
55F
100
AcDbXrecord
 10
0.0
 20
0.0
 30
0.0
  0
XRECORD
  5
573
102
{ACAD_REACTORS
330
55F
102
}
330
55F
100
AcDbXrecord
 10
0.0
 20
0.0
 30
0.0
  0
XRECORD
  5
571
102
{ACAD_REACTORS
330
55F
102
}
330
55F
100
AcDbXrecord
 10
0.0
 20
0.0
 30
0.0
  0
XRECORD
  5
572
102
{ACAD_REACTORS
330
55F
102
}
330
55F
100
AcDbXrecord
 10
0.0
 20
0.0
 30
0.0
  0
XRECORD
  5
56F
102
{ACAD_REACTORS
330
55F
102
}
330
55F
100
AcDbXrecord
 10
0.0
 20
0.0
 30
0.0
  0
XRECORD
  5
56C
102
{ACAD_REACTORS
330
55F
102
}
330
55F
100
AcDbXrecord
340
0
  0
XRECORD
  5
56D
102
{ACAD_REACTORS
330
55F
102
}
330
55F
100
AcDbXrecord
 70
     0
  0
XRECORD
  5
563
102
{ACAD_REACTORS
330
55F
102
}
330
55F
100
AcDbXrecord
  1

  0
XRECORD
  5
560
102
{ACAD_REACTORS
330
55F
102
}
330
55F
100
AcDbXrecord
 90
        1
  0
XRECORD
  5
561
102
{ACAD_REACTORS
330
55F
102
}
330
55F
100
AcDbXrecord
 90
       70
  0
XRECORD
  5
577
102
{ACAD_REACTORS
330
55F
102
}
330
55F
100
AcDbXrecord
340
0
  0
XRECORD
  5
57D
102
{ACAD_REACTORS
330
55F
102
}
330
55F
100
AcDbXrecord
 10
0.0
 20
0.0
 30
0.0
  0
XRECORD
  5
579
102
{ACAD_REACTORS
330
55F
102
}
330
55F
100
AcDbXrecord
 10
0.0
 20
0.0
 30
0.0
  0
XRECORD
  5
57C
102
{ACAD_REACTORS
330
55F
102
}
330
55F
100
AcDbXrecord
 10
0.0
 20
0.0
 30
0.0
  0
XRECORD
  5
57A
102
{ACAD_REACTORS
330
55F
102
}
330
55F
100
AcDbXrecord
 10
0.0
 20
0.0
 30
0.0
  0
XRECORD
  5
57B
102
{ACAD_REACTORS
330
55F
102
}
330
55F
100
AcDbXrecord
 10
0.0
 20
0.0
 30
0.0
  0
XRECORD
  5
578
102
{ACAD_REACTORS
330
55F
102
}
330
55F
100
AcDbXrecord
 10
0.0
 20
0.0
 30
0.0
  0
XRECORD
  5
575
102
{ACAD_REACTORS
330
55F
102
}
330
55F
100
AcDbXrecord
340
0
  0
XRECORD
  5
576
102
{ACAD_REACTORS
330
55F
102
}
330
55F
100
AcDbXrecord
 70
     0
  0
XRECORD
  5
56A
102
{ACAD_REACTORS
330
55F
102
}
330
55F
100
AcDbXrecord
  1
{FAEB1C32-E019-11D5-929B-00C0DF256EC4}
  0
ENDSEC
  0
EOF
