  0
SECTION
  2
HEADER
  9
$ACADVER
  1
AC1015
  9
$ACADMAINTVER
 70
     6
  9
$DWGCODEPAGE
  3
ANSI_932
  9
$INSBASE
 10
0.0
 20
0.0
 30
0.0
  9
$EXTMIN
 10
0.0
 20
0.0
 30
0.0
  9
$EXTMAX
 10
841.0
 20
594.0
 30
0.0
  9
$LIMMIN
 10
0.0
 20
0.0
  9
$LIMMAX
 10
841.0
 20
594.0
  9
$ORTHOMODE
 70
     0
  9
$REGENMODE
 70
     1
  9
$FILLMODE
 70
     1
  9
$QTEXTMODE
 70
     0
  9
$MIRRTEXT
 70
     1
  9
$LTSCALE
 40
1.0
  9
$ATTMODE
 70
     1
  9
$TEXTSIZE
 40
2.5
  9
$TRACEWID
 40
1.0
  9
$TEXTSTYLE
  7
FX_VECTOR
  9
$CLAYER
  8
0
  9
$CELTYPE
  6
ByLayer
  9
$CECOLOR
 62
   256
  9
$CELTSCALE
 40
1.0
  9
$DISPSILH
 70
     0
  9
$DIMSCALE
 40
1.0
  9
$DIMASZ
 40
4.0
  9
$DIMEXO
 40
1.0
  9
$DIMDLI
 40
10.0
  9
$DIMRND
 40
0.0
  9
$DIMDLE
 40
6.0
  9
$DIMEXE
 40
1.0
  9
$DIMTP
 40
0.0
  9
$DIMTM
 40
0.0
  9
$DIMTXT
 40
4.0
  9
$DIMCEN
 40
2.5
  9
$DIMTSZ
 40
0.0
  9
$DIMTOL
 70
     0
  9
$DIMLIM
 70
     0
  9
$DIMTIH
 70
     0
  9
$DIMTOH
 70
     0
  9
$DIMSE1
 70
     0
  9
$DIMSE2
 70
     0
  9
$DIMTAD
 70
     1
  9
$DIMZIN
 70
     8
  9
$DIMBLK
  1

  9
$DIMASO
 70
     1
  9
$DIMSHO
 70
     1
  9
$DIMPOST
  1

  9
$DIMAPOST
  1

  9
$DIMALT
 70
     0
  9
$DIMALTD
 70
     3
  9
$DIMALTF
 40
0.03937
  9
$DIMLFAC
 40
1.0
  9
$DIMTOFL
 70
     1
  9
$DIMTVP
 40
0.0
  9
$DIMTIX
 70
     0
  9
$DIMSOXD
 70
     0
  9
$DIMSAH
 70
     1
  9
$DIMBLK1
  1
FXTIP_ARROW_S
  9
$DIMBLK2
  1
FXTIP_ARROW_E
  9
$DIMSTYLE
  2
FXDIMINFO
  9
$DIMCLRD
 70
     7
  9
$DIMCLRE
 70
     7
  9
$DIMCLRT
 70
     7
  9
$DIMTFAC
 40
1.0
  9
$DIMGAP
 40
1.0
  9
$DIMJUST
 70
     0
  9
$DIMSD1
 70
     0
  9
$DIMSD2
 70
     0
  9
$DIMTOLJ
 70
     1
  9
$DIMTZIN
 70
     8
  9
$DIMALTZ
 70
     0
  9
$DIMALTTZ
 70
     0
  9
$DIMUPT
 70
     0
  9
$DIMDEC
 70
     2
  9
$DIMTDEC
 70
     2
  9
$DIMALTU
 70
     2
  9
$DIMALTTD
 70
     3
  9
$DIMTXSTY
  7
FX_VECTOR
  9
$DIMAUNIT
 70
     0
  9
$DIMADEC
 70
     2
  9
$DIMALTRND
 40
0.0
  9
$DIMAZIN
 70
     2
  9
$DIMDSEP
 70
    46
  9
$DIMATFIT
 70
     3
  9
$DIMFRAC
 70
     0
  9
$DIMLDRBLK
  1
FXTIP_ARROW_S
  9
$DIMLUNIT
 70
     2
  9
$DIMLWD
 70
    -2
  9
$DIMLWE
 70
    -2
  9
$DIMTMOVE
 70
     0
  9
$LUNITS
 70
     2
  9
$LUPREC
 70
     4
  9
$SKETCHINC
 40
1.0
  9
$FILLETRAD
 40
10.0
  9
$AUNITS
 70
     0
  9
$AUPREC
 70
     0
  9
$MENU
  1
.
  9
$ELEVATION
 40
0.0
  9
$PELEVATION
 40
0.0
  9
$THICKNESS
 40
0.0
  9
$LIMCHECK
 70
     0
  9
$CHAMFERA
 40
10.0
  9
$CHAMFERB
 40
10.0
  9
$CHAMFERC
 40
20.0
  9
$CHAMFERD
 40
0.0
  9
$SKPOLY
 70
     0
  9
$TDCREATE
 40
2455840.608761516
  9
$TDUCREATE
 40
2455840.233761516
  9
$TDUPDATE
 40
2455840.608761528
  9
$TDUUPDATE
 40
2455840.233761528
  9
$TDINDWG
 40
0.0000000116
  9
$TDUSRTIMER
 40
0.0000000116
  9
$USRTIMER
 70
     1
  9
$ANGBASE
 50
0.0
  9
$ANGDIR
 70
     0
  9
$PDMODE
 70
     0
  9
$PDSIZE
 40
0.0
  9
$PLINEWID
 40
0.0
  9
$SPLFRAME
 70
     0
  9
$SPLINETYPE
 70
     6
  9
$SPLINESEGS
 70
     8
  9
$HANDSEED
  5
382
  9
$SURFTAB1
 70
     6
  9
$SURFTAB2
 70
     6
  9
$SURFTYPE
 70
     6
  9
$SURFU
 70
     6
  9
$SURFV
 70
     6
  9
$UCSBASE
  2

  9
$UCSNAME
  2

  9
$UCSORG
 10
0.0
 20
0.0
 30
0.0
  9
$UCSXDIR
 10
1.0
 20
0.0
 30
0.0
  9
$UCSYDIR
 10
0.0
 20
1.0
 30
0.0
  9
$UCSORTHOREF
  2

  9
$UCSORTHOVIEW
 70
     0
  9
$UCSORGTOP
 10
0.0
 20
0.0
 30
0.0
  9
$UCSORGBOTTOM
 10
0.0
 20
0.0
 30
0.0
  9
$UCSORGLEFT
 10
0.0
 20
0.0
 30
0.0
  9
$UCSORGRIGHT
 10
0.0
 20
0.0
 30
0.0
  9
$UCSORGFRONT
 10
0.0
 20
0.0
 30
0.0
  9
$UCSORGBACK
 10
0.0
 20
0.0
 30
0.0
  9
$PUCSBASE
  2

  9
$PUCSNAME
  2

  9
$PUCSORG
 10
0.0
 20
0.0
 30
0.0
  9
$PUCSXDIR
 10
1.0
 20
0.0
 30
0.0
  9
$PUCSYDIR
 10
0.0
 20
1.0
 30
0.0
  9
$PUCSORTHOREF
  2

  9
$PUCSORTHOVIEW
 70
     0
  9
$PUCSORGTOP
 10
0.0
 20
0.0
 30
0.0
  9
$PUCSORGBOTTOM
 10
0.0
 20
0.0
 30
0.0
  9
$PUCSORGLEFT
 10
0.0
 20
0.0
 30
0.0
  9
$PUCSORGRIGHT
 10
0.0
 20
0.0
 30
0.0
  9
$PUCSORGFRONT
 10
0.0
 20
0.0
 30
0.0
  9
$PUCSORGBACK
 10
0.0
 20
0.0
 30
0.0
  9
$USERI1
 70
     0
  9
$USERI2
 70
     0
  9
$USERI3
 70
     0
  9
$USERI4
 70
     0
  9
$USERI5
 70
     0
  9
$USERR1
 40
0.0
  9
$USERR2
 40
0.0
  9
$USERR3
 40
0.0
  9
$USERR4
 40
0.0
  9
$USERR5
 40
0.0
  9
$WORLDVIEW
 70
     1
  9
$SHADEDGE
 70
     3
  9
$SHADEDIF
 70
    70
  9
$TILEMODE
 70
     1
  9
$MAXACTVP
 70
    64
  9
$PINSBASE
 10
0.0
 20
0.0
 30
0.0
  9
$PLIMCHECK
 70
     0
  9
$PEXTMIN
 10
1.000000000000000E+20
 20
1.000000000000000E+20
 30
1.000000000000000E+20
  9
$PEXTMAX
 10
-1.000000000000000E+20
 20
-1.000000000000000E+20
 30
-1.000000000000000E+20
  9
$PLIMMIN
 10
0.0
 20
0.0
  9
$PLIMMAX
 10
420.0
 20
297.0
  9
$UNITMODE
 70
     0
  9
$VISRETAIN
 70
     1
  9
$PLINEGEN
 70
     0
  9
$PSLTSCALE
 70
     1
  9
$TREEDEPTH
 70
  3020
  9
$CMLSTYLE
  2
Standard
  9
$CMLJUST
 70
     0
  9
$CMLSCALE
 40
20.0
  9
$PROXYGRAPHICS
 70
     1
  9
$MEASUREMENT
 70
     1
  9
$CELWEIGHT
370
    -1
  9
$ENDCAPS
280
     0
  9
$JOINSTYLE
280
     0
  9
$LWDISPLAY
290
     0
  9
$INSUNITS
 70
     4
  9
$HYPERLINKBASE
  1

  9
$STYLESHEET
  1

  9
$XEDIT
290
     1
  9
$CEPSNTYPE
380
     0
  9
$PSTYLEMODE
290
     1
  9
$FINGERPRINTGUID
  2
{77143EF5-B240-4307-B147-5AF7B8438BEB}
  9
$VERSIONGUID
  2
{FAEB1C32-E019-11D5-929B-00C0DF256EC4}
  9
$EXTNAMES
290
     1
  9
$PSVPSCALE
 40
0.0
  9
$OLESTARTUP
290
     0
  0
ENDSEC
  0
SECTION
  2
CLASSES
  0
CLASS
  1
ACDBDICTIONARYWDFLT
  2
AcDbDictionaryWithDefault
  3
ObjectDBX Classes
 90
        0
280
     0
281
     0
  0
CLASS
  1
VISUALSTYLE
  2
AcDbVisualStyle
  3
ObjectDBX Classes
 90
     4095
280
     0
281
     0
  0
CLASS
  1
MATERIAL
  2
AcDbMaterial
  3
ObjectDBX Classes
 90
     1153
280
     0
281
     0
  0
CLASS
  1
DICTIONARYVAR
  2
AcDbDictionaryVar
  3
ObjectDBX Classes
 90
        0
280
     0
281
     0
  0
CLASS
  1
ACDBPLACEHOLDER
  2
AcDbPlaceHolder
  3
ObjectDBX Classes
 90
        0
280
     0
281
     0
  0
CLASS
  1
LAYOUT
  2
AcDbLayout
  3
ObjectDBX Classes
 90
        0
280
     0
281
     0
  0
ENDSEC
  0
SECTION
  2
TABLES
  0
TABLE
  2
VPORT
  5
8
330
0
100
AcDbSymbolTable
 70
     1
  0
VPORT
  5
29
330
8
100
AcDbSymbolTableRecord
100
AcDbViewportTableRecord
  2
*Active
 70
     0
 10
0.0
 20
0.0
 11
1.0
 21
1.0
 12
420.5
 22
297.0
 13
0.0
 23
0.0
 14
10.0
 24
10.0
 15
10.0
 25
10.0
 16
0.0
 26
0.0
 36
1.0
 17
0.0
 27
0.0
 37
0.0
 40
594.0
 41
1.415824915824916
 42
50.0
 43
0.0
 44
0.0
 50
0.0
 51
0.0
 71
     0
 72
   100
 73
     1
 74
     3
 75
     0
 76
     0
 77
     0
 78
     0
281
     0
 65
     1
110
0.0
120
0.0
130
0.0
111
1.0
121
0.0
131
0.0
112
0.0
122
1.0
132
0.0
 79
     0
146
0.0
  0
ENDTAB
  0
TABLE
  2
LTYPE
  5
5
330
0
100
AcDbSymbolTable
 70
     5
  0
LTYPE
  5
14
330
5
100
AcDbSymbolTableRecord
100
AcDbLinetypeTableRecord
  2
ByBlock
 70
     0
  3

 72
    65
 73
     0
 40
0.0
  0
LTYPE
  5
15
330
5
100
AcDbSymbolTableRecord
100
AcDbLinetypeTableRecord
  2
ByLayer
 70
     0
  3

 72
    65
 73
     0
 40
0.0
  0
LTYPE
  5
16
330
5
100
AcDbSymbolTableRecord
100
AcDbLinetypeTableRecord
  2
Continuous
 70
     0
  3
Continuous
 72
    65
 73
     0
 40
0.0
  0
LTYPE
  5
3F
330
5
100
AcDbSymbolTableRecord
100
AcDbLinetypeTableRecord
  2
DASHDOT
 70
     0
  3
Dash dot __ . __ . __ . __ . __ . __ . __ . __
 72
    65
 73
     4
 40
13.0
 49
10.0
 74
     0
 49
-1.0
 74
     0
 49
1.0
 74
     0
 49
-1.0
 74
     0
  0
ENDTAB
  0
TABLE
  2
LAYER
  5
2
330
0
100
AcDbSymbolTable
 70
     8
  0
LAYER
  5
10
330
2
100
AcDbSymbolTableRecord
100
AcDbLayerTableRecord
  2
0
 70
     0
 62
     7
  6
Continuous
370
    -3
390
F
  0
LAYER
  5
AD
330
2
100
AcDbSymbolTableRecord
100
AcDbLayerTableRecord
  2
Defpoints
 70
     0
 62
     7
  6
Continuous
290
     0
370
    -3
390
F
  0
LAYER
  5
B1
330
2
100
AcDbSymbolTableRecord
100
AcDbLayerTableRecord
  2
図面枠ﾚｲﾔ_01
 70
     0
 62
     7
  6
Continuous
370
    -3
390
F
  0
LAYER
  5
BE
330
2
100
AcDbSymbolTableRecord
100
AcDbLayerTableRecord
  2
0_01
 70
     0
 62
     7
  6
Continuous
370
    -3
390
F
  0
LAYER
  5
D7
330
2
100
AcDbSymbolTableRecord
100
AcDbLayerTableRecord
  2
GR1_01
 70
     0
 62
     7
  6
Continuous
370
    -3
390
F
  0
LAYER
  5
298
330
2
100
AcDbSymbolTableRecord
100
AcDbLayerTableRecord
  2
基準ﾚｲﾔｸﾞﾙｰﾌﾟ_01
 70
     0
 62
     7
  6
Continuous
370
    -3
390
F
  0
ENDTAB
  0
TABLE
  2
STYLE
  5
3
330
0
100
AcDbSymbolTable
 70
     2
  0
STYLE
  5
11
330
3
100
AcDbSymbolTableRecord
100
AcDbTextStyleTableRecord
  2
Standard
 70
     0
 40
0.0
 41
1.0
 50
0.0
 71
     0
 42
2.5
  3
txt
  4

  0
STYLE
  5
45
330
3
100
AcDbSymbolTableRecord
100
AcDbTextStyleTableRecord
  2
FX_VECTOR
 70
     0
 40
0.0
 41
1.0
 50
0.0
 71
     0
 42
0.2
  3
MONOTXT.SHX
  4
BigFont.shx
  0
ENDTAB
  0
TABLE
  2
VIEW
  5
6
330
0
100
AcDbSymbolTable
 70
     0
  0
ENDTAB
  0
TABLE
  2
UCS
  5
7
330
0
100
AcDbSymbolTable
 70
     0
  0
ENDTAB
  0
TABLE
  2
APPID
  5
9
330
0
100
AcDbSymbolTable
 70
     1
  0
APPID
  5
12
330
9
100
AcDbSymbolTableRecord
100
AcDbRegAppTableRecord
  2
ACAD
 70
     0
  0
ENDTAB
  0
TABLE
  2
DIMSTYLE
  5
A
330
0
100
AcDbSymbolTable
 70
     2
100
AcDbDimStyleTable
  0
DIMSTYLE
105
27
330
A
100
AcDbSymbolTableRecord
100
AcDbDimStyleTableRecord
  2
ISO-25
 70
     0
 41
2.5
 42
0.625
 43
3.75
 44
1.25
 73
     0
 74
     0
 77
     1
 78
     8
140
2.5
141
2.5
143
0.03937007874016
147
0.625
171
     3
172
     1
178
     0
271
     2
272
     2
274
     3
278
    44
283
     0
284
     8
340
11
  0
DIMSTYLE
105
AC
330
A
100
AcDbSymbolTableRecord
100
AcDbDimStyleTableRecord
  2
FXDIMINFO
 70
     0
 41
4.0
 42
1.0
 43
10.0
 44
1.0
 46
6.0
 73
     0
 74
     0
 77
     1
 78
     8
 79
     2
140
4.0
141
2.5
143
0.03937
147
1.0
171
     3
172
     1
173
     1
176
     7
177
     7
271
     2
178
     7
179
     2
271
     2
272
     2
274
     3
284
     8
340
45
341
46
343
46
344
4C
  0
ENDTAB
  0
TABLE
  2
BLOCK_RECORD
  5
1
330
0
100
AcDbSymbolTable
 70
    22
  0
BLOCK_RECORD
  5
1F
330
1
100
AcDbSymbolTableRecord
100
AcDbBlockTableRecord
  2
*Model_Space
340
22
  0
BLOCK_RECORD
  5
1B
330
1
100
AcDbSymbolTableRecord
100
AcDbBlockTableRecord
  2
*Paper_Space
340
1E
  0
BLOCK_RECORD
  5
23
330
1
100
AcDbSymbolTableRecord
100
AcDbBlockTableRecord
  2
*Paper_Space0
340
26
  0
BLOCK_RECORD
  5
46
330
1
100
AcDbSymbolTableRecord
100
AcDbBlockTableRecord
  2
FXTIP_ARROW_S
340
0
102
{BLKREFS
331
2CA
331
2D0
331
2D6
331
2DC
331
2E2
331
2E8
331
2EE
331
2F4
331
2F9
331
2FF
331
303
331
308
331
30E
331
32D
331
333
102
}
  0
BLOCK_RECORD
  5
4C
330
1
100
AcDbSymbolTableRecord
100
AcDbBlockTableRecord
  2
FXTIP_ARROW_E
340
0
102
{BLKREFS
331
2CB
331
2D1
331
2D7
331
2DD
331
2E3
331
2E9
331
2EF
331
2F5
331
2FA
331
300
331
309
331
30F
331
32E
331
334
102
}
  0
BLOCK_RECORD
  5
52
330
1
100
AcDbSymbolTableRecord
100
AcDbBlockTableRecord
  2
FXTIP_BLACKDOT_S
340
0
  0
BLOCK_RECORD
  5
58
330
1
100
AcDbSymbolTableRecord
100
AcDbBlockTableRecord
  2
FXTIP_BLACKDOT_E
340
0
  0
BLOCK_RECORD
  5
5E
330
1
100
AcDbSymbolTableRecord
100
AcDbBlockTableRecord
  2
FXTIP_TRIANGLE_S
340
0
  0
BLOCK_RECORD
  5
65
330
1
100
AcDbSymbolTableRecord
100
AcDbBlockTableRecord
  2
FXTIP_TRIANGLE_E
340
0
  0
BLOCK_RECORD
  5
6C
330
1
100
AcDbSymbolTableRecord
100
AcDbBlockTableRecord
  2
FXTIP_ARCHITECT_S
340
0
  0
BLOCK_RECORD
  5
72
330
1
100
AcDbSymbolTableRecord
100
AcDbBlockTableRecord
  2
FXTIP_ARCHITECT_E
340
0
  0
BLOCK_RECORD
  5
78
330
1
100
AcDbSymbolTableRecord
100
AcDbBlockTableRecord
  2
FXTIP_CIVIL_S
340
0
  0
BLOCK_RECORD
  5
7E
330
1
100
AcDbSymbolTableRecord
100
AcDbBlockTableRecord
  2
FXTIP_CIVIL_E
340
0
  0
BLOCK_RECORD
  5
84
330
1
100
AcDbSymbolTableRecord
100
AcDbBlockTableRecord
  2
FXTIP_WHITEDOT_S
340
0
  0
BLOCK_RECORD
  5
89
330
1
100
AcDbSymbolTableRecord
100
AcDbBlockTableRecord
  2
FXTIP_WHITEDOT_E
340
0
  0
BLOCK_RECORD
  5
8E
330
1
100
AcDbSymbolTableRecord
100
AcDbBlockTableRecord
  2
FXTIP_UPARROW_S
340
0
  0
BLOCK_RECORD
  5
93
330
1
100
AcDbSymbolTableRecord
100
AcDbBlockTableRecord
  2
FXTIP_UPARROW_E
340
0
  0
BLOCK_RECORD
  5
98
330
1
100
AcDbSymbolTableRecord
100
AcDbBlockTableRecord
  2
FXTIP_DOWNARROW_S
340
0
  0
BLOCK_RECORD
  5
9D
330
1
100
AcDbSymbolTableRecord
100
AcDbBlockTableRecord
  2
FXTIP_DOWNARROW_E
340
0
  0
BLOCK_RECORD
  5
A2
330
1
100
AcDbSymbolTableRecord
100
AcDbBlockTableRecord
  2
FXTIP_BLACKTRIANGLE_S
340
0
  0
BLOCK_RECORD
  5
A7
330
1
100
AcDbSymbolTableRecord
100
AcDbBlockTableRecord
  2
FXTIP_BLACKTRIANGLE_E
340
0
  0
BLOCK_RECORD
  5
AE
330
1
100
AcDbSymbolTableRecord
100
AcDbBlockTableRecord
  2
BLKF022
340
0
102
{BLKREFS
331
B2
102
}
  0
BLOCK_RECORD
  5
BB
330
1
100
AcDbSymbolTableRecord
100
AcDbBlockTableRecord
  2
BLKF023
340
0
102
{BLKREFS
331
BF
102
}
  0
BLOCK_RECORD
  5
C4
330
1
100
AcDbSymbolTableRecord
100
AcDbBlockTableRecord
  2
BLKF024
340
0
102
{BLKREFS
331
C7
102
}
  0
ENDTAB
  0
ENDSEC
  0
SECTION
  2
BLOCKS
  0
BLOCK
  5
20
330
1F
100
AcDbEntity
  8
0
100
AcDbBlockBegin
  2
*Model_Space
 70
     0
 10
0.0
 20
0.0
 30
0.0
  3
*Model_Space
  1

  0
ENDBLK
  5
21
330
1F
100
AcDbEntity
  8
0
100
AcDbBlockEnd
  0
BLOCK
  5
1C
330
1B
100
AcDbEntity
 67
     1
  8
0
100
AcDbBlockBegin
  2
*Paper_Space
 70
     0
 10
0.0
 20
0.0
 30
0.0
  3
*Paper_Space
  1

  0
ENDBLK
  5
1D
330
1B
100
AcDbEntity
 67
     1
  8
0
100
AcDbBlockEnd
  0
BLOCK
  5
24
330
23
100
AcDbEntity
  8
0
100
AcDbBlockBegin
  2
*Paper_Space0
 70
     0
 10
0.0
 20
0.0
 30
0.0
  3
*Paper_Space0
  1

  0
ENDBLK
  5
25
330
23
100
AcDbEntity
  8
0
100
AcDbBlockEnd
  0
BLOCK
  5
47
330
46
100
AcDbEntity
  8
0
100
AcDbBlockBegin
  2
FXTIP_ARROW_S
 70
     0
 10
0.0
 20
0.0
 30
0.0
  3
FXTIP_ARROW_S
  1

  0
LINE
  5
49
330
46
100
AcDbEntity
  8
0
  6
Continuous
 62
     0
370
    -2
100
AcDbLine
 10
0.0
 20
0.0
 30
0.0
 11
-1.0
 21
0.0000000000000001
 31
0.0
  0
LINE
  5
4A
330
46
100
AcDbEntity
  8
0
  6
Continuous
 62
     0
370
    -2
100
AcDbLine
 10
0.0
 20
0.0
 30
0.0
 11
-0.9659258262890683
 21
-0.2588190451025206
 31
0.0
  0
LINE
  5
4B
330
46
100
AcDbEntity
  8
0
  6
Continuous
 62
     0
370
    -2
100
AcDbLine
 10
0.0
 20
0.0
 30
0.0
 11
-0.9659258262890683
 21
0.2588190451025209
 31
0.0
  0
ENDBLK
  5
48
330
46
100
AcDbEntity
  8
0
100
AcDbBlockEnd
  0
BLOCK
  5
4D
330
4C
100
AcDbEntity
  8
0
100
AcDbBlockBegin
  2
FXTIP_ARROW_E
 70
     0
 10
0.0
 20
0.0
 30
0.0
  3
FXTIP_ARROW_E
  1

  0
LINE
  5
4F
330
4C
100
AcDbEntity
  8
0
  6
Continuous
 62
     0
370
    -2
100
AcDbLine
 10
0.0
 20
0.0
 30
0.0
 11
-1.0
 21
0.0
 31
0.0
  0
LINE
  5
50
330
4C
100
AcDbEntity
  8
0
  6
Continuous
 62
     0
370
    -2
100
AcDbLine
 10
0.0
 20
0.0
 30
0.0
 11
-0.9659258262890683
 21
0.2588190451025207
 31
0.0
  0
LINE
  5
51
330
4C
100
AcDbEntity
  8
0
  6
Continuous
 62
     0
370
    -2
100
AcDbLine
 10
0.0
 20
0.0
 30
0.0
 11
-0.9659258262890683
 21
-0.2588190451025207
 31
0.0
  0
ENDBLK
  5
4E
330
4C
100
AcDbEntity
  8
0
100
AcDbBlockEnd
  0
BLOCK
  5
53
330
52
100
AcDbEntity
  8
0
100
AcDbBlockBegin
  2
FXTIP_BLACKDOT_S
 70
     0
 10
0.0
 20
0.0
 30
0.0
  3
FXTIP_BLACKDOT_S
  1

  0
LINE
  5
55
330
52
100
AcDbEntity
  8
0
  6
Continuous
 62
     0
370
    -2
100
AcDbLine
 10
0.0
 20
0.0
 30
0.0
 11
-1.0
 21
0.0000000000000001
 31
0.0
  0
LWPOLYLINE
  5
56
330
52
100
AcDbEntity
  8
0
  6
Continuous
 62
     0
370
    -2
100
AcDbPolyline
 90
        2
 70
     1
 10
-0.25
 20
0.0
 40
0.5
 41
0.5
 42
1.0
 10
0.25
 20
0.0
 40
0.5
 41
0.5
 42
1.0
  0
CIRCLE
  5
57
330
52
100
AcDbEntity
  8
0
  6
Continuous
 62
     0
370
    -2
100
AcDbCircle
 10
0.0
 20
0.0
 30
0.0
 40
0.5
  0
ENDBLK
  5
54
330
52
100
AcDbEntity
  8
0
100
AcDbBlockEnd
  0
BLOCK
  5
59
330
58
100
AcDbEntity
  8
0
100
AcDbBlockBegin
  2
FXTIP_BLACKDOT_E
 70
     0
 10
0.0
 20
0.0
 30
0.0
  3
FXTIP_BLACKDOT_E
  1

  0
LINE
  5
5B
330
58
100
AcDbEntity
  8
0
  6
Continuous
 62
     0
370
    -2
100
AcDbLine
 10
0.0
 20
0.0
 30
0.0
 11
-1.0
 21
0.0
 31
0.0
  0
LWPOLYLINE
  5
5C
330
58
100
AcDbEntity
  8
0
  6
Continuous
 62
     0
370
    -2
100
AcDbPolyline
 90
        2
 70
     1
 10
-0.25
 20
0.0
 40
0.5
 41
0.5
 42
1.0
 10
0.25
 20
0.0
 40
0.5
 41
0.5
 42
1.0
  0
CIRCLE
  5
5D
330
58
100
AcDbEntity
  8
0
  6
Continuous
 62
     0
370
    -2
100
AcDbCircle
 10
0.0
 20
0.0
 30
0.0
 40
0.5
  0
ENDBLK
  5
5A
330
58
100
AcDbEntity
  8
0
100
AcDbBlockEnd
  0
BLOCK
  5
5F
330
5E
100
AcDbEntity
  8
0
100
AcDbBlockBegin
  2
FXTIP_TRIANGLE_S
 70
     0
 10
0.0
 20
0.0
 30
0.0
  3
FXTIP_TRIANGLE_S
  1

  0
LINE
  5
61
330
5E
100
AcDbEntity
  8
0
  6
Continuous
 62
     0
370
    -2
100
AcDbLine
 10
0.0
 20
0.0
 30
0.0
 11
-1.0
 21
0.0000000000000001
 31
0.0
  0
LINE
  5
62
330
5E
100
AcDbEntity
  8
0
  6
Continuous
 62
     0
370
    -2
100
AcDbLine
 10
0.0
 20
0.0
 30
0.0
 11
-0.9659258262890683
 21
-0.2588190451025206
 31
0.0
  0
LINE
  5
63
330
5E
100
AcDbEntity
  8
0
  6
Continuous
 62
     0
370
    -2
100
AcDbLine
 10
0.0
 20
0.0
 30
0.0
 11
-0.9659258262890683
 21
0.2588190451025209
 31
0.0
  0
LINE
  5
64
330
5E
100
AcDbEntity
  8
0
  6
Continuous
 62
     0
370
    -2
100
AcDbLine
 10
-0.9659258262890683
 20
-0.2588190451025206
 30
0.0
 11
-0.9659258262890683
 21
0.2588190451025209
 31
0.0
  0
ENDBLK
  5
60
330
5E
100
AcDbEntity
  8
0
100
AcDbBlockEnd
  0
BLOCK
  5
66
330
65
100
AcDbEntity
  8
0
100
AcDbBlockBegin
  2
FXTIP_TRIANGLE_E
 70
     0
 10
0.0
 20
0.0
 30
0.0
  3
FXTIP_TRIANGLE_E
  1

  0
LINE
  5
68
330
65
100
AcDbEntity
  8
0
  6
Continuous
 62
     0
370
    -2
100
AcDbLine
 10
0.0
 20
0.0
 30
0.0
 11
-1.0
 21
0.0
 31
0.0
  0
LINE
  5
69
330
65
100
AcDbEntity
  8
0
  6
Continuous
 62
     0
370
    -2
100
AcDbLine
 10
0.0
 20
0.0
 30
0.0
 11
-0.9659258262890683
 21
0.2588190451025207
 31
0.0
  0
LINE
  5
6A
330
65
100
AcDbEntity
  8
0
  6
Continuous
 62
     0
370
    -2
100
AcDbLine
 10
0.0
 20
0.0
 30
0.0
 11
-0.9659258262890683
 21
-0.2588190451025207
 31
0.0
  0
LINE
  5
6B
330
65
100
AcDbEntity
  8
0
  6
Continuous
 62
     0
370
    -2
100
AcDbLine
 10
-0.9659258262890683
 20
0.2588190451025207
 30
0.0
 11
-0.9659258262890683
 21
-0.2588190451025207
 31
0.0
  0
ENDBLK
  5
67
330
65
100
AcDbEntity
  8
0
100
AcDbBlockEnd
  0
BLOCK
  5
6D
330
6C
100
AcDbEntity
  8
0
100
AcDbBlockBegin
  2
FXTIP_ARCHITECT_S
 70
     0
 10
0.0
 20
0.0
 30
0.0
  3
FXTIP_ARCHITECT_S
  1

  0
LINE
  5
6F
330
6C
100
AcDbEntity
  8
0
  6
Continuous
 62
     0
370
    -2
100
AcDbLine
 10
0.0
 20
0.0
 30
0.0
 11
-1.0
 21
0.0000000000000001
 31
0.0
  0
LINE
  5
70
330
6C
100
AcDbEntity
  8
0
  6
Continuous
 62
     0
370
    -2
100
AcDbLine
 10
0.0
 20
0.0
 30
0.0
 11
-0.7071067811865476
 21
-0.7071067811865474
 31
0.0
  0
LINE
  5
71
330
6C
100
AcDbEntity
  8
0
  6
Continuous
 62
     0
370
    -2
100
AcDbLine
 10
0.0
 20
0.0
 30
0.0
 11
0.7071067811865476
 21
0.7071067811865474
 31
0.0
  0
ENDBLK
  5
6E
330
6C
100
AcDbEntity
  8
0
100
AcDbBlockEnd
  0
BLOCK
  5
73
330
72
100
AcDbEntity
  8
0
100
AcDbBlockBegin
  2
FXTIP_ARCHITECT_E
 70
     0
 10
0.0
 20
0.0
 30
0.0
  3
FXTIP_ARCHITECT_E
  1

  0
LINE
  5
75
330
72
100
AcDbEntity
  8
0
  6
Continuous
 62
     0
370
    -2
100
AcDbLine
 10
0.0
 20
0.0
 30
0.0
 11
-1.0
 21
0.0
 31
0.0
  0
LINE
  5
76
330
72
100
AcDbEntity
  8
0
  6
Continuous
 62
     0
370
    -2
100
AcDbLine
 10
0.0
 20
0.0
 30
0.0
 11
0.7071067811865475
 21
0.7071067811865475
 31
0.0
  0
LINE
  5
77
330
72
100
AcDbEntity
  8
0
  6
Continuous
 62
     0
370
    -2
100
AcDbLine
 10
0.0
 20
0.0
 30
0.0
 11
-0.7071067811865475
 21
-0.7071067811865475
 31
0.0
  0
ENDBLK
  5
74
330
72
100
AcDbEntity
  8
0
100
AcDbBlockEnd
  0
BLOCK
  5
79
330
78
100
AcDbEntity
  8
0
100
AcDbBlockBegin
  2
FXTIP_CIVIL_S
 70
     0
 10
0.0
 20
0.0
 30
0.0
  3
FXTIP_CIVIL_S
  1

  0
LINE
  5
7B
330
78
100
AcDbEntity
  8
0
  6
Continuous
 62
     0
370
    -2
100
AcDbLine
 10
0.0
 20
0.0
 30
0.0
 11
-1.0
 21
0.0000000000000001
 31
0.0
  0
LINE
  5
7C
330
78
100
AcDbEntity
  8
0
  6
Continuous
 62
     0
370
    -2
100
AcDbLine
 10
0.0
 20
-0.0625
 30
0.0
 11
-1.0
 21
-0.0624999999999999
 31
0.0
  0
LINE
  5
7D
330
78
100
AcDbEntity
  8
0
  6
Continuous
 62
     0
370
    -2
100
AcDbLine
 10
0.0
 20
-0.125
 30
0.0
 11
-1.0
 21
-0.1249999999999999
 31
0.0
  0
ENDBLK
  5
7A
330
78
100
AcDbEntity
  8
0
100
AcDbBlockEnd
  0
BLOCK
  5
7F
330
7E
100
AcDbEntity
  8
0
100
AcDbBlockBegin
  2
FXTIP_CIVIL_E
 70
     0
 10
0.0
 20
0.0
 30
0.0
  3
FXTIP_CIVIL_E
  1

  0
LINE
  5
81
330
7E
100
AcDbEntity
  8
0
  6
Continuous
 62
     0
370
    -2
100
AcDbLine
 10
0.0
 20
0.0
 30
0.0
 11
-1.0
 21
0.0
 31
0.0
  0
LINE
  5
82
330
7E
100
AcDbEntity
  8
0
  6
Continuous
 62
     0
370
    -2
100
AcDbLine
 10
0.0
 20
0.0625
 30
0.0
 11
-1.0
 21
0.0625
 31
0.0
  0
LINE
  5
83
330
7E
100
AcDbEntity
  8
0
  6
Continuous
 62
     0
370
    -2
100
AcDbLine
 10
0.0
 20
0.125
 30
0.0
 11
-1.0
 21
0.125
 31
0.0
  0
ENDBLK
  5
80
330
7E
100
AcDbEntity
  8
0
100
AcDbBlockEnd
  0
BLOCK
  5
85
330
84
100
AcDbEntity
  8
0
100
AcDbBlockBegin
  2
FXTIP_WHITEDOT_S
 70
     0
 10
0.0
 20
0.0
 30
0.0
  3
FXTIP_WHITEDOT_S
  1

  0
LINE
  5
87
330
84
100
AcDbEntity
  8
0
  6
Continuous
 62
     0
370
    -2
100
AcDbLine
 10
0.0
 20
0.0
 30
0.0
 11
-1.0
 21
0.0000000000000001
 31
0.0
  0
CIRCLE
  5
88
330
84
100
AcDbEntity
  8
0
  6
Continuous
 62
     0
370
    -2
100
AcDbCircle
 10
0.0
 20
0.0
 30
0.0
 40
0.5
  0
ENDBLK
  5
86
330
84
100
AcDbEntity
  8
0
100
AcDbBlockEnd
  0
BLOCK
  5
8A
330
89
100
AcDbEntity
  8
0
100
AcDbBlockBegin
  2
FXTIP_WHITEDOT_E
 70
     0
 10
0.0
 20
0.0
 30
0.0
  3
FXTIP_WHITEDOT_E
  1

  0
LINE
  5
8C
330
89
100
AcDbEntity
  8
0
  6
Continuous
 62
     0
370
    -2
100
AcDbLine
 10
0.0
 20
0.0
 30
0.0
 11
-1.0
 21
0.0
 31
0.0
  0
CIRCLE
  5
8D
330
89
100
AcDbEntity
  8
0
  6
Continuous
 62
     0
370
    -2
100
AcDbCircle
 10
0.0
 20
0.0
 30
0.0
 40
0.5
  0
ENDBLK
  5
8B
330
89
100
AcDbEntity
  8
0
100
AcDbBlockEnd
  0
BLOCK
  5
8F
330
8E
100
AcDbEntity
  8
0
100
AcDbBlockBegin
  2
FXTIP_UPARROW_S
 70
     0
 10
0.0
 20
0.0
 30
0.0
  3
FXTIP_UPARROW_S
  1

  0
LINE
  5
91
330
8E
100
AcDbEntity
  8
0
  6
Continuous
 62
     0
370
    -2
100
AcDbLine
 10
0.0
 20
0.0
 30
0.0
 11
-1.0
 21
0.0000000000000001
 31
0.0
  0
LINE
  5
92
330
8E
100
AcDbEntity
  8
0
  6
Continuous
 62
     0
370
    -2
100
AcDbLine
 10
0.0
 20
0.0
 30
0.0
 11
-0.9659258262890683
 21
-0.2588190451025206
 31
0.0
  0
ENDBLK
  5
90
330
8E
100
AcDbEntity
  8
0
100
AcDbBlockEnd
  0
BLOCK
  5
94
330
93
100
AcDbEntity
  8
0
100
AcDbBlockBegin
  2
FXTIP_UPARROW_E
 70
     0
 10
0.0
 20
0.0
 30
0.0
  3
FXTIP_UPARROW_E
  1

  0
LINE
  5
96
330
93
100
AcDbEntity
  8
0
  6
Continuous
 62
     0
370
    -2
100
AcDbLine
 10
0.0
 20
0.0
 30
0.0
 11
-1.0
 21
0.0
 31
0.0
  0
LINE
  5
97
330
93
100
AcDbEntity
  8
0
  6
Continuous
 62
     0
370
    -2
100
AcDbLine
 10
0.0
 20
0.0
 30
0.0
 11
-0.9659258262890683
 21
0.2588190451025207
 31
0.0
  0
ENDBLK
  5
95
330
93
100
AcDbEntity
  8
0
100
AcDbBlockEnd
  0
BLOCK
  5
99
330
98
100
AcDbEntity
  8
0
100
AcDbBlockBegin
  2
FXTIP_DOWNARROW_S
 70
     0
 10
0.0
 20
0.0
 30
0.0
  3
FXTIP_DOWNARROW_S
  1

  0
LINE
  5
9B
330
98
100
AcDbEntity
  8
0
  6
Continuous
 62
     0
370
    -2
100
AcDbLine
 10
0.0
 20
0.0
 30
0.0
 11
-1.0
 21
0.0000000000000001
 31
0.0
  0
LINE
  5
9C
330
98
100
AcDbEntity
  8
0
  6
Continuous
 62
     0
370
    -2
100
AcDbLine
 10
0.0
 20
0.0
 30
0.0
 11
-0.9659258262890683
 21
0.2588190451025209
 31
0.0
  0
ENDBLK
  5
9A
330
98
100
AcDbEntity
  8
0
100
AcDbBlockEnd
  0
BLOCK
  5
9E
330
9D
100
AcDbEntity
  8
0
100
AcDbBlockBegin
  2
FXTIP_DOWNARROW_E
 70
     0
 10
0.0
 20
0.0
 30
0.0
  3
FXTIP_DOWNARROW_E
  1

  0
LINE
  5
A0
330
9D
100
AcDbEntity
  8
0
  6
Continuous
 62
     0
370
    -2
100
AcDbLine
 10
0.0
 20
0.0
 30
0.0
 11
-1.0
 21
0.0
 31
0.0
  0
LINE
  5
A1
330
9D
100
AcDbEntity
  8
0
  6
Continuous
 62
     0
370
    -2
100
AcDbLine
 10
0.0
 20
0.0
 30
0.0
 11
-0.9659258262890683
 21
-0.2588190451025207
 31
0.0
  0
ENDBLK
  5
9F
330
9D
100
AcDbEntity
  8
0
100
AcDbBlockEnd
  0
BLOCK
  5
A3
330
A2
100
AcDbEntity
  8
0
100
AcDbBlockBegin
  2
FXTIP_BLACKTRIANGLE_S
 70
     0
 10
0.0
 20
0.0
 30
0.0
  3
FXTIP_BLACKTRIANGLE_S
  1

  0
LINE
  5
A5
330
A2
100
AcDbEntity
  8
0
  6
Continuous
 62
     0
370
    -2
100
AcDbLine
 10
0.0
 20
0.0
 30
0.0
 11
-1.0
 21
0.0000000000000001
 31
0.0
  0
SOLID
  5
A6
330
A2
100
AcDbEntity
  8
0
  6
Continuous
 62
     0
370
    -2
100
AcDbTrace
 10
0.0
 20
0.0
 30
0.0
 11
-0.9659258262890683
 21
-0.2588190451025206
 31
0.0
 12
-0.9659258262890683
 22
0.2588190451025209
 32
0.0
 13
-0.9659258262890683
 23
0.2588190451025209
 33
0.0
  0
ENDBLK
  5
A4
330
A2
100
AcDbEntity
  8
0
100
AcDbBlockEnd
  0
BLOCK
  5
A8
330
A7
100
AcDbEntity
  8
0
100
AcDbBlockBegin
  2
FXTIP_BLACKTRIANGLE_E
 70
     0
 10
0.0
 20
0.0
 30
0.0
  3
FXTIP_BLACKTRIANGLE_E
  1

  0
LINE
  5
AA
330
A7
100
AcDbEntity
  8
0
  6
Continuous
 62
     0
370
    -2
100
AcDbLine
 10
0.0
 20
0.0
 30
0.0
 11
-1.0
 21
0.0
 31
0.0
  0
SOLID
  5
AB
330
A7
100
AcDbEntity
  8
0
  6
Continuous
 62
     0
370
    -2
100
AcDbTrace
 10
0.0
 20
0.0
 30
0.0
 11
-0.9659258262890683
 21
0.2588190451025207
 31
0.0
 12
-0.9659258262890683
 22
-0.2588190451025207
 32
0.0
 13
-0.9659258262890683
 23
-0.2588190451025207
 33
0.0
  0
ENDBLK
  5
A9
330
A7
100
AcDbEntity
  8
0
100
AcDbBlockEnd
  0
BLOCK
  5
AF
330
AE
100
AcDbEntity
  8
0
100
AcDbBlockBegin
  2
BLKF022
 70
     0
 10
0.0
 20
0.0
 30
0.0
  3
BLKF022
  1

  0
LINE
  5
B3
330
AE
100
AcDbEntity
  8
図面枠ﾚｲﾔ_01
  6
Continuous
 62
     7
370
    50
100
AcDbLine
 10
20.0
 20
20.0
 30
0.0
 11
821.0
 21
20.0
 31
0.0
  0
LINE
  5
B4
330
AE
100
AcDbEntity
  8
図面枠ﾚｲﾔ_01
  6
Continuous
 62
     7
370
    50
100
AcDbLine
 10
20.0
 20
20.0
 30
0.0
 11
20.0
 21
574.0
 31
0.0
  0
LINE
  5
B5
330
AE
100
AcDbEntity
  8
図面枠ﾚｲﾔ_01
  6
Continuous
 62
     7
370
    50
100
AcDbLine
 10
20.0
 20
574.0
 30
0.0
 11
821.0
 21
574.0
 31
0.0
  0
LINE
  5
B6
330
AE
100
AcDbEntity
  8
図面枠ﾚｲﾔ_01
  6
Continuous
 62
     7
370
    50
100
AcDbLine
 10
821.0
 20
574.0
 30
0.0
 11
821.0
 21
20.0
 31
0.0
  0
LINE
  5
B7
330
AE
100
AcDbEntity
  8
図面枠ﾚｲﾔ_01
  6
Continuous
 62
     7
370
    25
100
AcDbLine
 10
564.0
 20
20.0
 30
0.0
 11
564.0
 21
30.0
 31
0.0
  0
TEXT
  5
B8
330
AE
100
AcDbEntity
  8
図面枠ﾚｲﾔ_01
  6
Continuous
 62
     7
370
    25
100
AcDbText
 10
548.7388305664062
 20
21.59687805175781
 30
0.0
 40
6.648748874664307
  1
品名
 41
1.083413404130886
  7
FX_VECTOR
 72
     5
 11
560.05837059021
 21
21.59687805175781
 31
0.0
100
AcDbText
  0
LINE
  5
B9
330
AE
100
AcDbEntity
  8
図面枠ﾚｲﾔ_01
  6
Continuous
 62
     7
370
    50
100
AcDbLine
 10
644.0
 20
30.0
 30
0.0
 11
644.0
 21
20.0
 31
0.0
  0
LINE
  5
BA
330
AE
100
AcDbEntity
  8
図面枠ﾚｲﾔ_01
  6
Continuous
 62
     7
370
    50
100
AcDbLine
 10
544.0
 20
30.0
 30
0.0
 11
821.0
 21
30.0
 31
0.0
  0
INSERT
  5
BF
330
AE
100
AcDbEntity
  8
0_01
  6
Continuous
 62
     7
370
    25
100
AcDbBlockReference
  2
BLKF023
 10
0.0
 20
0.0
 30
0.0
  0
INSERT
  5
C7
330
AE
100
AcDbEntity
  8
0_01
  6
Continuous
 62
     7
370
    25
100
AcDbBlockReference
  2
BLKF024
 10
0.0
 20
0.0
 30
0.0
  0
HATCH
  5
D8
330
AE
100
AcDbEntity
  8
GR1_01
  6
Continuous
 62
     7
370
    25
100
AcDbHatch
 10
0.0
 20
0.0
 30
0.0
210
0.0
220
0.0
230
1.0
  2
_USER
 70
     0
 71
     0
 91
        2
 92
        0
 93
        4
 72
     1
 10
749.8018997861325
 20
27.91346152
 11
755.8018997861325
 21
27.91346152
 72
     1
 10
755.8018997861325
 20
27.91346152
 11
755.8018997861325
 21
21.91346152
 72
     1
 10
755.8018997861325
 20
21.91346152
 11
749.8018997861325
 21
21.91346152
 72
     1
 10
749.8018997861325
 20
21.91346152
 11
749.8018997861325
 21
27.91346152
 97
        0
 92
        0
 93
       15
 72
     1
 10
752.8018997861325
 20
27.76923076000002
 11
749.9461305461325
 21
24.91346152
 72
     1
 10
749.9461305461325
 20
24.91346152
 11
752.8018997861325
 21
22.05769228000001
 72
     1
 10
752.8018997861325
 20
22.05769228000001
 11
754.3595920661326
 21
23.61538462
 72
     1
 10
754.3595920661326
 20
23.61538462
 11
754.3595920661326
 21
22.98076924
 72
     1
 10
754.3595920661326
 20
22.98076924
 11
755.2249766861325
 21
22.98076924
 72
     1
 10
755.2249766861325
 20
22.98076924
 11
755.2249766861325
 21
25.00000000000001
 72
     1
 10
755.2249766861325
 20
25.00000000000001
 11
752.8018997861325
 21
25.00000000000001
 72
     1
 10
752.8018997861325
 20
25.00000000000001
 11
752.8018997861325
 21
24.13461538000001
 72
     1
 10
752.8018997861325
 20
24.13461538000001
 11
753.2461305461325
 21
24.13461538000001
 72
     1
 10
753.2461305461325
 20
24.13461538000001
 11
752.8018997861325
 21
23.69038462
 72
     1
 10
752.8018997861325
 20
23.69038462
 11
751.5788228861325
 21
24.91346152
 72
     1
 10
751.5788228861325
 20
24.91346152
 11
752.8018997861325
 21
26.13653842000003
 72
     1
 10
752.8018997861325
 20
26.13653842000003
 11
753.5922844061325
 21
25.3461538
 72
     1
 10
753.5922844061325
 20
25.3461538
 11
755.2249766861325
 21
25.3461538
 72
     1
 10
755.2249766861325
 20
25.3461538
 11
752.8018997861325
 21
27.76923076000002
 97
        0
 75
     0
 76
     0
 52
45.0
 41
0.05
 77
     0
 78
     1
 53
45.0
 43
0.0
 44
0.0
 45
-0.0353553390593274
 46
0.0353553390593274
 79
     0
 98
        0
  0
TEXT
  5
D9
330
AE
100
AcDbEntity
  8
図面枠ﾚｲﾔ_01
  6
Continuous
 62
     7
370
    25
100
AcDbText
 10
760.2257690429688
 20
21.46128463745117
 30
0.0
 40
7.170907974243164
  1
ＧＯＬＤ　ＣＡＳＴＥＲ
 41
0.702117011671778
  7
FX_VECTOR
 72
     5
 11
806.9776363372803
 21
21.46128463745117
 31
0.0
100
AcDbText
  0
LINE
  5
DA
330
AE
100
AcDbEntity
  8
図面枠ﾚｲﾔ_01
  6
Continuous
 62
     7
370
    25
100
AcDbLine
 10
664.0
 20
20.0
 30
0.0
 11
664.0
 21
30.0
 31
0.0
  0
TEXT
  5
DB
330
AE
100
AcDbEntity
  8
図面枠ﾚｲﾔ_01
  6
Continuous
 62
     7
370
    25
100
AcDbText
 10
648.7388305664062
 20
21.59687805175781
 30
0.0
 40
6.648748874664307
  1
図番
 41
1.083413404130886
  7
FX_VECTOR
 72
     5
 11
660.05837059021
 21
21.59687805175781
 31
0.0
100
AcDbText
  0
LINE
  5
DC
330
AE
100
AcDbEntity
  8
図面枠ﾚｲﾔ_01
  6
Continuous
 62
     7
370
    50
100
AcDbLine
 10
744.0
 20
30.0
 30
0.0
 11
744.0
 21
20.0
 31
0.0
  0
LINE
  5
DD
330
AE
100
AcDbEntity
  8
図面枠ﾚｲﾔ_01
  6
Continuous
 62
     7
370
    50
100
AcDbLine
 10
544.0
 20
30.0
 30
0.0
 11
544.0
 21
20.0
 31
0.0
  0
ENDBLK
  5
B0
330
AE
100
AcDbEntity
  8
0
100
AcDbBlockEnd
  0
BLOCK
  5
BC
330
BB
100
AcDbEntity
  8
0
100
AcDbBlockBegin
  2
BLKF023
 70
     0
 10
0.0
 20
0.0
 30
0.0
  3
BLKF023
  1

  0
LINE
  5
C0
330
BB
100
AcDbEntity
  8
0_01
  6
Continuous
 62
     7
370
    25
100
AcDbLine
 10
755.8018997861325
 20
27.91346152
 30
0.0
 11
749.8018997861325
 21
27.91346152
 31
0.0
  0
LINE
  5
C1
330
BB
100
AcDbEntity
  8
0_01
  6
Continuous
 62
     7
370
    25
100
AcDbLine
 10
749.8018997861325
 20
27.91346152
 30
0.0
 11
749.8018997861325
 21
21.91346152
 31
0.0
  0
LINE
  5
C2
330
BB
100
AcDbEntity
  8
0_01
  6
Continuous
 62
     7
370
    25
100
AcDbLine
 10
749.8018997861325
 20
21.91346152
 30
0.0
 11
755.8018997861325
 21
21.91346152
 31
0.0
  0
LINE
  5
C3
330
BB
100
AcDbEntity
  8
0_01
  6
Continuous
 62
     7
370
    25
100
AcDbLine
 10
755.8018997861325
 20
21.91346152
 30
0.0
 11
755.8018997861325
 21
27.91346152
 31
0.0
  0
ENDBLK
  5
BD
330
BB
100
AcDbEntity
  8
0
100
AcDbBlockEnd
  0
BLOCK
  5
C5
330
C4
100
AcDbEntity
  8
0
100
AcDbBlockBegin
  2
BLKF024
 70
     0
 10
0.0
 20
0.0
 30
0.0
  3
BLKF024
  1

  0
LINE
  5
C8
330
C4
100
AcDbEntity
  8
0_01
  6
Continuous
 62
     7
370
    25
100
AcDbLine
 10
755.2249766861325
 20
25.3461538
 30
0.0
 11
752.8018997861325
 21
27.76923076000002
 31
0.0
  0
LINE
  5
C9
330
C4
100
AcDbEntity
  8
0_01
  6
Continuous
 62
     7
370
    25
100
AcDbLine
 10
752.8018997861325
 20
27.76923076000002
 30
0.0
 11
749.9461305461325
 21
24.91346152
 31
0.0
  0
LINE
  5
CA
330
C4
100
AcDbEntity
  8
0_01
  6
Continuous
 62
     7
370
    25
100
AcDbLine
 10
749.9461305461325
 20
24.91346152
 30
0.0
 11
752.8018997861325
 21
22.05769228000001
 31
0.0
  0
LINE
  5
CB
330
C4
100
AcDbEntity
  8
0_01
  6
Continuous
 62
     7
370
    25
100
AcDbLine
 10
752.8018997861325
 20
22.05769228000001
 30
0.0
 11
754.3595920661326
 21
23.61538462
 31
0.0
  0
LINE
  5
CC
330
C4
100
AcDbEntity
  8
0_01
  6
Continuous
 62
     7
370
    25
100
AcDbLine
 10
754.3595920661326
 20
23.61538462
 30
0.0
 11
754.3595920661326
 21
22.98076924
 31
0.0
  0
LINE
  5
CD
330
C4
100
AcDbEntity
  8
0_01
  6
Continuous
 62
     7
370
    25
100
AcDbLine
 10
754.3595920661326
 20
22.98076924
 30
0.0
 11
755.2249766861325
 21
22.98076924
 31
0.0
  0
LINE
  5
CE
330
C4
100
AcDbEntity
  8
0_01
  6
Continuous
 62
     7
370
    25
100
AcDbLine
 10
755.2249766861325
 20
22.98076924
 30
0.0
 11
755.2249766861325
 21
25.00000000000001
 31
0.0
  0
LINE
  5
CF
330
C4
100
AcDbEntity
  8
0_01
  6
Continuous
 62
     7
370
    25
100
AcDbLine
 10
755.2249766861325
 20
25.00000000000001
 30
0.0
 11
752.8018997861325
 21
25.00000000000001
 31
0.0
  0
LINE
  5
D0
330
C4
100
AcDbEntity
  8
0_01
  6
Continuous
 62
     7
370
    25
100
AcDbLine
 10
752.8018997861325
 20
25.00000000000001
 30
0.0
 11
752.8018997861325
 21
24.13461538000001
 31
0.0
  0
LINE
  5
D1
330
C4
100
AcDbEntity
  8
0_01
  6
Continuous
 62
     7
370
    25
100
AcDbLine
 10
752.8018997861325
 20
24.13461538000001
 30
0.0
 11
753.2461305461325
 21
24.13461538000001
 31
0.0
  0
LINE
  5
D2
330
C4
100
AcDbEntity
  8
0_01
  6
Continuous
 62
     7
370
    25
100
AcDbLine
 10
753.2461305461325
 20
24.13461538000001
 30
0.0
 11
752.8018997861325
 21
23.69038462
 31
0.0
  0
LINE
  5
D3
330
C4
100
AcDbEntity
  8
0_01
  6
Continuous
 62
     7
370
    25
100
AcDbLine
 10
752.8018997861325
 20
23.69038462
 30
0.0
 11
751.5788228861325
 21
24.91346152
 31
0.0
  0
LINE
  5
D4
330
C4
100
AcDbEntity
  8
0_01
  6
Continuous
 62
     7
370
    25
100
AcDbLine
 10
751.5788228861325
 20
24.91346152
 30
0.0
 11
752.8018997861325
 21
26.13653842000003
 31
0.0
  0
LINE
  5
D5
330
C4
100
AcDbEntity
  8
0_01
  6
Continuous
 62
     7
370
    25
100
AcDbLine
 10
752.8018997861325
 20
26.13653842000003
 30
0.0
 11
753.5922844061325
 21
25.3461538
 31
0.0
  0
LINE
  5
D6
330
C4
100
AcDbEntity
  8
0_01
  6
Continuous
 62
     7
370
    25
100
AcDbLine
 10
753.5922844061325
 20
25.3461538
 30
0.0
 11
755.2249766861325
 21
25.3461538
 31
0.0
  0
ENDBLK
  5
C6
330
C4
100
AcDbEntity
  8
0
100
AcDbBlockEnd
  0
ENDSEC
  0
SECTION
  2
ENTITIES
  0
INSERT
  5
B2
330
1F
100
AcDbEntity
  8
図面枠ﾚｲﾔ_01
  6
Continuous
 62
     7
370
    50
100
AcDbBlockReference
  2
BLKF022
 10
0.0
 20
0.0
 30
0.0
  0
TEXT
  5
DE
330
1F
100
AcDbEntity
  8
図面枠ﾚｲﾔ_01
  6
Continuous
 62
     7
370
    25
100
AcDbText
 10
566.0
 20
22.0
 30
0.0
 40
6.0
  1
ＷＪ－１５０　ＭＣＡ　ＷＳＲ
 41
0.7871485943775103
  7
FX_VECTOR
 72
     5
 11
622.0
 21
22.0
 31
0.0
100
AcDbText
  0
TEXT
  5
DF
330
1F
100
AcDbEntity
  8
図面枠ﾚｲﾔ_01
  6
Continuous
 62
     7
370
    25
100
AcDbText
 10
666.0
 20
22.0
 30
0.0
 40
6.0
  1
Ｗ４０Ａ２ＵＢ－Ｃ０２
 41
0.7897435897435899
  7
FX_VECTOR
 72
     5
 11
710.0
 21
22.0
 31
0.0
100
AcDbText
  0
LINE
  5
E0
330
1F
100
AcDbEntity
  8
GR1_01
  6
Continuous
 62
     3
370
    50
100
AcDbLine
 10
213.6184813509997
 20
239.6956446950163
 30
0.0
 11
213.6184813509997
 21
132.9932950191569
 31
0.0
  0
LINE
  5
E1
330
1F
100
AcDbEntity
  8
GR1_01
  6
Continuous
 62
     3
370
    50
100
AcDbLine
 10
213.6184813509997
 20
132.9932950191569
 30
0.0
 11
210.4184813509996
 21
132.9932950191569
 31
0.0
  0
LINE
  5
E2
330
1F
100
AcDbEntity
  8
GR1_01
  6
Continuous
 62
     3
370
    50
100
AcDbLine
 10
210.4184813509996
 20
132.9932950191569
 30
0.0
 11
210.4184813509996
 21
245.3364407696646
 31
0.0
  0
LINE
  5
E3
330
1F
100
AcDbEntity
  8
GR1_01
  6
Continuous
 62
     3
370
    50
100
AcDbLine
 10
209.9718993636143
 20
242.7917977110536
 30
0.0
 11
210.4184813509996
 21
242.0182950191573
 31
0.0
  0
LINE
  5
E4
330
1F
100
AcDbEntity
  8
GR1_01
  6
Continuous
 62
     3
370
    50
100
AcDbLine
 10
209.9718993636144
 20
242.7917963651055
 30
0.0
 11
207.2650633383848
 21
242.7917977110535
 31
0.0
  0
ARC
  5
E5
330
1F
100
AcDbEntity
  8
GR1_01
  6
Continuous
 62
     3
370
    50
100
AcDbCircle
 10
209.3743040994222
 20
241.3484220380795
 30
0.0
 40
2.555822748422663
100
AcDbArc
 50
145.6157525319512
 51
214.3842474680497
  0
LINE
  5
E6
330
1F
100
AcDbEntity
  8
GR1_01
  6
Continuous
 62
     3
370
    50
100
AcDbLine
 10
207.2650633383848
 20
239.9050463651055
 30
0.0
 11
209.9718993636144
 21
239.9050463651055
 31
0.0
  0
ARC
  5
E7
330
1F
100
AcDbEntity
  8
GR1_01
  6
Continuous
 62
     3
370
    50
100
AcDbCircle
 10
207.862658602577
 20
241.3484220380795
 30
0.0
 40
2.555822748422663
100
AcDbArc
 50
325.6157525319502
 51
34.38424746804883
  0
LINE
  5
E8
330
1F
100
AcDbEntity
  8
GR1_01
  6
Continuous
 62
     3
370
    50
100
AcDbLine
 10
207.265062417339
 20
242.7917963651055
 30
0.0
 11
206.8184813509996
 21
242.0182950191573
 31
0.0
  0
LINE
  5
E9
330
1F
100
AcDbEntity
  8
GR1_01
  6
Continuous
 62
     3
370
    50
100
AcDbLine
 10
206.8184813509996
 20
242.0182950191573
 30
0.0
 11
206.0684813509996
 21
242.0182950191573
 31
0.0
  0
ARC
  5
EA
330
1F
100
AcDbEntity
  8
GR1_01
  6
Continuous
 62
     3
370
    50
100
AcDbCircle
 10
206.0684813509996
 20
241.2682950191573
 30
0.0
 40
0.75
100
AcDbArc
 50
90.0
 51
180.0
  0
LINE
  5
EB
330
1F
100
AcDbEntity
  8
GR1_01
  6
Continuous
 62
     3
370
    50
100
AcDbLine
 10
205.3184813509996
 20
241.2682950191573
 30
0.0
 11
205.3184813509996
 21
232.7682950191573
 31
0.0
  0
ARC
  5
EC
330
1F
100
AcDbEntity
  8
GR1_01
  6
Continuous
 62
     3
370
    50
100
AcDbCircle
 10
206.0684813509996
 20
232.7682950191573
 30
0.0
 40
0.75
100
AcDbArc
 50
180.0
 51
270.0
  0
ARC
  5
ED
330
1F
100
AcDbEntity
  8
GR1_01
  6
Continuous
 62
     3
370
    50
100
AcDbCircle
 10
200.8650633383851
 20
237.0182950191573
 30
0.0
 40
9.553418012614543
100
AcDbArc
 50
342.4120462260055
 51
17.58795377399449
  0
ARC
  5
EE
330
1F
100
AcDbEntity
  8
GR1_01
  6
Continuous
 62
     3
370
    50
100
AcDbCircle
 10
216.3718993636141
 20
237.0182950191573
 30
0.0
 40
9.553418012614543
100
AcDbArc
 50
162.4120462260053
 51
197.5879537739948
  0
LINE
  5
EF
330
1F
100
AcDbEntity
  8
GR1_01
  6
Continuous
 62
     3
370
    50
100
AcDbLine
 10
207.2650633383848
 20
234.1315436732091
 30
0.0
 11
209.9718993636144
 21
234.1315436732091
 31
0.0
  0
LINE
  5
F0
330
1F
100
AcDbEntity
  8
GR1_01
  6
Continuous
 62
     3
370
    50
100
AcDbLine
 10
210.4184813509996
 20
232.0182950191573
 30
0.0
 11
209.9718993636143
 21
231.2447923272609
 31
0.0
  0
LINE
  5
F1
330
1F
100
AcDbEntity
  8
GR1_01
  6
Continuous
 62
     3
370
    50
100
AcDbLine
 10
209.9718993636144
 20
231.2447923272611
 30
0.0
 11
207.2650633383848
 21
231.2447923272611
 31
0.0
  0
LINE
  5
F2
330
1F
100
AcDbEntity
  8
GR1_01
  6
Continuous
 62
     3
370
    50
100
AcDbLine
 10
207.2650633383848
 20
231.2447923272611
 30
0.0
 11
206.8184813509996
 21
232.0182950191573
 31
0.0
  0
ARC
  5
F3
330
1F
100
AcDbEntity
  8
GR1_01
  6
Continuous
 62
     3
370
    50
100
AcDbCircle
 10
209.3743040994222
 20
232.6881680002351
 30
0.0
 40
2.555822748422663
100
AcDbArc
 50
145.6157525319503
 51
214.3842474680489
  0
ARC
  5
F4
330
1F
100
AcDbEntity
  8
GR1_01
  6
Continuous
 62
     3
370
    50
100
AcDbCircle
 10
207.862658602577
 20
232.6881680002351
 30
0.0
 40
2.555822748422663
100
AcDbArc
 50
325.6157525319512
 51
34.38424746804974
  0
LINE
  5
F5
330
1F
100
AcDbEntity
  8
GR1_01
  6
Continuous
 62
     3
370
    50
100
AcDbLine
 10
205.3184813509996
 20
234.0182950191573
 30
0.0
 11
203.8184813509997
 21
234.0182950191573
 31
0.0
  0
LINE
  5
F6
330
1F
100
AcDbEntity
  8
GR1_01
  6
Continuous
 62
     3
370
    50
100
AcDbLine
 10
203.8184813509997
 20
234.0182950191573
 30
0.0
 11
203.3184813509997
 21
234.5597950191573
 31
0.0
  0
LINE
  5
F7
330
1F
100
AcDbEntity
  8
GR1_01
  6
Continuous
 62
     3
370
    50
100
AcDbLine
 10
203.3184813509997
 20
234.5597950191573
 30
0.0
 11
203.3184813509997
 21
239.4767950191573
 31
0.0
  0
LINE
  5
F8
330
1F
100
AcDbEntity
  8
GR1_01
  6
Continuous
 62
     3
370
    50
100
AcDbLine
 10
203.3184813509997
 20
239.4767950191573
 30
0.0
 11
203.8184813509997
 21
240.0182950191573
 31
0.0
  0
LINE
  5
F9
330
1F
100
AcDbEntity
  8
GR1_01
  6
Continuous
 62
     3
370
    50
100
AcDbLine
 10
203.8184813509997
 20
240.0182950191573
 30
0.0
 11
205.3184813509996
 21
240.0182950191573
 31
0.0
  0
ARC
  5
FA
330
1F
100
AcDbEntity
  8
GR1_01
  6
Continuous
 62
     3
370
    50
100
AcDbCircle
 10
200.3146100947541
 20
241.3484220380795
 30
0.0
 40
2.555822748422663
100
AcDbArc
 50
325.6157525319502
 51
34.38424746804883
  0
LINE
  5
FB
330
1F
100
AcDbEntity
  8
GR1_01
  6
Continuous
 62
     3
370
    50
100
AcDbLine
 10
202.4238508557914
 20
242.7917977110536
 30
0.0
 11
202.8704328431767
 21
242.0182950191573
 31
0.0
  0
LINE
  5
FC
330
1F
100
AcDbEntity
  8
GR1_01
  6
Continuous
 62
     3
370
    50
100
AcDbLine
 10
202.8704328431767
 20
242.0182950191573
 30
0.0
 11
202.8704328431767
 21
232.0182950191573
 31
0.0
  0
LINE
  5
FD
330
1F
100
AcDbEntity
  8
GR1_01
  6
Continuous
 62
     3
370
    50
100
AcDbLine
 10
202.8704328431767
 20
232.0182950191573
 30
0.0
 11
202.4238508557914
 21
231.2447923272609
 31
0.0
  0
LINE
  5
FE
330
1F
100
AcDbEntity
  8
GR1_01
  6
Continuous
 62
     3
370
    50
100
AcDbLine
 10
202.4238508557916
 20
231.2447923272611
 30
0.0
 11
199.717014830562
 21
231.2447923272611
 31
0.0
  0
LINE
  5
FF
330
1F
100
AcDbEntity
  8
GR1_01
  6
Continuous
 62
     3
370
    50
100
AcDbLine
 10
199.717014830562
 20
231.2447923272611
 30
0.0
 11
199.2704328431767
 21
232.0182950191573
 31
0.0
  0
LINE
  5
100
330
1F
100
AcDbEntity
  8
GR1_01
  6
Continuous
 62
     3
370
    50
100
AcDbLine
 10
199.2704328431767
 20
232.0182950191573
 30
0.0
 11
198.5204328431767
 21
232.0182950191573
 31
0.0
  0
LINE
  5
101
330
1F
100
AcDbEntity
  8
GR1_01
  6
Continuous
 62
     3
370
    50
100
AcDbLine
 10
197.7704328431767
 20
232.7682950191573
 30
0.0
 11
197.7704328431767
 21
241.2682950191573
 31
0.0
  0
LINE
  5
102
330
1F
100
AcDbEntity
  8
GR1_01
  6
Continuous
 62
     3
370
    50
100
AcDbLine
 10
198.5204328431767
 20
242.0182950191573
 30
0.0
 11
199.2704328431767
 21
242.0182950191573
 31
0.0
  0
LINE
  5
103
330
1F
100
AcDbEntity
  8
GR1_01
  6
Continuous
 62
     3
370
    50
100
AcDbLine
 10
199.2704328431767
 20
242.0182950191573
 30
0.0
 11
199.7170139095161
 21
242.7917963651055
 31
0.0
  0
LINE
  5
104
330
1F
100
AcDbEntity
  8
GR1_01
  6
Continuous
 62
     3
370
    50
100
AcDbLine
 10
199.717014830562
 20
242.7917977110535
 30
0.0
 11
202.4238508557916
 21
242.7917963651055
 31
0.0
  0
ARC
  5
105
330
1F
100
AcDbEntity
  8
GR1_01
  6
Continuous
 62
     3
370
    50
100
AcDbCircle
 10
201.8262555915993
 20
241.3484220380795
 30
0.0
 40
2.555822748422663
100
AcDbArc
 50
145.6157525319512
 51
214.3842474680497
  0
LINE
  5
106
330
1F
100
AcDbEntity
  8
GR1_01
  6
Continuous
 62
     3
370
    50
100
AcDbLine
 10
199.717014830562
 20
239.9050463651055
 30
0.0
 11
202.4238508557915
 21
239.9050463651055
 31
0.0
  0
ARC
  5
107
330
1F
100
AcDbEntity
  8
GR1_01
  6
Continuous
 62
     3
370
    50
100
AcDbCircle
 10
208.8238508557912
 20
237.0182950191573
 30
0.0
 40
9.553418012614543
100
AcDbArc
 50
162.4120462260053
 51
197.5879537739948
  0
LINE
  5
108
330
1F
100
AcDbEntity
  8
GR1_01
  6
Continuous
 62
     3
370
    50
100
AcDbLine
 10
199.717014830562
 20
234.1315436732091
 30
0.0
 11
202.4238508557915
 21
234.1315436732091
 31
0.0
  0
ARC
  5
109
330
1F
100
AcDbEntity
  8
GR1_01
  6
Continuous
 62
     3
370
    50
100
AcDbCircle
 10
193.3170148305622
 20
237.0182950191573
 30
0.0
 40
9.553418012614543
100
AcDbArc
 50
342.4120462260055
 51
17.58795377399449
  0
ARC
  5
10A
330
1F
100
AcDbEntity
  8
GR1_01
  6
Continuous
 62
     3
370
    50
100
AcDbCircle
 10
198.5204328431767
 20
241.2682950191573
 30
0.0
 40
0.75
100
AcDbArc
 50
90.0
 51
180.0
  0
LINE
  5
10B
330
1F
100
AcDbEntity
  8
GR1_01
  6
Continuous
 62
     3
370
    50
100
AcDbLine
 10
197.7704328431768
 20
240.137708125772
 30
0.0
 11
196.8684813509997
 21
240.137708125772
 31
0.0
  0
LINE
  5
10C
330
1F
100
AcDbEntity
  8
GR1_01
  6
Continuous
 62
     3
370
    50
100
AcDbLine
 10
196.8684813509997
 20
240.137708125772
 30
0.0
 11
196.3684813509997
 21
239.5962081257719
 31
0.0
  0
LINE
  5
10D
330
1F
100
AcDbEntity
  8
GR1_01
  6
Continuous
 62
     3
370
    50
100
AcDbLine
 10
196.3684813509997
 20
239.5962081257719
 30
0.0
 11
196.3684813509997
 21
234.6792081257719
 31
0.0
  0
LINE
  5
10E
330
1F
100
AcDbEntity
  8
GR1_01
  6
Continuous
 62
     3
370
    50
100
AcDbLine
 10
196.3684813509997
 20
234.6792081257719
 30
0.0
 11
196.8684813509997
 21
234.137708125772
 31
0.0
  0
LINE
  5
10F
330
1F
100
AcDbEntity
  8
GR1_01
  6
Continuous
 62
     3
370
    50
100
AcDbLine
 10
196.8684813509997
 20
234.137708125772
 30
0.0
 11
197.7704328431768
 21
234.137708125772
 31
0.0
  0
ARC
  5
110
330
1F
100
AcDbEntity
  8
GR1_01
  6
Continuous
 62
     3
370
    50
100
AcDbCircle
 10
198.5204328431767
 20
232.7682950191573
 30
0.0
 40
0.75
100
AcDbArc
 50
180.0
 51
270.0
  0
ARC
  5
111
330
1F
100
AcDbEntity
  8
GR1_01
  6
Continuous
 62
     3
370
    50
100
AcDbCircle
 10
201.8262555915993
 20
232.6881680002351
 30
0.0
 40
2.555822748422663
100
AcDbArc
 50
145.6157525319503
 51
214.3842474680489
  0
ARC
  5
112
330
1F
100
AcDbEntity
  8
GR1_01
  6
Continuous
 62
     3
370
    50
100
AcDbCircle
 10
200.3146100947541
 20
232.6881680002351
 30
0.0
 40
2.555822748422663
100
AcDbArc
 50
325.6157525319512
 51
34.38424746804974
  0
LINE
  5
113
330
1F
100
AcDbEntity
  8
GR1_01
  6
Continuous
 62
     3
370
    50
100
AcDbLine
 10
202.8684813509997
 20
250.793295019157
 30
0.0
 11
202.8785328026069
 21
179.8431023846217
 31
0.0
  0
ARC
  5
114
330
1F
100
AcDbEntity
  8
GR1_01
  6
Continuous
 62
     3
370
    50
100
AcDbCircle
 10
282.1243932782665
 20
183.3212983335604
 30
0.0
 40
79.32215484709751
100
AcDbArc
 50
182.5131675531267
 51
189.8732458090843
  0
LINE
  5
115
330
1F
100
AcDbEntity
  8
GR1_01
  6
Continuous
 62
     3
370
    50
100
AcDbLine
 10
205.9360009787521
 20
169.7200009413287
 30
0.0
 11
206.9184813509996
 21
168.0182950191572
 31
0.0
  0
LINE
  5
116
330
1F
100
AcDbEntity
  8
GR1_01
  6
Continuous
 62
     3
370
    50
100
AcDbLine
 10
206.9184813509996
 20
168.5182950191572
 30
0.0
 11
206.9184813509996
 21
145.5182950191572
 31
0.0
  0
ARC
  5
117
330
1F
100
AcDbEntity
  8
GR1_01
  6
Continuous
 62
     3
370
    50
100
AcDbCircle
 10
207.4184813509996
 20
145.5182950191572
 30
0.0
 40
0.5
100
AcDbArc
 50
180.0
 51
270.0
  0
LINE
  5
118
330
1F
100
AcDbEntity
  8
GR1_01
  6
Continuous
 62
     3
370
    50
100
AcDbLine
 10
207.4184813509996
 20
145.0182950191572
 30
0.0
 11
209.9184813509996
 21
145.0182950191572
 31
0.0
  0
ARC
  5
119
330
1F
100
AcDbEntity
  8
GR1_01
  6
Continuous
 62
     3
370
    50
100
AcDbCircle
 10
209.9184813509996
 20
145.5182950191572
 30
0.0
 40
0.5
100
AcDbArc
 50
270.0
 51
0.0
  0
LINE
  5
11A
330
1F
100
AcDbEntity
  8
GR1_01
  6
Continuous
 62
     3
370
    50
100
AcDbLine
 10
206.9184813509996
 20
146.0182950191572
 30
0.0
 11
205.9360009787521
 21
144.3165890969856
 31
0.0
  0
ARC
  5
11B
330
1F
100
AcDbEntity
  8
GR1_01
  6
Continuous
 62
     3
370
    50
100
AcDbCircle
 10
201.2956713044703
 20
147.4920155775286
 30
0.0
 40
5.622810046529507
100
AcDbArc
 50
325.6157525319481
 51
34.38424746805076
  0
LINE
  5
11C
330
1F
100
AcDbEntity
  8
GR1_01
  6
Continuous
 62
     3
370
    50
100
AcDbLine
 10
205.9360009787522
 20
150.6674420580712
 30
0.0
 11
199.9009617232468
 21
150.6674420580713
 31
0.0
  0
ARC
  5
11D
330
1F
100
AcDbEntity
  8
GR1_01
  6
Continuous
 62
     3
370
    50
100
AcDbCircle
 10
204.5412913975287
 20
147.4920155775286
 30
0.0
 40
5.622810046529507
100
AcDbArc
 50
145.6157525319492
 51
214.3842474680519
  0
LINE
  5
11E
330
1F
100
AcDbEntity
  8
GR1_01
  6
Continuous
 62
     3
370
    50
100
AcDbLine
 10
199.900961723247
 20
144.3165890969857
 30
0.0
 11
198.9184813509995
 21
146.0182950191572
 31
0.0
  0
LINE
  5
11F
330
1F
100
AcDbEntity
  8
GR1_01
  6
Continuous
 62
     3
370
    50
100
AcDbLine
 10
198.9184813509995
 20
146.0182950191571
 30
0.0
 11
198.9184813509995
 21
168.0182950191573
 31
0.0
  0
LINE
  5
120
330
1F
100
AcDbEntity
  8
GR1_01
  6
Continuous
 62
     3
370
    50
100
AcDbLine
 10
198.9184813509995
 20
168.0182950191572
 30
0.0
 11
199.900961723247
 21
169.7200009413287
 31
0.0
  0
ARC
  5
121
330
1F
100
AcDbEntity
  8
GR1_01
  6
Continuous
 62
     3
370
    50
100
AcDbCircle
 10
204.5412913975287
 20
166.5445744607857
 30
0.0
 40
5.622810046529507
100
AcDbArc
 50
145.6157525319481
 51
214.3842474680508
  0
ARC
  5
122
330
1F
100
AcDbEntity
  8
GR1_01
  6
Continuous
 62
     3
370
    50
100
AcDbCircle
 10
219.9360009787542
 20
157.0182950191571
 30
0.0
 40
21.01751962775467
100
AcDbArc
 50
162.4120462260082
 51
197.5879537739922
  0
LINE
  5
123
330
1F
100
AcDbEntity
  8
GR1_01
  6
Continuous
 62
     3
370
    50
100
AcDbLine
 10
198.9184813509995
 20
150.0164862108705
 30
0.0
 11
198.1184813509996
 21
150.0164862108705
 31
0.0
  0
LINE
  5
124
330
1F
100
AcDbEntity
  8
GR1_01
  6
Continuous
 62
     3
370
    50
100
AcDbLine
 10
198.1184813509996
 20
150.0164862108705
 30
0.0
 11
197.1184813509996
 21
151.0164862108705
 31
0.0
  0
LINE
  5
125
330
1F
100
AcDbEntity
  8
GR1_01
  6
Continuous
 62
     3
370
    50
100
AcDbLine
 10
197.1184813509996
 20
151.0164862108705
 30
0.0
 11
197.1184813509996
 21
163.0164862108705
 31
0.0
  0
LINE
  5
126
330
1F
100
AcDbEntity
  8
GR1_01
  6
Continuous
 62
     3
370
    50
100
AcDbLine
 10
197.1184813509996
 20
163.0164862108705
 30
0.0
 11
198.1184813509996
 21
164.0164862108705
 31
0.0
  0
LINE
  5
127
330
1F
100
AcDbEntity
  8
GR1_01
  6
Continuous
 62
     3
370
    50
100
AcDbLine
 10
198.1184813509996
 20
164.0164862108705
 30
0.0
 11
198.9184813509995
 21
164.0164862108705
 31
0.0
  0
LINE
  5
128
330
1F
100
AcDbEntity
  8
GR1_01
  6
Continuous
 62
     3
370
    50
100
AcDbLine
 10
199.9009617232468
 20
163.3691479802429
 30
0.0
 11
205.9360009787522
 21
163.3691479802429
 31
0.0
  0
ARC
  5
129
330
1F
100
AcDbEntity
  8
GR1_01
  6
Continuous
 62
     3
370
    50
100
AcDbCircle
 10
201.2956713044703
 20
166.5445744607858
 30
0.0
 40
5.622810046529507
100
AcDbArc
 50
325.6157525319492
 51
34.38424746805187
  0
LINE
  5
12A
330
1F
100
AcDbEntity
  8
GR1_01
  6
Continuous
 62
     3
370
    50
100
AcDbLine
 10
205.9360009787522
 20
169.7200009413287
 30
0.0
 11
199.9009617232468
 21
169.7200009413287
 31
0.0
  0
LINE
  5
12B
330
1F
100
AcDbEntity
  8
GR1_01
  6
Continuous
 62
     3
370
    50
100
AcDbLine
 10
207.4184813509996
 20
169.0182950191572
 30
0.0
 11
209.9184813509996
 21
169.0182950191571
 31
0.0
  0
ARC
  5
12C
330
1F
100
AcDbEntity
  8
GR1_01
  6
Continuous
 62
     3
370
    50
100
AcDbCircle
 10
209.9184813509996
 20
168.5182950191571
 30
0.0
 40
0.5
100
AcDbArc
 50
0.0
 51
90.0
  0
ARC
  5
12D
330
1F
100
AcDbEntity
  8
GR1_01
  6
Continuous
 62
     3
370
    50
100
AcDbCircle
 10
207.4184813509996
 20
168.5182950191572
 30
0.0
 40
0.5
100
AcDbArc
 50
90.0
 51
180.0
  0
LINE
  5
12E
330
1F
100
AcDbEntity
  8
GR1_01
  6
Continuous
 62
     3
370
    50
100
AcDbLine
 10
205.9360009787522
 20
144.3165890969856
 30
0.0
 11
199.9009617232468
 21
144.3165890969857
 31
0.0
  0
ARC
  5
12F
330
1F
100
AcDbEntity
  8
GR1_01
  6
Continuous
 62
     3
370
    50
100
AcDbCircle
 10
185.900961723245
 20
157.0182950191572
 30
0.0
 40
21.01751962775467
100
AcDbArc
 50
342.4120462260076
 51
17.5879537739918
  0
LINE
  5
130
330
1F
100
AcDbEntity
  8
GR1_01
  6
Continuous
 62
     3
370
    50
100
AcDbLine
 10
270.1184813509996
 20
132.9932950191569
 30
0.0
 11
270.1184813509996
 21
239.6956446950163
 31
0.0
  0
LINE
  5
131
330
1F
100
AcDbEntity
  8
GR1_01
  6
Continuous
 62
     3
370
    50
100
AcDbLine
 10
273.3184813509997
 20
170.0164862108705
 30
0.0
 11
276.3184813509997
 21
170.0164862108705
 31
0.0
  0
LINE
  5
132
330
1F
100
AcDbEntity
  8
GR1_01
  6
Continuous
 62
     3
370
    50
100
AcDbLine
 10
276.3184813509997
 20
170.0164862108705
 30
0.0
 11
277.8184813509997
 21
167.0164862108705
 31
0.0
  0
LINE
  5
133
330
1F
100
AcDbEntity
  8
GR1_01
  6
Continuous
 62
     3
370
    50
100
AcDbLine
 10
277.8184813509997
 20
167.0164862108705
 30
0.0
 11
277.8184813509997
 21
147.0164862108705
 31
0.0
  0
LINE
  5
134
330
1F
100
AcDbEntity
  8
GR1_01
  6
Continuous
 62
     3
370
    50
100
AcDbLine
 10
277.8184813509997
 20
147.0164862108705
 30
0.0
 11
276.3184813509997
 21
144.0164862108705
 31
0.0
  0
LINE
  5
135
330
1F
100
AcDbEntity
  8
GR1_01
  6
Continuous
 62
     3
370
    50
100
AcDbLine
 10
276.3184813509997
 20
144.0164862108705
 30
0.0
 11
273.3184813509997
 21
144.0164862108705
 31
0.0
  0
LINE
  5
136
330
1F
100
AcDbEntity
  8
GR1_01
  6
Continuous
 62
     3
370
    50
100
AcDbLine
 10
270.1184813509997
 20
132.9932950191569
 30
0.0
 11
273.3184813509997
 21
132.9932950191569
 31
0.0
  0
LINE
  5
137
330
1F
100
AcDbEntity
  8
GR1_01
  6
Continuous
 62
     3
370
    50
100
AcDbLine
 10
273.3184813509996
 20
242.7917977110535
 30
0.0
 11
276.5832242290196
 21
242.7917977110535
 31
0.0
  0
ARC
  5
138
330
1F
100
AcDbEntity
  8
GR1_01
  6
Continuous
 62
     3
370
    50
100
AcDbCircle
 10
219.9907165583782
 20
230.3727951256186
 30
0.0
 40
11.29251546962738
100
AcDbArc
 50
95.16147616037544
 51
147.9582689748221
  0
ARC
  5
139
330
1F
100
AcDbEntity
  8
GR1_01
  6
Continuous
 62
     3
370
    50
100
AcDbCircle
 10
235.3195016809167
 20
-58.18727281027486
 30
0.0
 40
300.2519982233577
100
AcDbArc
 50
88.75018765536547
 51
93.12052902980672
  0
ARC
  5
13A
330
1F
100
AcDbEntity
  8
GR1_01
  6
Continuous
 62
     3
370
    50
100
AcDbCircle
 10
218.4184813509996
 20
244.4105844220156
 30
0.0
 40
8.0
100
AcDbArc
 50
108.5873470209185
 51
180.0
  0
LINE
  5
13B
330
1F
100
AcDbEntity
  8
GR1_01
  6
Continuous
 62
     3
370
    50
100
AcDbLine
 10
215.8684813509996
 20
251.9932950191569
 30
0.0
 11
267.8684813509997
 21
251.9932950191569
 31
0.0
  0
LINE
  5
13C
330
1F
100
AcDbEntity
  8
GR1_01
  6
Continuous
 62
     3
370
    50
100
AcDbLine
 10
203.1193903625384
 20
257.793295019157
 30
0.0
 11
280.6175723394609
 21
257.793295019157
 31
0.0
  0
ARC
  5
13D
330
1F
100
AcDbEntity
  8
GR1_01
  6
Continuous
 62
     3
370
    50
100
AcDbCircle
 10
209.8684813509997
 20
250.793295019157
 30
0.0
 40
7.0
100
AcDbArc
 50
90.0
 51
180.0
  0
ARC
  5
13E
330
1F
100
AcDbEntity
  8
GR1_01
  6
Continuous
 62
     3
370
    50
100
AcDbCircle
 10
203.1193903625384
 20
262.9932950191569
 30
0.0
 40
5.2
100
AcDbArc
 50
182.8113735945269
 51
270.0
  0
LINE
  5
13F
330
1F
100
AcDbEntity
  8
GR1_01
  6
Continuous
 62
     3
370
    50
100
AcDbLine
 10
197.9256489751203
 20
262.7382452188819
 30
0.0
 11
197.6184813509997
 21
268.9932950191569
 31
0.0
  0
LINE
  5
140
330
1F
100
AcDbEntity
  8
GR1_01
  6
Continuous
 62
     3
370
    50
100
AcDbLine
 10
197.6184813509996
 20
268.9932950191571
 30
0.0
 11
286.1184813509997
 21
268.9932950191571
 31
0.0
  0
LINE
  5
141
330
1F
100
AcDbEntity
  8
GR1_01
  6
Continuous
 62
     3
370
    50
100
AcDbLine
 10
200.3684813509999
 20
270.5182950191568
 30
0.0
 11
283.3684813509994
 21
270.5182950191568
 31
0.0
  0
ARC
  5
142
330
1F
100
AcDbEntity
  8
GR1_01
  6
Continuous
 62
     3
370
    50
100
AcDbCircle
 10
200.4068700141599
 20
277.5181897548325
 30
0.0
 40
7.0
100
AcDbArc
 50
200.9239099954636
 51
269.6857829420693
  0
ARC
  5
143
330
1F
100
AcDbEntity
  8
GR1_01
  6
Continuous
 62
     3
370
    50
100
AcDbCircle
 10
192.8684813509999
 20
275.0182950191568
 30
0.0
 40
1.0
100
AcDbArc
 50
0.0
 51
90.0
  0
LINE
  5
144
330
1F
100
AcDbEntity
  8
GR1_01
  6
Continuous
 62
     3
370
    50
100
AcDbLine
 10
181.8684813509999
 20
276.0182950191568
 30
0.0
 11
301.8684813509994
 21
276.0182950191568
 31
0.0
  0
LINE
  5
145
330
1F
100
AcDbEntity
  8
GR1_01
  6
Continuous
 62
     3
370
    50
100
AcDbLine
 10
181.8684813509998
 20
280.0182950191568
 30
0.0
 11
301.8684813509994
 21
280.0182950191568
 31
0.0
  0
LINE
  5
146
330
1F
100
AcDbEntity
  8
GR1_01
  6
Continuous
 62
     3
370
    50
100
AcDbLine
 10
181.8684813509998
 20
280.0182950191569
 30
0.0
 11
181.8684813509998
 21
276.0182950191569
 31
0.0
  0
ARC
  5
147
330
1F
100
AcDbEntity
  8
GR1_01
  6
Continuous
 62
     3
370
    50
100
AcDbCircle
 10
248.4174610210826
 20
-58.18727281027486
 30
0.0
 40
300.2519982233577
100
AcDbArc
 50
86.8794709701933
 51
91.24981234463455
  0
LINE
  5
148
330
1F
100
AcDbEntity
  8
GR1_01
  6
Continuous
 62
     3
370
    50
100
AcDbLine
 10
273.3184813509997
 20
231.2447923272611
 30
0.0
 11
276.5832242290196
 21
231.2447923272611
 31
0.0
  0
ARC
  5
149
330
1F
100
AcDbEntity
  8
GR1_01
  6
Continuous
 62
     3
370
    50
100
AcDbCircle
 10
275.5341148414383
 20
232.6881680002351
 30
0.0
 40
1.784366509561449
100
AcDbArc
 50
306.011315179096
 51
53.98868482090659
  0
ARC
  5
14A
330
1F
100
AcDbEntity
  8
GR1_01
  6
Continuous
 62
     3
370
    50
100
AcDbCircle
 10
271.2839009957231
 20
237.0182950191573
 30
0.0
 40
6.0345803552766
100
AcDbArc
 50
331.4211192439801
 51
28.57888075602055
  0
ARC
  5
14B
330
1F
100
AcDbEntity
  8
GR1_01
  6
Continuous
 62
     3
370
    50
100
AcDbCircle
 10
275.5341148414383
 20
241.3484220380794
 30
0.0
 40
1.784366509561449
100
AcDbArc
 50
306.0113151790934
 51
53.98868482090406
  0
LINE
  5
14C
330
1F
100
AcDbEntity
  8
GR1_01
  6
Continuous
 62
     3
370
    50
100
AcDbLine
 10
276.5832242290196
 20
239.9050463651054
 30
0.0
 11
273.3184813509997
 21
239.9050463651054
 31
0.0
  0
ARC
  5
14D
330
1F
100
AcDbEntity
  8
GR1_01
  6
Continuous
 62
     3
370
    50
100
AcDbCircle
 10
263.7462461436211
 20
230.3727951256186
 30
0.0
 40
11.29251546962738
100
AcDbArc
 50
32.04173102517789
 51
84.83852383962456
  0
ARC
  5
14E
330
1F
100
AcDbEntity
  8
GR1_01
  6
Continuous
 62
     3
370
    50
100
AcDbCircle
 10
201.6125694237328
 20
183.3212983335604
 30
0.0
 40
79.32215484709751
100
AcDbArc
 50
343.8865629038269
 51
357.4868324468733
  0
LINE
  5
14F
330
1F
100
AcDbEntity
  8
GR1_01
  6
Continuous
 62
     3
370
    50
100
AcDbLine
 10
302.6202694914035
 20
217.5933621163392
 30
0.0
 11
315.3684813509997
 21
217.5933621163392
 31
0.0
  0
LINE
  5
150
330
1F
100
AcDbEntity
  8
GR1_01
  6
Continuous
 62
     3
370
    50
100
AcDbLine
 10
315.3684813509997
 20
217.5933621163392
 30
0.0
 11
316.3684813509997
 21
219.4433621163392
 31
0.0
  0
LINE
  5
151
330
1F
100
AcDbEntity
  8
GR1_01
  6
Continuous
 62
     3
370
    50
100
AcDbLine
 10
316.3684813509997
 20
219.4433621163392
 30
0.0
 11
345.6184813509997
 21
219.4433621163392
 31
0.0
  0
ARC
  5
152
330
1F
100
AcDbEntity
  8
GR1_01
  6
Continuous
 62
     3
370
    50
100
AcDbCircle
 10
339.378481351
 20
222.5933621163392
 30
0.0
 40
6.9899999999997
100
AcDbArc
 50
333.2150044924962
 51
26.78499550750335
  0
LINE
  5
153
330
1F
100
AcDbEntity
  8
GR1_01
  6
Continuous
 62
     3
370
    50
100
AcDbLine
 10
345.6184813509997
 20
225.7433621163392
 30
0.0
 11
316.3684813509997
 21
225.7433621163392
 31
0.0
  0
LINE
  5
154
330
1F
100
AcDbEntity
  8
GR1_01
  6
Continuous
 62
     3
370
    50
100
AcDbLine
 10
316.3684813509997
 20
225.7433621163393
 30
0.0
 11
315.3684813509997
 21
227.5933621163392
 31
0.0
  0
LINE
  5
155
330
1F
100
AcDbEntity
  8
GR1_01
  6
Continuous
 62
     3
370
    50
100
AcDbLine
 10
315.3684813509997
 20
227.5933621163392
 30
0.0
 11
307.533755806982
 21
227.5933621163392
 31
0.0
  0
LINE
  5
156
330
1F
100
AcDbEntity
  8
GR1_01
  6
Continuous
 62
     3
370
    50
100
AcDbLine
 10
307.533755806982
 20
227.5933621163392
 30
0.0
 11
307.4191711229037
 21
234.1579142706556
 31
0.0
  0
ARC
  5
157
330
1F
100
AcDbEntity
  8
GR1_01
  6
Continuous
 62
     3
370
    50
100
AcDbCircle
 10
299.4203895616526
 20
234.0182950191573
 30
0.0
 40
8.0
100
AcDbArc
 50
1.00000000000017
 51
90.0
  0
LINE
  5
158
330
1F
100
AcDbEntity
  8
GR1_01
  6
Continuous
 62
     3
370
    50
100
AcDbLine
 10
299.4203895616526
 20
242.0182950191573
 30
0.0
 11
280.8672382044404
 21
242.0182950191573
 31
0.0
  0
LINE
  5
159
330
1F
100
AcDbEntity
  8
GR1_01
  6
Continuous
 62
     3
370
    50
100
AcDbLine
 10
273.3184813509997
 20
234.1315436732092
 30
0.0
 11
276.5832242290196
 21
234.1315436732092
 31
0.0
  0
LINE
  5
15A
330
1F
100
AcDbEntity
  8
GR1_01
  6
Continuous
 62
     3
370
    50
100
AcDbLine
 10
280.8658215132047
 20
232.0182950191573
 30
0.0
 11
296.9636464038633
 21
232.0182950191573
 31
0.0
  0
ARC
  5
15B
330
1F
100
AcDbEntity
  8
GR1_01
  6
Continuous
 62
     3
370
    50
100
AcDbCircle
 10
296.9636464038633
 20
231.5182950191572
 30
0.0
 40
0.5
100
AcDbArc
 50
0.9999999999984485
 51
90.0
  0
LINE
  5
15C
330
1F
100
AcDbEntity
  8
GR1_01
  6
Continuous
 62
     3
370
    50
100
AcDbLine
 10
297.4635702514416
 20
231.5270212223759
 30
0.0
 11
297.6210310156216
 21
222.5061000841528
 31
0.0
  0
ARC
  5
15D
330
1F
100
AcDbEntity
  8
GR1_01
  6
Continuous
 62
     3
370
    50
100
AcDbCircle
 10
302.6202694914036
 20
222.5933621163392
 30
0.0
 40
5.0
100
AcDbArc
 50
181.0000000000001
 51
270.0
  0
LINE
  5
15E
330
1F
100
AcDbEntity
  8
GR1_01
  6
Continuous
 62
     3
370
    50
100
AcDbLine
 10
442.9559182324571
 20
219.4433621163392
 30
0.0
 11
455.7559182324571
 21
219.4433621163394
 31
0.0
  0
ARC
  5
15F
330
1F
100
AcDbEntity
  8
GR1_01
  6
Continuous
 62
     3
370
    50
100
AcDbCircle
 10
449.5159182324571
 20
222.5933621163393
 30
0.0
 40
6.990000000000068
100
AcDbArc
 50
333.2150044924975
 51
26.78499550750156
  0
LINE
  5
160
330
1F
100
AcDbEntity
  8
GR1_01
  6
Continuous
 62
     3
370
    50
100
AcDbLine
 10
455.7559182324571
 20
225.7433621163393
 30
0.0
 11
442.9559182324571
 21
225.7433621163393
 31
0.0
  0
ARC
  5
161
330
1F
100
AcDbEntity
  8
GR1_01
  6
Continuous
 62
     3
370
    50
100
AcDbCircle
 10
449.1959182324574
 20
222.5933621163392
 30
0.0
 40
6.990000000000232
100
AcDbArc
 50
153.2150044924988
 51
206.7849955075013
  0
ARC
  5
162
330
1F
100
AcDbEntity
  8
GR1_01
  6
Continuous
 62
     3
370
    50
100
AcDbCircle
 10
449.3559182324572
 20
222.5933621163392
 30
0.0
 40
5.0
100
AcDbArc
 50
219.050122536153
 51
320.9498774638468
  0
LINE
  5
163
330
1F
100
AcDbEntity
  8
GR1_01
  6
Continuous
 62
     3
370
    50
100
AcDbLine
 10
450.1811562617605
 20
217.661934108653
 30
0.0
 11
536.3811562617606
 21
232.0868670114712
 31
0.0
  0
ARC
  5
164
330
1F
100
AcDbEntity
  8
GR1_01
  6
Continuous
 62
     3
370
    50
100
AcDbCircle
 10
535.5559182324572
 20
237.0182950191573
 30
0.0
 40
5.0
100
AcDbArc
 50
279.4999999999997
 51
99.50000000000043
  0
LINE
  5
165
330
1F
100
AcDbEntity
  8
GR1_01
  6
Continuous
 62
     3
370
    50
100
AcDbLine
 10
534.7306802031538
 20
241.9497230268435
 30
0.0
 11
448.5306802031538
 21
227.5247901240254
 31
0.0
  0
ARC
  5
166
330
1F
100
AcDbEntity
  8
GR1_01
  6
Continuous
 62
     3
370
    50
100
AcDbCircle
 10
449.3559182324572
 20
222.5933621163392
 30
0.0
 40
5.0
100
AcDbArc
 50
39.05012253615394
 51
140.9498774638461
  0
ARC
  5
167
330
1F
100
AcDbEntity
  8
GR1_01
  6
Continuous
 62
     3
370
    50
100
AcDbCircle
 10
536.7059182324572
 20
229.4552268586816
 30
0.0
 40
0.5
100
AcDbArc
 50
278.6458654137552
 51
0.0
  0
LINE
  5
168
330
1F
100
AcDbEntity
  8
GR1_01
  6
Continuous
 62
     3
370
    50
100
AcDbLine
 10
537.2059182324572
 20
229.4552268586816
 30
0.0
 11
537.2059182324572
 21
231.9816790917711
 31
0.0
  0
ARC
  5
169
330
1F
100
AcDbEntity
  8
GR1_01
  6
Continuous
 62
     3
370
    50
100
AcDbCircle
 10
535.5559182324572
 20
237.0182950191572
 30
0.0
 40
5.3
100
AcDbArc
 50
288.1388433355622
 51
323.2975502687298
  0
LINE
  5
16A
330
1F
100
AcDbEntity
  8
GR1_01
  6
Continuous
 62
     3
370
    50
100
AcDbLine
 10
538.3466362131403
 20
232.8695731494374
 30
0.0
 11
542.6559182324571
 21
235.7682950191573
 31
0.0
  0
LINE
  5
16B
330
1F
100
AcDbEntity
  8
GR1_01
  6
Continuous
 62
     3
370
    50
100
AcDbLine
 10
542.6559182324571
 20
235.7682950191573
 30
0.0
 11
542.6559182324571
 21
238.2682950191573
 31
0.0
  0
LINE
  5
16C
330
1F
100
AcDbEntity
  8
GR1_01
  6
Continuous
 62
     3
370
    50
100
AcDbLine
 10
542.6559182324571
 20
238.2682950191573
 30
0.0
 11
538.3466362131403
 21
241.1670168888771
 31
0.0
  0
LINE
  5
16D
330
1F
100
AcDbEntity
  8
GR1_01
  6
Continuous
 62
     3
370
    50
100
AcDbLine
 10
533.9059182324572
 20
242.0549109465434
 30
0.0
 11
533.9059182324572
 21
244.5813631796328
 31
0.0
  0
ARC
  5
16E
330
1F
100
AcDbEntity
  8
GR1_01
  6
Continuous
 62
     3
370
    50
100
AcDbCircle
 10
534.4059182324572
 20
244.5813631796328
 30
0.0
 40
0.5
100
AcDbArc
 50
98.64586541375526
 51
180.0
  0
ARC
  5
16F
330
1F
100
AcDbEntity
  8
GR1_01
  6
Continuous
 62
     3
370
    50
100
AcDbCircle
 10
535.5559182324572
 20
237.0182950191572
 30
0.0
 40
5.3
100
AcDbArc
 50
108.1388433355611
 51
118.8700382455383
  0
ARC
  5
170
330
1F
100
AcDbEntity
  8
GR1_01
  6
Continuous
 62
     3
370
    50
100
AcDbCircle
 10
535.5559182324572
 20
237.0182950191572
 30
0.0
 40
8.15
100
AcDbArc
 50
227.3427857358878
 51
278.645865413752
  0
LINE
  5
171
330
1F
100
AcDbEntity
  8
GR1_01
  6
Continuous
 62
     3
370
    50
100
AcDbLine
 10
542.0612724246847
 20
235.3682950191572
 30
0.0
 11
543.1189863929328
 21
235.3682950191572
 31
0.0
  0
ARC
  5
172
330
1F
100
AcDbEntity
  8
GR1_01
  6
Continuous
 62
     3
370
    50
100
AcDbCircle
 10
543.1189863929328
 20
235.8682950191572
 30
0.0
 40
0.5
100
AcDbArc
 50
270.0
 51
351.3541345862479
  0
ARC
  5
173
330
1F
100
AcDbEntity
  8
GR1_01
  6
Continuous
 62
     3
370
    50
100
AcDbCircle
 10
535.5559182324572
 20
237.0182950191572
 30
0.0
 40
8.15
100
AcDbArc
 50
351.3541345862473
 51
98.64586541375245
  0
LINE
  5
174
330
1F
100
AcDbEntity
  8
GR1_01
  6
Continuous
 62
     3
370
    50
100
AcDbLine
 10
553.4145827028648
 20
225.793295019157
 30
0.0
 11
510.8942953063547
 21
145.8242651984087
 31
0.0
  0
CIRCLE
  5
175
330
1F
100
AcDbEntity
  8
GR1_01
  6
Continuous
 62
     3
370
    50
100
AcDbCircle
 10
489.5559182324571
 20
157.0182950191572
 30
0.0
 40
13.0
  0
ARC
  5
176
330
1F
100
AcDbEntity
  8
GR1_01
  6
Continuous
 62
     3
370
    50
100
AcDbCircle
 10
489.0559182324571
 20
157.9932950191569
 30
0.0
 40
25.0
100
AcDbArc
 50
167.0897652975888
 51
330.8720744562946
  0
LINE
  5
177
330
1F
100
AcDbEntity
  8
GR1_01
  6
Continuous
 62
     3
370
    50
100
AcDbLine
 10
464.6878857415074
 20
163.5789008520119
 30
0.0
 11
479.3910297616582
 21
222.549990551064
 31
0.0
  0
ARC
  5
178
330
1F
100
AcDbEntity
  8
GR1_01
  6
Continuous
 62
     3
370
    50
100
AcDbCircle
 10
477.9200938342374
 20
237.2812327874378
 30
0.0
 40
5.0
100
AcDbArc
 50
342.5718580999601
 51
70.90321472895612
  0
LINE
  5
179
330
1F
100
AcDbEntity
  8
GR1_01
  6
Continuous
 62
     3
370
    50
100
AcDbLine
 10
479.555918232457
 20
241.993295019157
 30
0.0
 11
479.555918232457
 21
245.3364407696646
 31
0.0
  0
LINE
  5
17A
330
1F
100
AcDbEntity
  8
GR1_01
  6
Continuous
 62
     3
370
    50
100
AcDbLine
 10
480.7274911077109
 20
248.1648678944108
 30
0.0
 11
483.0914521383898
 21
250.5288289250897
 31
0.0
  0
ARC
  5
17B
330
1F
100
AcDbEntity
  8
GR1_01
  6
Continuous
 62
     3
370
    50
100
AcDbCircle
 10
483.5559182324571
 20
245.3364407696646
 30
0.0
 40
4.0
100
AcDbArc
 50
135.0
 51
180.0
  0
LINE
  5
17C
330
1F
100
AcDbEntity
  8
GR1_01
  6
Continuous
 62
     3
370
    50
100
AcDbLine
 10
486.6269860443225
 20
251.993295019157
 30
0.0
 11
495.055918232457
 21
251.993295019157
 31
0.0
  0
LINE
  5
17D
330
1F
100
AcDbEntity
  8
GR1_01
  6
Continuous
 62
     3
370
    50
100
AcDbLine
 10
495.0559182324571
 20
251.993295019157
 30
0.0
 11
499.8931115126603
 21
256.6692485233534
 31
0.0
  0
ARC
  5
17E
330
1F
100
AcDbEntity
  8
GR1_01
  6
Continuous
 62
     3
370
    50
100
AcDbCircle
 10
502.6731999000501
 20
253.793295019157
 30
0.0
 40
4.0
100
AcDbArc
 50
90.0
 51
134.0289780689208
  0
LINE
  5
17F
330
1F
100
AcDbEntity
  8
GR1_01
  6
Continuous
 62
     3
370
    50
100
AcDbLine
 10
495.8068272439957
 20
257.793295019157
 30
0.0
 11
573.3050092209184
 21
257.793295019157
 31
0.0
  0
ARC
  5
180
330
1F
100
AcDbEntity
  8
GR1_01
  6
Continuous
 62
     3
370
    50
100
AcDbCircle
 10
573.3050092209182
 20
262.9932950191569
 30
0.0
 40
5.2
100
AcDbArc
 50
270.0
 51
357.188626405473
  0
LINE
  5
181
330
1F
100
AcDbEntity
  8
GR1_01
  6
Continuous
 62
     3
370
    50
100
AcDbLine
 10
578.4987506083363
 20
262.738245218882
 30
0.0
 11
578.805918232457
 21
268.993295019157
 31
0.0
  0
LINE
  5
182
330
1F
100
AcDbEntity
  8
GR1_01
  6
Continuous
 62
     3
370
    50
100
AcDbLine
 10
578.805918232457
 20
268.993295019157
 30
0.0
 11
490.305918232457
 21
268.993295019157
 31
0.0
  0
LINE
  5
183
330
1F
100
AcDbEntity
  8
GR1_01
  6
Continuous
 62
     3
370
    50
100
AcDbLine
 10
490.305918232457
 20
268.993295019157
 30
0.0
 11
490.6130858565777
 21
262.738245218882
 31
0.0
  0
ARC
  5
184
330
1F
100
AcDbEntity
  8
GR1_01
  6
Continuous
 62
     3
370
    50
100
AcDbCircle
 10
495.8068272439958
 20
262.9932950191569
 30
0.0
 40
5.2
100
AcDbArc
 50
182.8113735945269
 51
270.0
  0
ARC
  5
185
330
1F
100
AcDbEntity
  8
GR1_01
  6
Continuous
 62
     3
370
    50
100
AcDbCircle
 10
486.6269860443225
 20
246.993295019157
 30
0.0
 40
5.0
100
AcDbArc
 50
90.0
 51
135.0
  0
LINE
  5
186
330
1F
100
AcDbEntity
  8
GR1_01
  6
Continuous
 62
     3
370
    50
100
AcDbLine
 10
495.5559182324571
 20
239.9050463651055
 30
0.0
 11
500.5559182324571
 21
242.7917977110536
 31
0.0
  0
LINE
  5
187
330
1F
100
AcDbEntity
  8
GR1_01
  6
Continuous
 62
     3
370
    50
100
AcDbLine
 10
500.5559182324571
 20
242.7917977110536
 30
0.0
 11
505.5559182324571
 21
239.9050463651054
 31
0.0
  0
LINE
  5
188
330
1F
100
AcDbEntity
  8
GR1_01
  6
Continuous
 62
     3
370
    50
100
AcDbLine
 10
505.5559182324571
 20
239.9050463651054
 30
0.0
 11
505.5559182324571
 21
237.0675422393378
 31
0.0
  0
LINE
  5
189
330
1F
100
AcDbEntity
  8
GR1_01
  6
Continuous
 62
     3
370
    50
100
AcDbLine
 10
495.5559182324571
 20
235.3941161485237
 30
0.0
 11
495.5559182324571
 21
239.9050463651055
 31
0.0
  0
LINE
  5
18A
330
1F
100
AcDbEntity
  8
GR1_01
  6
Continuous
 62
     3
370
    50
100
AcDbLine
 10
570.855918232457
 20
247.593295019157
 30
0.0
 11
574.0559182324571
 21
247.593295019157
 31
0.0
  0
LINE
  5
18B
330
1F
100
AcDbEntity
  8
GR1_01
  6
Continuous
 62
     3
370
    50
100
AcDbLine
 10
574.0559182324571
 20
247.593295019157
 30
0.0
 11
574.0559182324571
 21
250.793295019157
 31
0.0
  0
ARC
  5
18C
330
1F
100
AcDbEntity
  8
GR1_01
  6
Continuous
 62
     3
370
    50
100
AcDbCircle
 10
567.055918232457
 20
250.793295019157
 30
0.0
 40
7.0
100
AcDbArc
 50
0.0
 51
90.0
  0
ARC
  5
18D
330
1F
100
AcDbEntity
  8
GR1_01
  6
Continuous
 62
     3
370
    50
100
AcDbCircle
 10
626.1611052574664
 20
185.4686887825536
 30
0.0
 40
83.17529928965865
100
AcDbArc
 50
131.676434570614
 51
150.9996684377456
  0
ARC
  5
18E
330
1F
100
AcDbEntity
  8
GR1_01
  6
Continuous
 62
     3
370
    50
100
AcDbCircle
 10
576.0175295692968
 20
277.5181897548325
 30
0.0
 40
7.0
100
AcDbArc
 50
270.3142170579309
 51
339.0760900045366
  0
ARC
  5
18F
330
1F
100
AcDbEntity
  8
GR1_01
  6
Continuous
 62
     3
370
    50
100
AcDbCircle
 10
583.555918232457
 20
275.0182950191568
 30
0.0
 40
1.0
100
AcDbArc
 50
90.0
 51
180.0
  0
LINE
  5
190
330
1F
100
AcDbEntity
  8
GR1_01
  6
Continuous
 62
     3
370
    50
100
AcDbLine
 10
576.055918232457
 20
270.5182950191568
 30
0.0
 11
493.0559182324571
 21
270.5182950191568
 31
0.0
  0
ARC
  5
191
330
1F
100
AcDbEntity
  8
GR1_01
  6
Continuous
 62
     3
370
    50
100
AcDbCircle
 10
493.0943068956173
 20
277.5181897548325
 30
0.0
 40
7.0
100
AcDbArc
 50
200.9239099954634
 51
269.6857829420691
  0
ARC
  5
192
330
1F
100
AcDbEntity
  8
GR1_01
  6
Continuous
 62
     3
370
    50
100
AcDbCircle
 10
485.555918232457
 20
275.0182950191568
 30
0.0
 40
1.0
100
AcDbArc
 50
0.0
 51
89.99999999999999
  0
LINE
  5
193
330
1F
100
AcDbEntity
  8
GR1_01
  6
Continuous
 62
     3
370
    50
100
AcDbLine
 10
474.5559182324571
 20
276.0182950191569
 30
0.0
 11
594.555918232457
 21
276.0182950191569
 31
0.0
  0
LINE
  5
194
330
1F
100
AcDbEntity
  8
GR1_01
  6
Continuous
 62
     3
370
    50
100
AcDbLine
 10
594.555918232457
 20
276.0182950191569
 30
0.0
 11
594.555918232457
 21
280.0182950191569
 31
0.0
  0
LINE
  5
195
330
1F
100
AcDbEntity
  8
GR1_01
  6
Continuous
 62
     3
370
    50
100
AcDbLine
 10
594.555918232457
 20
280.0182950191569
 30
0.0
 11
474.5559182324571
 21
280.0182950191569
 31
0.0
  0
LINE
  5
196
330
1F
100
AcDbEntity
  8
GR1_01
  6
Continuous
 62
     3
370
    50
100
AcDbLine
 10
474.5559182324571
 20
280.0182950191569
 30
0.0
 11
474.5559182324571
 21
276.0182950191569
 31
0.0
  0
LINE
  5
197
330
1F
100
AcDbEntity
  8
GR1_01
  6
Continuous
 62
     3
370
    50
100
AcDbLine
 10
456.5059182324571
 20
349.5321839080458
 30
0.0
 11
456.5059182324571
 21
367.1872262810721
 31
0.0
  0
ARC
  5
198
330
1F
100
AcDbEntity
  8
GR1_01
  6
Continuous
 62
     3
370
    50
100
AcDbCircle
 10
446.5059182324571
 20
367.1872262810721
 30
0.0
 40
10.0
100
AcDbArc
 50
0.0
 51
30.04585112215691
  0
ARC
  5
199
330
1F
100
AcDbEntity
  8
GR1_01
  6
Continuous
 62
     3
370
    50
100
AcDbCircle
 10
458.3378409789719
 20
374.6704768242794
 30
0.0
 40
4.027259955977974
100
AcDbArc
 50
188.6053484394429
 51
218.3829729239019
  0
LINE
  5
19A
330
1F
100
AcDbEntity
  8
GR1_01
  6
Continuous
 62
     6
370
    25
100
AcDbLine
 10
454.3559965710613
 20
375.0515235572682
 30
0.0
 11
454.3559182324574
 21
375.0821839080457
 31
0.0
  0
ARC
  5
19B
330
1F
100
AcDbEntity
  8
GR1_01
  6
Continuous
 62
     3
370
    50
100
AcDbCircle
 10
460.3559182324572
 20
374.067887416961
 30
0.0
 40
6.0
100
AcDbArc
 50
90.99999999999987
 51
180.0
  0
LINE
  5
19C
330
1F
100
AcDbEntity
  8
GR1_01
  6
Continuous
 62
     3
370
    50
100
AcDbLine
 10
460.2512037938335
 20
380.0669735878994
 30
0.0
 11
520.9049663612028
 21
381.1256889516533
 31
0.0
  0
ARC
  5
19D
330
1F
100
AcDbEntity
  8
GR1_01
  6
Continuous
 62
     3
370
    50
100
AcDbCircle
 10
520.5559182324572
 20
401.1226428547811
 30
0.0
 40
20.0
100
AcDbArc
 50
270.9999999999998
 51
314.6002528500182
  0
LINE
  5
19E
330
1F
100
AcDbEntity
  8
GR1_01
  6
Continuous
 62
     3
370
    50
100
AcDbLine
 10
574.166830935931
 20
399.4930966115198
 30
0.0
 11
577.1668309359309
 21
396.4930966115198
 31
0.0
  0
ARC
  5
19F
330
1F
100
AcDbEntity
  8
GR1_01
  6
Continuous
 62
     3
370
    50
100
AcDbCircle
 10
581.055918232457
 20
400.3821839080458
 30
0.0
 40
5.5
100
AcDbArc
 50
224.9999999999994
 51
44.99999999999949
  0
LINE
  5
1A0
330
1F
100
AcDbEntity
  8
GR1_01
  6
Continuous
 62
     3
370
    50
100
AcDbLine
 10
584.945005528983
 20
404.2712712045718
 30
0.0
 11
581.9450055289831
 21
407.2712712045718
 31
0.0
  0
ARC
  5
1A1
330
1F
100
AcDbEntity
  8
GR1_01
  6
Continuous
 62
     3
370
    50
100
AcDbCircle
 10
578.055918232457
 20
403.3821839080458
 30
0.0
 40
5.5
100
AcDbArc
 50
44.99999999999949
 51
224.9999999999994
  0
ARC
  5
1A2
330
1F
100
AcDbEntity
  8
GR1_01
  6
Continuous
 62
     3
370
    50
100
AcDbCircle
 10
580.0559182324571
 20
401.3821839080458
 30
0.0
 40
14.5
100
AcDbArc
 50
270.0
 51
0.0
  0
LINE
  5
1A3
330
1F
100
AcDbEntity
  8
GR1_01
  6
Continuous
 62
     3
370
    50
100
AcDbLine
 10
594.555918232457
 20
401.3821839080458
 30
0.0
 11
594.555918232457
 21
492.3821839080458
 31
0.0
  0
ARC
  5
1A4
330
1F
100
AcDbEntity
  8
GR1_01
  6
Continuous
 62
     3
370
    50
100
AcDbCircle
 10
580.0559182324571
 20
492.3821839080458
 30
0.0
 40
14.5
100
AcDbArc
 50
0.0
 51
90.0
  0
LINE
  5
1A5
330
1F
100
AcDbEntity
  8
GR1_01
  6
Continuous
 62
     3
370
    50
100
AcDbLine
 10
580.0559182324571
 20
506.8821839080458
 30
0.0
 11
489.055918232457
 21
506.8821839080458
 31
0.0
  0
ARC
  5
1A6
330
1F
100
AcDbEntity
  8
GR1_01
  6
Continuous
 62
     3
370
    50
100
AcDbCircle
 10
489.055918232457
 20
492.3821839080458
 30
0.0
 40
14.5
100
AcDbArc
 50
90.0
 51
180.0
  0
LINE
  5
1A7
330
1F
100
AcDbEntity
  8
GR1_01
  6
Continuous
 62
     3
370
    50
100
AcDbLine
 10
474.555918232457
 20
492.3821839080458
 30
0.0
 11
474.555918232457
 21
401.3821839080458
 31
0.0
  0
ARC
  5
1A8
330
1F
100
AcDbEntity
  8
GR1_01
  6
Continuous
 62
     3
370
    50
100
AcDbCircle
 10
489.055918232457
 20
401.3821839080458
 30
0.0
 40
14.5
100
AcDbArc
 50
180.0
 51
270.0
  0
LINE
  5
1A9
330
1F
100
AcDbEntity
  8
GR1_01
  6
Continuous
 62
     3
370
    50
100
AcDbLine
 10
489.055918232457
 20
386.8821839080458
 30
0.0
 11
580.0559182324571
 21
386.8821839080458
 31
0.0
  0
CIRCLE
  5
1AA
330
1F
100
AcDbEntity
  8
GR1_01
  6
Continuous
 62
     3
370
    50
100
AcDbCircle
 10
534.555918232457
 20
446.8821839080458
 30
0.0
 40
19.19999999999993
  0
CIRCLE
  5
1AB
330
1F
100
AcDbEntity
  8
GR1_01
  6
Continuous
 62
     3
370
    50
100
AcDbCircle
 10
534.555918232457
 20
446.8821839080458
 30
0.0
 40
12.75
  0
LINE
  5
1AC
330
1F
100
AcDbEntity
  8
GR1_01
  6
Continuous
 62
     3
370
    50
100
AcDbLine
 10
581.9450055289831
 20
486.4930966115198
 30
0.0
 11
584.945005528983
 21
489.4930966115198
 31
0.0
  0
ARC
  5
1AD
330
1F
100
AcDbEntity
  8
GR1_01
  6
Continuous
 62
     3
370
    50
100
AcDbCircle
 10
581.055918232457
 20
493.3821839080458
 30
0.0
 40
5.5
100
AcDbArc
 50
315.0
 51
135.0000000000014
  0
LINE
  5
1AE
330
1F
100
AcDbEntity
  8
GR1_01
  6
Continuous
 62
     3
370
    50
100
AcDbLine
 10
577.1668309359309
 20
497.2712712045717
 30
0.0
 11
574.166830935931
 21
494.2712712045717
 31
0.0
  0
ARC
  5
1AF
330
1F
100
AcDbEntity
  8
GR1_01
  6
Continuous
 62
     3
370
    50
100
AcDbCircle
 10
578.055918232457
 20
490.3821839080458
 30
0.0
 40
5.5
100
AcDbArc
 50
135.0000000000004
 51
315.0000000000004
  0
ARC
  5
1B0
330
1F
100
AcDbEntity
  8
GR1_01
  6
Continuous
 62
     3
370
    50
100
AcDbCircle
 10
488.0559182324571
 20
493.3821839080458
 30
0.0
 40
5.5
100
AcDbArc
 50
44.99999999999874
 51
224.9999999999998
  0
LINE
  5
1B1
330
1F
100
AcDbEntity
  8
GR1_01
  6
Continuous
 62
     3
370
    50
100
AcDbLine
 10
484.166830935931
 20
489.4930966115198
 30
0.0
 11
487.166830935931
 21
486.4930966115198
 31
0.0
  0
ARC
  5
1B2
330
1F
100
AcDbEntity
  8
GR1_01
  6
Continuous
 62
     3
370
    50
100
AcDbCircle
 10
491.055918232457
 20
490.3821839080458
 30
0.0
 40
5.5
100
AcDbArc
 50
224.9999999999996
 51
44.99999999999959
  0
LINE
  5
1B3
330
1F
100
AcDbEntity
  8
GR1_01
  6
Continuous
 62
     3
370
    50
100
AcDbLine
 10
494.9450055289831
 20
494.2712712045717
 30
0.0
 11
491.9450055289832
 21
497.2712712045717
 31
0.0
  0
LINE
  5
1B4
330
1F
100
AcDbEntity
  8
GR1_01
  6
Continuous
 62
     3
370
    50
100
AcDbLine
 10
474.555918232457
 20
478.3321839080457
 30
0.0
 11
464.0749379674635
 21
478.3321839080457
 31
0.0
  0
LINE
  5
1B5
330
1F
100
AcDbEntity
  8
GR1_01
  6
Continuous
 62
     3
370
    50
100
AcDbLine
 10
464.0749379674635
 20
478.3321839080457
 30
0.0
 11
464.0749379674635
 21
475.1321839080458
 31
0.0
  0
LINE
  5
1B6
330
1F
100
AcDbEntity
  8
GR1_01
  6
Continuous
 62
     3
370
    50
100
AcDbLine
 10
464.0749379674635
 20
475.1321839080458
 30
0.0
 11
474.555918232457
 21
475.1321839080458
 31
0.0
  0
LINE
  5
1B7
330
1F
100
AcDbEntity
  8
GR1_01
  6
Continuous
 62
     3
370
    50
100
AcDbLine
 10
464.0749379674635
 20
418.6321839080458
 30
0.0
 11
464.0749379674635
 21
415.4321839080458
 31
0.0
  0
LINE
  5
1B8
330
1F
100
AcDbEntity
  8
GR1_01
  6
Continuous
 62
     3
370
    50
100
AcDbLine
 10
464.0749379674635
 20
415.4321839080458
 30
0.0
 11
474.555918232457
 21
415.4321839080458
 31
0.0
  0
LINE
  5
1B9
330
1F
100
AcDbEntity
  8
GR1_01
  6
Continuous
 62
     3
370
    50
100
AcDbLine
 10
474.555918232457
 20
418.6321839080458
 30
0.0
 11
464.0749379674635
 21
418.6321839080458
 31
0.0
  0
LINE
  5
1BA
330
1F
100
AcDbEntity
  8
GR1_01
  6
Continuous
 62
     3
370
    50
100
AcDbLine
 10
484.166830935931
 20
404.2712712045718
 30
0.0
 11
487.166830935931
 21
407.2712712045718
 31
0.0
  0
ARC
  5
1BB
330
1F
100
AcDbEntity
  8
GR1_01
  6
Continuous
 62
     3
370
    50
100
AcDbCircle
 10
488.0559182324571
 20
400.3821839080458
 30
0.0
 40
5.5
100
AcDbArc
 50
135.0000000000005
 51
315.0000000000009
  0
LINE
  5
1BC
330
1F
100
AcDbEntity
  8
GR1_01
  6
Continuous
 62
     3
370
    50
100
AcDbLine
 10
491.9450055289832
 20
396.4930966115198
 30
0.0
 11
494.9450055289831
 21
399.4930966115198
 31
0.0
  0
ARC
  5
1BD
330
1F
100
AcDbEntity
  8
GR1_01
  6
Continuous
 62
     3
370
    50
100
AcDbCircle
 10
491.055918232457
 20
403.3821839080458
 30
0.0
 40
5.5
100
AcDbArc
 50
315.0000000000005
 51
135.0000000000006
  0
LINE
  5
1BE
330
1F
100
AcDbEntity
  8
GR1_01
  6
Continuous
 62
     3
370
    50
100
AcDbLine
 10
479.5811494952682
 20
390.4059023256159
 30
0.0
 11
460.0475921210989
 21
390.0649428133708
 31
0.0
  0
ARC
  5
1BF
330
1F
100
AcDbEntity
  8
GR1_01
  6
Continuous
 62
     3
370
    50
100
AcDbCircle
 10
460.3268306240954
 20
374.0673796908686
 30
0.0
 40
16.0
100
AcDbArc
 50
90.99999999999976
 51
177.0533526774944
  0
LINE
  5
1C0
330
1F
100
AcDbEntity
  8
GR1_01
  6
Continuous
 62
     3
370
    50
100
AcDbLine
 10
444.3558398938535
 20
375.0515235572682
 30
0.0
 11
444.3559182324574
 21
375.0821839080457
 31
0.0
  0
ARC
  5
1C1
330
1F
100
AcDbEntity
  8
GR1_01
  6
Continuous
 62
     3
370
    50
100
AcDbCircle
 10
438.3559182324572
 20
375.1983123497646
 30
0.0
 40
6.0
100
AcDbArc
 50
329.9541488778428
 51
357.0533526774943
  0
ARC
  5
1C2
330
1F
100
AcDbEntity
  8
GR1_01
  6
Continuous
 62
     3
370
    50
100
AcDbCircle
 10
452.2059182324571
 20
367.1872262810721
 30
0.0
 40
10.0
100
AcDbArc
 50
149.9541488778429
 51
180.0
  0
LINE
  5
1C3
330
1F
100
AcDbEntity
  8
GR1_01
  6
Continuous
 62
     3
370
    50
100
AcDbLine
 10
442.2059182324571
 20
367.1872262810721
 30
0.0
 11
442.2059182324571
 21
349.5321839080458
 31
0.0
  0
ARC
  5
1C4
330
1F
100
AcDbEntity
  8
GR1_01
  6
Continuous
 62
     3
370
    50
100
AcDbCircle
 10
449.3559182324572
 20
349.5321839080458
 30
0.0
 40
7.15
100
AcDbArc
 50
180.0
 51
0.0
  0
TEXT
  5
1C5
330
1F
100
AcDbEntity
  8
GR1_01
  6
Continuous
 62
     7
370
    25
100
AcDbText
 10
485.6234130859375
 20
221.212890625
 30
0.0
 40
9.70110034942627
  1
Ｊ－１５０
 50
256.0
 41
0.7956980075203179
  7
FX_VECTOR
 72
     5
 11
477.8869153596258
 21
190.1834930519656
 31
0.0
100
AcDbText
  0
ARC
  5
1C6
330
1F
100
AcDbEntity
  8
GR1_01
  6
Continuous
 62
     7
370
    25
100
AcDbCircle
 10
534.555918232457
 20
446.8821839080458
 30
0.0
 40
136.5178806146179
100
AcDbArc
 50
210.6545797468602
 51
231.3842744109589
  0
LINE
  5
1C7
330
1F
100
AcDbEntity
  8
GR1_01
  6
Continuous
 62
     6
370
    25
100
AcDbLine
 10
276.3184813509997
 20
144.0164862108705
 30
0.0
 11
276.3184813509997
 21
170.0164862108705
 31
0.0
  0
LINE
  5
1C8
330
1F
100
AcDbEntity
  8
GR1_01
  6
DASHDOT
 62
     6
370
    25
100
AcDbLine
 10
283.2507631592659
 20
157.0182950191572
 30
0.0
 11
193.1111394184878
 21
157.0182950191572
 31
0.0
  0
LINE
  5
1C9
330
1F
100
AcDbEntity
  8
GR1_01
  6
Continuous
 62
     6
370
    25
100
AcDbLine
 10
197.3082901592863
 20
163.2062950191572
 30
0.0
 11
198.9184813509995
 21
163.2062950191572
 31
0.0
  0
LINE
  5
1CA
330
1F
100
AcDbEntity
  8
GR1_01
  6
Continuous
 62
     6
370
    25
100
AcDbLine
 10
198.1184813509996
 20
164.0164862108705
 30
0.0
 11
198.1184813509996
 21
150.0164862108705
 31
0.0
  0
LINE
  5
1CB
330
1F
100
AcDbEntity
  8
GR1_01
  6
Continuous
 62
     6
370
    25
100
AcDbLine
 10
198.9184813509995
 20
150.8302950191571
 30
0.0
 11
197.3082901592863
 21
150.8302950191571
 31
0.0
  0
LINE
  5
1CC
330
1F
100
AcDbEntity
  8
GR1_01
  6
DASHDOT
 62
     6
370
    25
100
AcDbLine
 10
241.8684813509997
 20
78.0125514099974
 30
0.0
 11
241.8684813509997
 21
285.5105625095
 31
0.0
  0
LINE
  5
1CD
330
1F
100
AcDbEntity
  8
GR1_01
  6
Continuous
 62
     6
370
    25
100
AcDbLine
 10
280.8670965353167
 20
241.0182950191573
 30
0.0
 11
284.1184813509997
 21
241.0182950191573
 31
0.0
  0
LINE
  5
1CE
330
1F
100
AcDbEntity
  8
GR1_01
  6
Continuous
 62
     6
370
    25
100
AcDbLine
 10
284.1184813509997
 20
241.0182950191573
 30
0.0
 11
283.3684813509997
 21
238.2182950191573
 31
0.0
  0
LINE
  5
1CF
330
1F
100
AcDbEntity
  8
GR1_01
  6
Continuous
 62
     6
370
    25
100
AcDbLine
 10
283.3684813509997
 20
238.2182950191573
 30
0.0
 11
280.8666998617708
 21
238.2182950191573
 31
0.0
  0
LINE
  5
1D0
330
1F
100
AcDbEntity
  8
GR1_01
  6
Continuous
 62
     6
370
    25
100
AcDbLine
 10
280.8663598558742
 20
235.8182950191573
 30
0.0
 11
283.3684813509997
 21
235.8182950191573
 31
0.0
  0
LINE
  5
1D1
330
1F
100
AcDbEntity
  8
GR1_01
  6
Continuous
 62
     6
370
    25
100
AcDbLine
 10
283.3684813509997
 20
235.8182950191573
 30
0.0
 11
284.1184813509997
 21
233.0182950191573
 31
0.0
  0
LINE
  5
1D2
330
1F
100
AcDbEntity
  8
GR1_01
  6
Continuous
 62
     6
370
    25
100
AcDbLine
 10
284.1184813509997
 20
233.0182950191573
 30
0.0
 11
280.8659631823282
 21
233.0182950191573
 31
0.0
  0
LINE
  5
1D3
330
1F
100
AcDbEntity
  8
GR1_01
  6
DASHDOT
 62
     6
370
    25
100
AcDbLine
 10
299.4203895616526
 20
237.0182950191573
 30
0.0
 11
187.8598319278537
 21
237.0182950191573
 31
0.0
  0
LINE
  5
1D4
330
1F
100
AcDbEntity
  8
GR1_01
  6
Continuous
 62
     6
370
    25
100
AcDbLine
 10
196.3684813509997
 20
234.6792081257719
 30
0.0
 11
197.7704328431768
 21
234.6792081257719
 31
0.0
  0
LINE
  5
1D5
330
1F
100
AcDbEntity
  8
GR1_01
  6
Continuous
 62
     6
370
    25
100
AcDbLine
 10
196.8684813509997
 20
234.137708125772
 30
0.0
 11
196.8684813509997
 21
240.137708125772
 31
0.0
  0
LINE
  5
1D6
330
1F
100
AcDbEntity
  8
GR1_01
  6
Continuous
 62
     6
370
    25
100
AcDbLine
 10
196.3684813509997
 20
239.5962081257719
 30
0.0
 11
197.7704328431768
 21
239.5962081257719
 31
0.0
  0
LINE
  5
1D7
330
1F
100
AcDbEntity
  8
GR1_01
  6
Continuous
 62
     3
370
    50
100
AcDbLine
 10
199.2704328431767
 20
242.0182950191573
 30
0.0
 11
199.2704328431767
 21
232.0182950191573
 31
0.0
  0
LINE
  5
1D8
330
1F
100
AcDbEntity
  8
GR1_01
  6
Continuous
 62
     6
370
    25
100
AcDbLine
 10
203.3184813509997
 20
234.5597950191573
 30
0.0
 11
205.3184813509996
 21
234.5597950191573
 31
0.0
  0
LINE
  5
1D9
330
1F
100
AcDbEntity
  8
GR1_01
  6
Continuous
 62
     6
370
    25
100
AcDbLine
 10
203.8184813509997
 20
234.0182950191573
 30
0.0
 11
203.8184813509997
 21
240.0182950191573
 31
0.0
  0
LINE
  5
1DA
330
1F
100
AcDbEntity
  8
GR1_01
  6
Continuous
 62
     6
370
    25
100
AcDbLine
 10
203.3184813509997
 20
239.4767950191573
 30
0.0
 11
205.3184813509996
 21
239.4767950191573
 31
0.0
  0
LINE
  5
1DB
330
1F
100
AcDbEntity
  8
GR1_01
  6
Continuous
 62
     3
370
    50
100
AcDbLine
 10
206.8184813509996
 20
242.0182950191573
 30
0.0
 11
206.8184813509996
 21
232.0182950191573
 31
0.0
  0
ARC
  5
1DC
330
1F
100
AcDbEntity
  8
GR1_01
  6
DASHDOT
 62
     6
370
    25
100
AcDbCircle
 10
299.4203895616526
 20
234.0182950191573
 30
0.0
 40
3.0
100
AcDbArc
 50
1.000000000000143
 51
90.0
  0
LINE
  5
1DD
330
1F
100
AcDbEntity
  8
GR1_01
  6
DASHDOT
 62
     6
370
    25
100
AcDbLine
 10
302.4199326471218
 20
234.0706522384692
 30
0.0
 11
302.5773934113018
 21
225.049731100246
 31
0.0
  0
ARC
  5
1DE
330
1F
100
AcDbEntity
  8
GR1_01
  6
DASHDOT
 62
     6
370
    25
100
AcDbCircle
 10
305.0770126491928
 20
225.0933621163392
 30
0.0
 40
2.5
100
AcDbArc
 50
180.9999999999998
 51
270.0
  0
LINE
  5
1DF
330
1F
100
AcDbEntity
  8
GR1_01
  6
DASHDOT
 62
     6
370
    25
100
AcDbLine
 10
305.0770126491927
 20
222.5933621163392
 30
0.0
 11
348.2570550345327
 21
222.5933621163392
 31
0.0
  0
LINE
  5
1E0
330
1F
100
AcDbEntity
  8
GR1_01
  6
DASHDOT
 62
     6
370
    25
100
AcDbLine
 10
440.3647761579815
 20
222.5933621163392
 30
0.0
 11
449.3559182324572
 21
222.5933621163392
 31
0.0
  0
LINE
  5
1E1
330
1F
100
AcDbEntity
  8
GR1_01
  6
DASHDOT
 62
     6
370
    25
100
AcDbLine
 10
449.3559182324572
 20
222.5933621163392
 30
0.0
 11
535.5559182324572
 21
237.0182950191573
 31
0.0
  0
LINE
  5
1E2
330
1F
100
AcDbEntity
  8
GR1_01
  6
DASHDOT
 62
     6
370
    25
100
AcDbLine
 10
535.5559182324572
 20
237.0182950191573
 30
0.0
 11
546.4994810428168
 21
237.0182950191573
 31
0.0
  0
LINE
  5
1E3
330
1F
100
AcDbEntity
  8
GR1_01
  6
DASHDOT
 62
     6
370
    25
100
AcDbLine
 10
568.4002951554602
 20
157.0182950191572
 30
0.0
 11
409.7061640893137
 21
157.0182950191572
 31
0.0
  0
LINE
  5
1E4
330
1F
100
AcDbEntity
  8
GR1_01
  6
DASHDOT
 62
     6
370
    25
100
AcDbLine
 10
449.3559182324572
 20
214.7877809789245
 30
0.0
 11
449.3559182324572
 21
230.3630792576164
 31
0.0
  0
LINE
  5
1E5
330
1F
100
AcDbEntity
  8
GR1_01
  6
DASHDOT
 62
     6
370
    25
100
AcDbLine
 10
534.5559182324571
 20
181.1055073474645
 30
0.0
 11
534.5559182324571
 21
282.913092752103
 31
0.0
  0
LINE
  5
1E6
330
1F
100
AcDbEntity
  8
GR1_01
  6
DASHDOT
 62
     6
370
    25
100
AcDbLine
 10
535.5559182324571
 20
248.9116113549795
 30
0.0
 11
535.5559182324571
 21
224.8963135950087
 31
0.0
  0
LINE
  5
1E7
330
1F
100
AcDbEntity
  8
GR1_01
  6
Continuous
 62
     6
370
    25
100
AcDbLine
 10
510.5559182324571
 20
237.9042552847449
 30
0.0
 11
510.5559182324571
 21
246.793295019157
 31
0.0
  0
LINE
  5
1E8
330
1F
100
AcDbEntity
  8
GR1_01
  6
DASHDOT
 62
     6
370
    25
100
AcDbLine
 10
500.5559182324571
 20
245.0059111182285
 30
0.0
 11
500.5559182324571
 21
228.5516174894196
 31
0.0
  0
ARC
  5
1E9
330
1F
100
AcDbEntity
  8
GR1_01
  6
Continuous
 62
     6
370
    25
100
AcDbCircle
 10
500.5559182324571
 20
237.0182950191573
 30
0.0
 40
4.5
100
AcDbArc
 50
359.5614137553158
 51
199.4385862446838
  0
LINE
  5
1EA
330
1F
100
AcDbEntity
  8
GR1_01
  6
DASHDOT
 62
     6
370
    25
100
AcDbLine
 10
493.4854440594083
 20
237.0182950191573
 30
0.0
 11
507.6167785876795
 21
237.0182950191573
 31
0.0
  0
LINE
  5
1EB
330
1F
100
AcDbEntity
  8
GR1_01
  6
Continuous
 62
     6
370
    25
100
AcDbLine
 10
510.5559182324571
 20
227.7652042994989
 30
0.0
 11
510.5559182324571
 21
152.3507076273484
 31
0.0
  0
CIRCLE
  5
1EC
330
1F
100
AcDbEntity
  8
GR1_01
  6
Continuous
 62
     6
370
    25
100
AcDbCircle
 10
489.555918232457
 20
157.0182950191572
 30
0.0
 40
10.0
  0
LINE
  5
1ED
330
1F
100
AcDbEntity
  8
GR1_01
  6
DASHDOT
 62
     6
370
    25
100
AcDbLine
 10
489.5559182324571
 20
178.6397499837401
 30
0.0
 11
489.5559182324571
 21
78.64070849000393
 31
0.0
  0
LINE
  5
1EE
330
1F
100
AcDbEntity
  8
GR1_01
  6
DASHDOT
 62
     6
370
    25
100
AcDbLine
 10
449.3559182324572
 20
340.4399506843017
 30
0.0
 11
449.3559182324572
 21
390.0988949855027
 31
0.0
  0
ARC
  5
1EF
330
1F
100
AcDbEntity
  8
GR1_01
  6
DASHDOT
 62
     6
370
    25
100
AcDbCircle
 10
460.3559182324572
 20
374.0678874169611
 30
0.0
 40
11.0
100
AcDbArc
 50
90.99999999999972
 51
180.0
  0
LINE
  5
1F0
330
1F
100
AcDbEntity
  8
GR1_01
  6
Continuous
 62
     6
370
    25
100
AcDbLine
 10
448.4032902882942
 20
372.3821839080458
 30
0.0
 11
449.3559182324572
 21
370.7321839080456
 31
0.0
  0
LINE
  5
1F1
330
1F
100
AcDbEntity
  8
GR1_01
  6
Continuous
 62
     6
370
    25
100
AcDbLine
 10
449.3559182324572
 20
370.7321839080456
 30
0.0
 11
450.3085461766201
 21
372.3821839080457
 31
0.0
  0
LINE
  5
1F2
330
1F
100
AcDbEntity
  8
GR1_01
  6
Continuous
 62
     6
370
    25
100
AcDbLine
 10
451.2034390938639
 20
371.9321839080456
 30
0.0
 11
452.4736096860811
 21
369.7321839080457
 31
0.0
  0
LINE
  5
1F3
330
1F
100
AcDbEntity
  8
GR1_01
  6
Continuous
 62
     6
370
    25
100
AcDbLine
 10
452.4736096860811
 20
369.7321839080457
 30
0.0
 11
451.2034390938639
 21
367.5321839080456
 31
0.0
  0
LINE
  5
1F4
330
1F
100
AcDbEntity
  8
GR1_01
  6
Continuous
 62
     6
370
    25
100
AcDbLine
 10
451.2034390938639
 20
367.5321839080456
 30
0.0
 11
449.9332685016468
 21
369.7321839080456
 31
0.0
  0
LINE
  5
1F5
330
1F
100
AcDbEntity
  8
GR1_01
  6
Continuous
 62
     6
370
    25
100
AcDbLine
 10
449.9332685016468
 20
369.7321839080456
 30
0.0
 11
451.2034390938639
 21
371.9321839080456
 31
0.0
  0
LINE
  5
1F6
330
1F
100
AcDbEntity
  8
GR1_01
  6
Continuous
 62
     6
370
    25
100
AcDbLine
 10
452.0983320111078
 20
372.3821839080458
 30
0.0
 11
453.0509599552707
 21
370.7321839080457
 31
0.0
  0
LINE
  5
1F7
330
1F
100
AcDbEntity
  8
GR1_01
  6
Continuous
 62
     6
370
    25
100
AcDbLine
 10
453.0509599552707
 20
370.7321839080457
 30
0.0
 11
454.0559182324571
 21
372.3821839080458
 31
0.0
  0
LINE
  5
1F8
330
1F
100
AcDbEntity
  8
GR1_01
  6
Continuous
 62
     6
370
    25
100
AcDbLine
 10
454.0559182324571
 20
372.3821839080458
 30
0.0
 11
444.6559182324572
 21
372.3821839080458
 31
0.0
  0
LINE
  5
1F9
330
1F
100
AcDbEntity
  8
GR1_01
  6
Continuous
 62
     6
370
    25
100
AcDbLine
 10
444.6559182324572
 20
372.3821839080458
 30
0.0
 11
445.6608765096436
 21
370.7321839080457
 31
0.0
  0
LINE
  5
1FA
330
1F
100
AcDbEntity
  8
GR1_01
  6
Continuous
 62
     6
370
    25
100
AcDbLine
 10
445.6608765096436
 20
370.7321839080457
 30
0.0
 11
446.6135044538065
 21
372.3821839080458
 31
0.0
  0
LINE
  5
1FB
330
1F
100
AcDbEntity
  8
GR1_01
  6
Continuous
 62
     6
370
    25
100
AcDbLine
 10
447.5083973710504
 20
371.9321839080456
 30
0.0
 11
446.2382267788332
 21
369.7321839080457
 31
0.0
  0
LINE
  5
1FC
330
1F
100
AcDbEntity
  8
GR1_01
  6
Continuous
 62
     6
370
    25
100
AcDbLine
 10
446.2382267788332
 20
369.7321839080457
 30
0.0
 11
447.5083973710504
 21
367.5321839080456
 31
0.0
  0
LINE
  5
1FD
330
1F
100
AcDbEntity
  8
GR1_01
  6
Continuous
 62
     6
370
    25
100
AcDbLine
 10
447.5083973710504
 20
367.5321839080456
 30
0.0
 11
448.7785679632675
 21
369.7321839080456
 31
0.0
  0
LINE
  5
1FE
330
1F
100
AcDbEntity
  8
GR1_01
  6
Continuous
 62
     6
370
    25
100
AcDbLine
 10
448.7785679632675
 20
369.7321839080456
 30
0.0
 11
447.5083973710504
 21
371.9321839080456
 31
0.0
  0
ARC
  5
1FF
330
1F
100
AcDbEntity
  8
GR1_01
  6
Continuous
 62
     6
370
    25
100
AcDbCircle
 10
462.9559182324571
 20
364.313107133098
 30
0.0
 40
20.0
100
AcDbArc
 50
156.2057270494633
 51
180.0
  0
LINE
  5
200
330
1F
100
AcDbEntity
  8
GR1_01
  6
Continuous
 62
     6
370
    25
100
AcDbLine
 10
442.9559182324571
 20
364.313107133098
 30
0.0
 11
442.9559182324571
 21
349.5321839080458
 31
0.0
  0
ARC
  5
201
330
1F
100
AcDbEntity
  8
GR1_01
  6
Continuous
 62
     6
370
    25
100
AcDbCircle
 10
449.3559182324572
 20
349.5321839080458
 30
0.0
 40
6.4
100
AcDbArc
 50
180.0
 51
0.0
  0
LINE
  5
202
330
1F
100
AcDbEntity
  8
GR1_01
  6
Continuous
 62
     6
370
    25
100
AcDbLine
 10
455.7559182324571
 20
349.5321839080458
 30
0.0
 11
455.7559182324571
 21
364.313107133098
 31
0.0
  0
LINE
  5
203
330
1F
100
AcDbEntity
  8
GR1_01
  6
Continuous
 62
     6
370
    25
100
AcDbLine
 10
455.7559182324571
 20
364.313107133098
 30
0.0
 11
454.8984808166776
 21
365.5321839080457
 31
0.0
  0
LINE
  5
204
330
1F
100
AcDbEntity
  8
GR1_01
  6
Continuous
 62
     6
370
    25
100
AcDbLine
 10
454.8984808166776
 20
365.5321839080457
 30
0.0
 11
453.6283102244604
 21
363.3321839080456
 31
0.0
  0
LINE
  5
205
330
1F
100
AcDbEntity
  8
GR1_01
  6
Continuous
 62
     6
370
    25
100
AcDbLine
 10
453.6283102244604
 20
363.3321839080456
 30
0.0
 11
454.8984808166775
 21
361.1321839080457
 31
0.0
  0
LINE
  5
206
330
1F
100
AcDbEntity
  8
GR1_01
  6
Continuous
 62
     6
370
    25
100
AcDbLine
 10
454.8984808166775
 20
361.1321839080457
 30
0.0
 11
455.7559182324571
 21
362.6173090764864
 31
0.0
  0
ARC
  5
207
330
1F
100
AcDbEntity
  8
GR1_01
  6
Continuous
 62
     6
370
    25
100
AcDbCircle
 10
435.7559182324571
 20
364.313107133098
 30
0.0
 40
20.0
100
AcDbArc
 50
0.0
 51
23.79427295053676
  0
ARC
  5
208
330
1F
100
AcDbEntity
  8
GR1_01
  6
Continuous
 62
     6
370
    25
100
AcDbCircle
 10
449.3559182324572
 20
361.837183908046
 30
0.0
 40
11.54499999999987
100
AcDbArc
 50
65.97704322726892
 51
114.022956772731
  0
LINE
  5
209
330
1F
100
AcDbEntity
  8
GR1_01
  6
Continuous
 62
     6
370
    25
100
AcDbLine
 10
444.2012744011931
 20
371.2602889187165
 30
0.0
 11
445.0835262404539
 21
369.7321839080457
 31
0.0
  0
LINE
  5
20A
330
1F
100
AcDbEntity
  8
GR1_01
  6
Continuous
 62
     6
370
    25
100
AcDbLine
 10
445.0835262404539
 20
369.7321839080457
 30
0.0
 11
443.8133556482367
 21
367.5321839080456
 31
0.0
  0
LINE
  5
20B
330
1F
100
AcDbEntity
  8
GR1_01
  6
Continuous
 62
     6
370
    25
100
AcDbLine
 10
443.8133556482367
 20
367.5321839080456
 30
0.0
 11
443.3606506581633
 21
368.3162919516928
 31
0.0
  0
LINE
  5
20C
330
1F
100
AcDbEntity
  8
GR1_01
  6
Continuous
 62
     6
370
    25
100
AcDbLine
 10
443.1058676510379
 20
366.7575890649392
 30
0.0
 11
443.2360053790471
 21
366.5321839080456
 31
0.0
  0
LINE
  5
20D
330
1F
100
AcDbEntity
  8
GR1_01
  6
Continuous
 62
     6
370
    25
100
AcDbLine
 10
443.2360053790471
 20
366.5321839080456
 30
0.0
 11
443.0453045981376
 21
366.2018804664672
 31
0.0
  0
LINE
  5
20E
330
1F
100
AcDbEntity
  8
GR1_01
  6
Continuous
 62
     6
370
    25
100
AcDbLine
 10
443.8133556482367
 20
365.5321839080457
 30
0.0
 11
445.0835262404539
 21
363.3321839080456
 31
0.0
  0
LINE
  5
20F
330
1F
100
AcDbEntity
  8
GR1_01
  6
Continuous
 62
     6
370
    25
100
AcDbLine
 10
445.0835262404539
 20
363.3321839080456
 30
0.0
 11
443.8133556482368
 21
361.1321839080457
 31
0.0
  0
LINE
  5
210
330
1F
100
AcDbEntity
  8
GR1_01
  6
Continuous
 62
     6
370
    25
100
AcDbLine
 10
443.8133556482368
 20
361.1321839080457
 30
0.0
 11
442.9559182324572
 21
362.6173090764864
 31
0.0
  0
LINE
  5
211
330
1F
100
AcDbEntity
  8
GR1_01
  6
Continuous
 62
     6
370
    25
100
AcDbLine
 10
442.9559182324572
 20
364.313107133098
 30
0.0
 11
443.8133556482367
 21
365.5321839080457
 31
0.0
  0
LINE
  5
212
330
1F
100
AcDbEntity
  8
GR1_01
  6
Continuous
 62
     6
370
    25
100
AcDbLine
 10
444.3907059174264
 20
366.5321839080456
 30
0.0
 11
445.6608765096436
 21
364.3321839080456
 31
0.0
  0
LINE
  5
213
330
1F
100
AcDbEntity
  8
GR1_01
  6
Continuous
 62
     6
370
    25
100
AcDbLine
 10
445.6608765096436
 20
364.3321839080456
 30
0.0
 11
446.9310471018608
 21
366.5321839080456
 31
0.0
  0
LINE
  5
214
330
1F
100
AcDbEntity
  8
GR1_01
  6
Continuous
 62
     6
370
    25
100
AcDbLine
 10
446.9310471018608
 20
366.5321839080456
 30
0.0
 11
445.6608765096436
 21
368.7321839080457
 31
0.0
  0
LINE
  5
215
330
1F
100
AcDbEntity
  8
GR1_01
  6
Continuous
 62
     6
370
    25
100
AcDbLine
 10
445.6608765096436
 20
368.7321839080457
 30
0.0
 11
444.3907059174264
 21
366.5321839080456
 31
0.0
  0
LINE
  5
216
330
1F
100
AcDbEntity
  8
GR1_01
  6
Continuous
 62
     6
370
    25
100
AcDbLine
 10
447.5083973710504
 20
365.5321839080457
 30
0.0
 11
448.7785679632676
 21
363.3321839080456
 31
0.0
  0
LINE
  5
217
330
1F
100
AcDbEntity
  8
GR1_01
  6
Continuous
 62
     6
370
    25
100
AcDbLine
 10
448.7785679632676
 20
363.3321839080456
 30
0.0
 11
447.5083973710504
 21
361.1321839080457
 31
0.0
  0
LINE
  5
218
330
1F
100
AcDbEntity
  8
GR1_01
  6
Continuous
 62
     6
370
    25
100
AcDbLine
 10
447.5083973710504
 20
361.1321839080457
 30
0.0
 11
446.2382267788332
 21
363.3321839080456
 31
0.0
  0
LINE
  5
219
330
1F
100
AcDbEntity
  8
GR1_01
  6
Continuous
 62
     6
370
    25
100
AcDbLine
 10
446.2382267788332
 20
363.3321839080456
 30
0.0
 11
447.5083973710504
 21
365.5321839080457
 31
0.0
  0
LINE
  5
21A
330
1F
100
AcDbEntity
  8
GR1_01
  6
Continuous
 62
     6
370
    25
100
AcDbLine
 10
448.08574764024
 20
366.5321839080456
 30
0.0
 11
449.3559182324572
 21
368.7321839080456
 31
0.0
  0
LINE
  5
21B
330
1F
100
AcDbEntity
  8
GR1_01
  6
Continuous
 62
     6
370
    25
100
AcDbLine
 10
449.3559182324572
 20
368.7321839080456
 30
0.0
 11
450.6260888246743
 21
366.5321839080456
 31
0.0
  0
LINE
  5
21C
330
1F
100
AcDbEntity
  8
GR1_01
  6
Continuous
 62
     6
370
    25
100
AcDbLine
 10
450.6260888246743
 20
366.5321839080456
 30
0.0
 11
449.3559182324572
 21
364.3321839080457
 31
0.0
  0
LINE
  5
21D
330
1F
100
AcDbEntity
  8
GR1_01
  6
Continuous
 62
     6
370
    25
100
AcDbLine
 10
449.3559182324572
 20
364.3321839080457
 30
0.0
 11
448.08574764024
 21
366.5321839080456
 31
0.0
  0
LINE
  5
21E
330
1F
100
AcDbEntity
  8
GR1_01
  6
Continuous
 62
     6
370
    25
100
AcDbLine
 10
451.2034390938639
 20
365.5321839080457
 30
0.0
 11
449.9332685016468
 21
363.3321839080456
 31
0.0
  0
LINE
  5
21F
330
1F
100
AcDbEntity
  8
GR1_01
  6
Continuous
 62
     6
370
    25
100
AcDbLine
 10
449.9332685016468
 20
363.3321839080456
 30
0.0
 11
451.2034390938639
 21
361.1321839080457
 31
0.0
  0
LINE
  5
220
330
1F
100
AcDbEntity
  8
GR1_01
  6
Continuous
 62
     6
370
    25
100
AcDbLine
 10
451.2034390938639
 20
361.1321839080457
 30
0.0
 11
452.4736096860811
 21
363.3321839080456
 31
0.0
  0
LINE
  5
221
330
1F
100
AcDbEntity
  8
GR1_01
  6
Continuous
 62
     6
370
    25
100
AcDbLine
 10
452.4736096860811
 20
363.3321839080456
 30
0.0
 11
451.2034390938639
 21
365.5321839080457
 31
0.0
  0
LINE
  5
222
330
1F
100
AcDbEntity
  8
GR1_01
  6
Continuous
 62
     6
370
    25
100
AcDbLine
 10
451.7807893630535
 20
366.5321839080456
 30
0.0
 11
453.0509599552707
 21
368.7321839080457
 31
0.0
  0
LINE
  5
223
330
1F
100
AcDbEntity
  8
GR1_01
  6
Continuous
 62
     6
370
    25
100
AcDbLine
 10
453.0509599552707
 20
368.7321839080457
 30
0.0
 11
454.3211305474879
 21
366.5321839080456
 31
0.0
  0
LINE
  5
224
330
1F
100
AcDbEntity
  8
GR1_01
  6
Continuous
 62
     6
370
    25
100
AcDbLine
 10
454.3211305474879
 20
366.5321839080456
 30
0.0
 11
453.0509599552707
 21
364.3321839080456
 31
0.0
  0
LINE
  5
225
330
1F
100
AcDbEntity
  8
GR1_01
  6
Continuous
 62
     6
370
    25
100
AcDbLine
 10
453.0509599552707
 20
364.3321839080456
 30
0.0
 11
451.7807893630535
 21
366.5321839080456
 31
0.0
  0
LINE
  5
226
330
1F
100
AcDbEntity
  8
GR1_01
  6
Continuous
 62
     6
370
    25
100
AcDbLine
 10
454.8984808166776
 20
367.5321839080456
 30
0.0
 11
453.6283102244604
 21
369.7321839080457
 31
0.0
  0
LINE
  5
227
330
1F
100
AcDbEntity
  8
GR1_01
  6
Continuous
 62
     6
370
    25
100
AcDbLine
 10
453.6283102244603
 20
369.7321839080456
 30
0.0
 11
454.5105620637212
 21
371.2602889187165
 31
0.0
  0
LINE
  5
228
330
1F
100
AcDbEntity
  8
GR1_01
  6
Continuous
 62
     6
370
    25
100
AcDbLine
 10
455.351185806751
 20
368.3162919516928
 30
0.0
 11
454.8984808166776
 21
367.5321839080456
 31
0.0
  0
LINE
  5
229
330
1F
100
AcDbEntity
  8
GR1_01
  6
Continuous
 62
     6
370
    25
100
AcDbLine
 10
455.6059688138764
 20
366.7575890649392
 30
0.0
 11
455.4758310858672
 21
366.5321839080456
 31
0.0
  0
LINE
  5
22A
330
1F
100
AcDbEntity
  8
GR1_01
  6
Continuous
 62
     6
370
    25
100
AcDbLine
 10
455.4758310858672
 20
366.5321839080456
 30
0.0
 11
455.6665318667767
 21
366.2018804664672
 31
0.0
  0
LINE
  5
22B
330
1F
100
AcDbEntity
  8
GR1_01
  6
Continuous
 62
     6
370
    25
100
AcDbLine
 10
453.0509599552707
 20
362.3321839080456
 30
0.0
 11
454.321130547488
 21
360.1321839080457
 31
0.0
  0
LINE
  5
22C
330
1F
100
AcDbEntity
  8
GR1_01
  6
Continuous
 62
     6
370
    25
100
AcDbLine
 10
454.321130547488
 20
360.1321839080457
 30
0.0
 11
453.0509599552707
 21
357.9321839080457
 31
0.0
  0
LINE
  5
22D
330
1F
100
AcDbEntity
  8
GR1_01
  6
Continuous
 62
     6
370
    25
100
AcDbLine
 10
453.0509599552707
 20
357.9321839080457
 30
0.0
 11
451.7807893630536
 21
360.1321839080457
 31
0.0
  0
LINE
  5
22E
330
1F
100
AcDbEntity
  8
GR1_01
  6
Continuous
 62
     6
370
    25
100
AcDbLine
 10
451.7807893630536
 20
360.1321839080457
 30
0.0
 11
453.0509599552707
 21
362.3321839080456
 31
0.0
  0
LINE
  5
22F
330
1F
100
AcDbEntity
  8
GR1_01
  6
Continuous
 62
     6
370
    25
100
AcDbLine
 10
455.7559182324571
 20
360.6173090764864
 30
0.0
 11
455.4758310858672
 21
360.1321839080457
 31
0.0
  0
LINE
  5
230
330
1F
100
AcDbEntity
  8
GR1_01
  6
Continuous
 62
     6
370
    25
100
AcDbLine
 10
455.4758310858672
 20
360.1321839080457
 30
0.0
 11
455.7559182324571
 21
359.6470587396049
 31
0.0
  0
LINE
  5
231
330
1F
100
AcDbEntity
  8
GR1_01
  6
Continuous
 62
     6
370
    25
100
AcDbLine
 10
454.8984808166775
 20
359.1321839080457
 30
0.0
 11
453.6283102244604
 21
356.9321839080457
 31
0.0
  0
LINE
  5
232
330
1F
100
AcDbEntity
  8
GR1_01
  6
Continuous
 62
     6
370
    25
100
AcDbLine
 10
453.6283102244604
 20
356.9321839080457
 30
0.0
 11
454.8984808166775
 21
354.7321839080457
 31
0.0
  0
LINE
  5
233
330
1F
100
AcDbEntity
  8
GR1_01
  6
Continuous
 62
     6
370
    25
100
AcDbLine
 10
454.8984808166775
 20
354.7321839080457
 30
0.0
 11
455.7559182324571
 21
356.2173090764865
 31
0.0
  0
LINE
  5
234
330
1F
100
AcDbEntity
  8
GR1_01
  6
Continuous
 62
     6
370
    25
100
AcDbLine
 10
455.7559182324571
 20
357.6470587396049
 30
0.0
 11
454.8984808166775
 21
359.1321839080457
 31
0.0
  0
LINE
  5
235
330
1F
100
AcDbEntity
  8
GR1_01
  6
Continuous
 62
     6
370
    25
100
AcDbLine
 10
452.4736096860811
 20
356.9321839080457
 30
0.0
 11
451.2034390938639
 21
359.1321839080457
 31
0.0
  0
LINE
  5
236
330
1F
100
AcDbEntity
  8
GR1_01
  6
Continuous
 62
     6
370
    25
100
AcDbLine
 10
451.2034390938639
 20
359.1321839080457
 30
0.0
 11
449.9332685016468
 21
356.9321839080457
 31
0.0
  0
LINE
  5
237
330
1F
100
AcDbEntity
  8
GR1_01
  6
Continuous
 62
     6
370
    25
100
AcDbLine
 10
449.9332685016468
 20
356.9321839080457
 30
0.0
 11
451.2034390938639
 21
354.7321839080457
 31
0.0
  0
LINE
  5
238
330
1F
100
AcDbEntity
  8
GR1_01
  6
Continuous
 62
     6
370
    25
100
AcDbLine
 10
451.2034390938639
 20
354.7321839080457
 30
0.0
 11
452.4736096860811
 21
356.9321839080457
 31
0.0
  0
LINE
  5
239
330
1F
100
AcDbEntity
  8
GR1_01
  6
Continuous
 62
     6
370
    25
100
AcDbLine
 10
453.0509599552707
 20
355.9321839080457
 30
0.0
 11
451.7807893630536
 21
353.7321839080457
 31
0.0
  0
LINE
  5
23A
330
1F
100
AcDbEntity
  8
GR1_01
  6
Continuous
 62
     6
370
    25
100
AcDbLine
 10
451.7807893630536
 20
353.7321839080457
 30
0.0
 11
453.0509599552707
 21
351.5321839080457
 31
0.0
  0
LINE
  5
23B
330
1F
100
AcDbEntity
  8
GR1_01
  6
Continuous
 62
     6
370
    25
100
AcDbLine
 10
453.0509599552707
 20
351.5321839080457
 30
0.0
 11
454.3211305474879
 21
353.7321839080457
 31
0.0
  0
LINE
  5
23C
330
1F
100
AcDbEntity
  8
GR1_01
  6
Continuous
 62
     6
370
    25
100
AcDbLine
 10
454.3211305474879
 20
353.7321839080457
 30
0.0
 11
453.0509599552707
 21
355.9321839080457
 31
0.0
  0
LINE
  5
23D
330
1F
100
AcDbEntity
  8
GR1_01
  6
Continuous
 62
     6
370
    25
100
AcDbLine
 10
455.7559182324571
 20
354.2173090764865
 30
0.0
 11
455.4758310858672
 21
353.7321839080457
 31
0.0
  0
LINE
  5
23E
330
1F
100
AcDbEntity
  8
GR1_01
  6
Continuous
 62
     6
370
    25
100
AcDbLine
 10
455.4758310858672
 20
353.7321839080457
 30
0.0
 11
455.7559182324571
 21
353.2470587396049
 31
0.0
  0
LINE
  5
23F
330
1F
100
AcDbEntity
  8
GR1_01
  6
Continuous
 62
     6
370
    25
100
AcDbLine
 10
454.8984808166775
 20
352.7321839080457
 30
0.0
 11
453.6283102244604
 21
350.5321839080457
 31
0.0
  0
LINE
  5
240
330
1F
100
AcDbEntity
  8
GR1_01
  6
Continuous
 62
     6
370
    25
100
AcDbLine
 10
453.6283102244604
 20
350.5321839080457
 30
0.0
 11
454.8984808166775
 21
348.3321839080457
 31
0.0
  0
LINE
  5
241
330
1F
100
AcDbEntity
  8
GR1_01
  6
Continuous
 62
     6
370
    25
100
AcDbLine
 10
454.8984808166775
 20
348.3321839080457
 30
0.0
 11
455.7559182324571
 21
349.8173090764865
 31
0.0
  0
LINE
  5
242
330
1F
100
AcDbEntity
  8
GR1_01
  6
Continuous
 62
     6
370
    25
100
AcDbLine
 10
455.7559182324571
 20
351.2470587396049
 30
0.0
 11
454.8984808166775
 21
352.7321839080457
 31
0.0
  0
LINE
  5
243
330
1F
100
AcDbEntity
  8
GR1_01
  6
Continuous
 62
     6
370
    25
100
AcDbLine
 10
452.4736096860811
 20
350.5321839080457
 30
0.0
 11
451.2034390938639
 21
352.7321839080457
 31
0.0
  0
LINE
  5
244
330
1F
100
AcDbEntity
  8
GR1_01
  6
Continuous
 62
     6
370
    25
100
AcDbLine
 10
451.2034390938639
 20
352.7321839080457
 30
0.0
 11
449.9332685016468
 21
350.5321839080457
 31
0.0
  0
LINE
  5
245
330
1F
100
AcDbEntity
  8
GR1_01
  6
Continuous
 62
     6
370
    25
100
AcDbLine
 10
449.9332685016468
 20
350.5321839080457
 30
0.0
 11
451.2034390938639
 21
348.3321839080457
 31
0.0
  0
LINE
  5
246
330
1F
100
AcDbEntity
  8
GR1_01
  6
Continuous
 62
     6
370
    25
100
AcDbLine
 10
451.2034390938639
 20
348.3321839080457
 30
0.0
 11
452.4736096860811
 21
350.5321839080457
 31
0.0
  0
LINE
  5
247
330
1F
100
AcDbEntity
  8
GR1_01
  6
Continuous
 62
     6
370
    25
100
AcDbLine
 10
453.0509599552707
 20
349.5321839080457
 30
0.0
 11
451.7807893630536
 21
347.3321839080457
 31
0.0
  0
LINE
  5
248
330
1F
100
AcDbEntity
  8
GR1_01
  6
Continuous
 62
     6
370
    25
100
AcDbLine
 10
451.7807893630536
 20
347.3321839080457
 30
0.0
 11
453.0509599552707
 21
345.1321839080457
 31
0.0
  0
LINE
  5
249
330
1F
100
AcDbEntity
  8
GR1_01
  6
Continuous
 62
     6
370
    25
100
AcDbLine
 10
453.0509599552707
 20
345.1321839080457
 30
0.0
 11
454.3211305474879
 21
347.3321839080457
 31
0.0
  0
LINE
  5
24A
330
1F
100
AcDbEntity
  8
GR1_01
  6
Continuous
 62
     6
370
    25
100
AcDbLine
 10
454.3211305474879
 20
347.3321839080457
 30
0.0
 11
453.0509599552707
 21
349.5321839080457
 31
0.0
  0
LINE
  5
24B
330
1F
100
AcDbEntity
  8
GR1_01
  6
Continuous
 62
     6
370
    25
100
AcDbLine
 10
450.6260888246743
 20
347.3321839080457
 30
0.0
 11
449.3559182324572
 21
349.5321839080457
 31
0.0
  0
LINE
  5
24C
330
1F
100
AcDbEntity
  8
GR1_01
  6
Continuous
 62
     6
370
    25
100
AcDbLine
 10
449.3559182324572
 20
349.5321839080457
 30
0.0
 11
448.08574764024
 21
347.3321839080457
 31
0.0
  0
LINE
  5
24D
330
1F
100
AcDbEntity
  8
GR1_01
  6
Continuous
 62
     6
370
    25
100
AcDbLine
 10
448.08574764024
 20
347.3321839080457
 30
0.0
 11
449.3559182324572
 21
345.1321839080457
 31
0.0
  0
LINE
  5
24E
330
1F
100
AcDbEntity
  8
GR1_01
  6
Continuous
 62
     6
370
    25
100
AcDbLine
 10
449.3559182324572
 20
345.1321839080457
 30
0.0
 11
450.6260888246743
 21
347.3321839080457
 31
0.0
  0
LINE
  5
24F
330
1F
100
AcDbEntity
  8
GR1_01
  6
Continuous
 62
     6
370
    25
100
AcDbLine
 10
451.2034390938639
 20
346.3321839080457
 30
0.0
 11
449.9332685016468
 21
344.1321839080457
 31
0.0
  0
LINE
  5
250
330
1F
100
AcDbEntity
  8
GR1_01
  6
Continuous
 62
     6
370
    25
100
AcDbLine
 10
449.9332685016468
 20
344.1321839080457
 30
0.0
 11
450.4556581843947
 21
343.2273784361765
 31
0.0
  0
LINE
  5
251
330
1F
100
AcDbEntity
  8
GR1_01
  6
Continuous
 62
     6
370
    25
100
AcDbLine
 10
448.7785679632676
 20
344.1321839080457
 30
0.0
 11
447.5083973710504
 21
346.3321839080457
 31
0.0
  0
LINE
  5
252
330
1F
100
AcDbEntity
  8
GR1_01
  6
Continuous
 62
     6
370
    25
100
AcDbLine
 10
447.5083973710504
 20
346.3321839080457
 30
0.0
 11
446.2382267788332
 21
344.1321839080457
 31
0.0
  0
LINE
  5
253
330
1F
100
AcDbEntity
  8
GR1_01
  6
Continuous
 62
     6
370
    25
100
AcDbLine
 10
445.6608765096436
 20
345.1321839080457
 30
0.0
 11
446.9310471018607
 21
347.3321839080457
 31
0.0
  0
LINE
  5
254
330
1F
100
AcDbEntity
  8
GR1_01
  6
Continuous
 62
     6
370
    25
100
AcDbLine
 10
446.9310471018607
 20
347.3321839080457
 30
0.0
 11
445.6608765096436
 21
349.5321839080457
 31
0.0
  0
LINE
  5
255
330
1F
100
AcDbEntity
  8
GR1_01
  6
Continuous
 62
     6
370
    25
100
AcDbLine
 10
445.6608765096436
 20
349.5321839080457
 30
0.0
 11
444.3907059174264
 21
347.3321839080457
 31
0.0
  0
LINE
  5
256
330
1F
100
AcDbEntity
  8
GR1_01
  6
Continuous
 62
     6
370
    25
100
AcDbLine
 10
444.3907059174264
 20
347.3321839080457
 30
0.0
 11
445.6608765096436
 21
345.1321839080457
 31
0.0
  0
LINE
  5
257
330
1F
100
AcDbEntity
  8
GR1_01
  6
Continuous
 62
     6
370
    25
100
AcDbLine
 10
448.2561782805196
 20
343.2273784361765
 30
0.0
 11
448.7785679632676
 21
344.1321839080457
 31
0.0
  0
LINE
  5
258
330
1F
100
AcDbEntity
  8
GR1_01
  6
Continuous
 62
     6
370
    25
100
AcDbLine
 10
451.2034390938639
 20
346.3321839080457
 30
0.0
 11
452.4736096860811
 21
344.1321839080457
 31
0.0
  0
LINE
  5
259
330
1F
100
AcDbEntity
  8
GR1_01
  6
Continuous
 62
     6
370
    25
100
AcDbLine
 10
447.5083973710504
 20
348.3321839080457
 30
0.0
 11
448.7785679632676
 21
350.5321839080457
 31
0.0
  0
LINE
  5
25A
330
1F
100
AcDbEntity
  8
GR1_01
  6
Continuous
 62
     6
370
    25
100
AcDbLine
 10
448.7785679632676
 20
350.5321839080457
 30
0.0
 11
447.5083973710504
 21
352.7321839080457
 31
0.0
  0
LINE
  5
25B
330
1F
100
AcDbEntity
  8
GR1_01
  6
Continuous
 62
     6
370
    25
100
AcDbLine
 10
447.5083973710504
 20
352.7321839080457
 30
0.0
 11
446.2382267788332
 21
350.5321839080457
 31
0.0
  0
LINE
  5
25C
330
1F
100
AcDbEntity
  8
GR1_01
  6
Continuous
 62
     6
370
    25
100
AcDbLine
 10
446.2382267788332
 20
350.5321839080457
 30
0.0
 11
447.5083973710504
 21
348.3321839080457
 31
0.0
  0
LINE
  5
25D
330
1F
100
AcDbEntity
  8
GR1_01
  6
Continuous
 62
     6
370
    25
100
AcDbLine
 10
445.0835262404539
 20
350.5321839080457
 30
0.0
 11
443.8133556482368
 21
348.3321839080457
 31
0.0
  0
LINE
  5
25E
330
1F
100
AcDbEntity
  8
GR1_01
  6
Continuous
 62
     6
370
    25
100
AcDbLine
 10
443.8133556482368
 20
348.3321839080457
 30
0.0
 11
442.9559182324572
 21
349.8173090764865
 31
0.0
  0
LINE
  5
25F
330
1F
100
AcDbEntity
  8
GR1_01
  6
Continuous
 62
     6
370
    25
100
AcDbLine
 10
442.9559182324572
 20
351.2470587396049
 30
0.0
 11
443.8133556482368
 21
352.7321839080457
 31
0.0
  0
LINE
  5
260
330
1F
100
AcDbEntity
  8
GR1_01
  6
Continuous
 62
     6
370
    25
100
AcDbLine
 10
443.8133556482368
 20
352.7321839080457
 30
0.0
 11
445.0835262404539
 21
350.5321839080457
 31
0.0
  0
LINE
  5
261
330
1F
100
AcDbEntity
  8
GR1_01
  6
Continuous
 62
     6
370
    25
100
AcDbLine
 10
445.6608765096436
 20
351.5321839080457
 30
0.0
 11
446.9310471018607
 21
353.7321839080457
 31
0.0
  0
LINE
  5
262
330
1F
100
AcDbEntity
  8
GR1_01
  6
Continuous
 62
     6
370
    25
100
AcDbLine
 10
446.9310471018607
 20
353.7321839080457
 30
0.0
 11
445.6608765096436
 21
355.9321839080457
 31
0.0
  0
LINE
  5
263
330
1F
100
AcDbEntity
  8
GR1_01
  6
Continuous
 62
     6
370
    25
100
AcDbLine
 10
445.6608765096436
 20
355.9321839080457
 30
0.0
 11
444.3907059174264
 21
353.7321839080457
 31
0.0
  0
LINE
  5
264
330
1F
100
AcDbEntity
  8
GR1_01
  6
Continuous
 62
     6
370
    25
100
AcDbLine
 10
444.3907059174264
 20
353.7321839080457
 30
0.0
 11
445.6608765096436
 21
351.5321839080457
 31
0.0
  0
LINE
  5
265
330
1F
100
AcDbEntity
  8
GR1_01
  6
Continuous
 62
     6
370
    25
100
AcDbLine
 10
442.9559182324572
 20
353.2470587396049
 30
0.0
 11
443.2360053790471
 21
353.7321839080457
 31
0.0
  0
LINE
  5
266
330
1F
100
AcDbEntity
  8
GR1_01
  6
Continuous
 62
     6
370
    25
100
AcDbLine
 10
443.2360053790471
 20
353.7321839080457
 30
0.0
 11
442.9559182324572
 21
354.2173090764865
 31
0.0
  0
LINE
  5
267
330
1F
100
AcDbEntity
  8
GR1_01
  6
Continuous
 62
     6
370
    25
100
AcDbLine
 10
443.8133556482368
 20
354.7321839080457
 30
0.0
 11
445.0835262404539
 21
356.9321839080457
 31
0.0
  0
LINE
  5
268
330
1F
100
AcDbEntity
  8
GR1_01
  6
Continuous
 62
     6
370
    25
100
AcDbLine
 10
445.0835262404539
 20
356.9321839080457
 30
0.0
 11
443.8133556482368
 21
359.1321839080457
 31
0.0
  0
LINE
  5
269
330
1F
100
AcDbEntity
  8
GR1_01
  6
Continuous
 62
     6
370
    25
100
AcDbLine
 10
443.8133556482368
 20
359.1321839080457
 30
0.0
 11
442.9559182324572
 21
357.6470587396049
 31
0.0
  0
LINE
  5
26A
330
1F
100
AcDbEntity
  8
GR1_01
  6
Continuous
 62
     6
370
    25
100
AcDbLine
 10
442.9559182324572
 20
356.2173090764865
 30
0.0
 11
443.8133556482368
 21
354.7321839080457
 31
0.0
  0
LINE
  5
26B
330
1F
100
AcDbEntity
  8
GR1_01
  6
Continuous
 62
     6
370
    25
100
AcDbLine
 10
446.2382267788332
 20
356.9321839080457
 30
0.0
 11
447.5083973710504
 21
359.1321839080457
 31
0.0
  0
LINE
  5
26C
330
1F
100
AcDbEntity
  8
GR1_01
  6
Continuous
 62
     6
370
    25
100
AcDbLine
 10
447.5083973710504
 20
359.1321839080457
 30
0.0
 11
448.7785679632675
 21
356.9321839080457
 31
0.0
  0
LINE
  5
26D
330
1F
100
AcDbEntity
  8
GR1_01
  6
Continuous
 62
     6
370
    25
100
AcDbLine
 10
448.7785679632675
 20
356.9321839080457
 30
0.0
 11
447.5083973710504
 21
354.7321839080457
 31
0.0
  0
LINE
  5
26E
330
1F
100
AcDbEntity
  8
GR1_01
  6
Continuous
 62
     6
370
    25
100
AcDbLine
 10
447.5083973710504
 20
354.7321839080457
 30
0.0
 11
446.2382267788332
 21
356.9321839080457
 31
0.0
  0
LINE
  5
26F
330
1F
100
AcDbEntity
  8
GR1_01
  6
Continuous
 62
     6
370
    25
100
AcDbLine
 10
445.6608765096436
 20
357.9321839080457
 30
0.0
 11
444.3907059174263
 21
360.1321839080457
 31
0.0
  0
LINE
  5
270
330
1F
100
AcDbEntity
  8
GR1_01
  6
Continuous
 62
     6
370
    25
100
AcDbLine
 10
444.3907059174263
 20
360.1321839080457
 30
0.0
 11
445.6608765096436
 21
362.3321839080456
 31
0.0
  0
LINE
  5
271
330
1F
100
AcDbEntity
  8
GR1_01
  6
Continuous
 62
     6
370
    25
100
AcDbLine
 10
445.6608765096436
 20
362.3321839080456
 30
0.0
 11
446.9310471018607
 21
360.1321839080457
 31
0.0
  0
LINE
  5
272
330
1F
100
AcDbEntity
  8
GR1_01
  6
Continuous
 62
     6
370
    25
100
AcDbLine
 10
446.9310471018607
 20
360.1321839080457
 30
0.0
 11
445.6608765096436
 21
357.9321839080457
 31
0.0
  0
LINE
  5
273
330
1F
100
AcDbEntity
  8
GR1_01
  6
Continuous
 62
     6
370
    25
100
AcDbLine
 10
442.9559182324572
 20
359.6470587396049
 30
0.0
 11
443.2360053790471
 21
360.1321839080457
 31
0.0
  0
LINE
  5
274
330
1F
100
AcDbEntity
  8
GR1_01
  6
Continuous
 62
     6
370
    25
100
AcDbLine
 10
443.2360053790471
 20
360.1321839080457
 30
0.0
 11
442.9559182324572
 21
360.6173090764864
 31
0.0
  0
LINE
  5
275
330
1F
100
AcDbEntity
  8
GR1_01
  6
Continuous
 62
     6
370
    25
100
AcDbLine
 10
448.08574764024
 20
360.1321839080457
 30
0.0
 11
449.3559182324572
 21
362.3321839080456
 31
0.0
  0
LINE
  5
276
330
1F
100
AcDbEntity
  8
GR1_01
  6
Continuous
 62
     6
370
    25
100
AcDbLine
 10
449.3559182324572
 20
362.3321839080456
 30
0.0
 11
450.6260888246743
 21
360.1321839080457
 31
0.0
  0
LINE
  5
277
330
1F
100
AcDbEntity
  8
GR1_01
  6
Continuous
 62
     6
370
    25
100
AcDbLine
 10
450.6260888246743
 20
360.1321839080457
 30
0.0
 11
449.3559182324572
 21
357.9321839080457
 31
0.0
  0
LINE
  5
278
330
1F
100
AcDbEntity
  8
GR1_01
  6
Continuous
 62
     6
370
    25
100
AcDbLine
 10
449.3559182324572
 20
357.9321839080457
 30
0.0
 11
448.08574764024
 21
360.1321839080457
 31
0.0
  0
LINE
  5
279
330
1F
100
AcDbEntity
  8
GR1_01
  6
Continuous
 62
     6
370
    25
100
AcDbLine
 10
449.3559182324572
 20
355.9321839080457
 30
0.0
 11
450.6260888246743
 21
353.7321839080457
 31
0.0
  0
LINE
  5
27A
330
1F
100
AcDbEntity
  8
GR1_01
  6
Continuous
 62
     6
370
    25
100
AcDbLine
 10
450.6260888246743
 20
353.7321839080457
 30
0.0
 11
449.3559182324572
 21
351.5321839080457
 31
0.0
  0
LINE
  5
27B
330
1F
100
AcDbEntity
  8
GR1_01
  6
Continuous
 62
     6
370
    25
100
AcDbLine
 10
449.3559182324572
 20
351.5321839080457
 30
0.0
 11
448.08574764024
 21
353.7321839080457
 31
0.0
  0
LINE
  5
27C
330
1F
100
AcDbEntity
  8
GR1_01
  6
Continuous
 62
     6
370
    25
100
AcDbLine
 10
448.08574764024
 20
353.7321839080457
 30
0.0
 11
449.3559182324572
 21
355.9321839080457
 31
0.0
  0
LINE
  5
27D
330
1F
100
AcDbEntity
  8
GR1_01
  6
DASHDOT
 62
     6
370
    25
100
AcDbLine
 10
460.1639417616472
 20
385.0662120636814
 30
0.0
 11
520.8177043290165
 21
386.1249274274353
 31
0.0
  0
ARC
  5
27E
330
1F
100
AcDbEntity
  8
GR1_01
  6
DASHDOT
 62
     6
370
    25
100
AcDbCircle
 10
520.5559182324572
 20
401.1226428547812
 30
0.0
 40
15.0
100
AcDbArc
 50
270.9999999999998
 51
288.3112276206166
  0
LINE
  5
27F
330
1F
100
AcDbEntity
  8
GR1_01
  6
DASHDOT
 62
     6
370
    25
100
AcDbLine
 10
534.555918232457
 20
383.4363634746093
 30
0.0
 11
534.555918232457
 21
512.1670136294081
 31
0.0
  0
CIRCLE
  5
280
330
1F
100
AcDbEntity
  8
GR1_01
  6
Continuous
 62
     6
370
    25
100
AcDbCircle
 10
534.555918232457
 20
446.8821839080458
 30
0.0
 40
29.5
  0
CIRCLE
  5
281
330
1F
100
AcDbEntity
  8
GR1_01
  6
Continuous
 62
     6
370
    25
100
AcDbCircle
 10
534.555918232457
 20
446.8821839080458
 30
0.0
 40
30.75
  0
CIRCLE
  5
282
330
1F
100
AcDbEntity
  8
GR1_01
  6
Continuous
 62
     6
370
    25
100
AcDbCircle
 10
534.555918232457
 20
446.8821839080458
 30
0.0
 40
44.0
  0
LINE
  5
283
330
1F
100
AcDbEntity
  8
GR1_01
  6
DASHDOT
 62
     6
370
    25
100
AcDbLine
 10
599.1441535265747
 20
446.8821839080458
 30
0.0
 11
409.3941703004343
 21
446.8821839080458
 31
0.0
  0
ARC
  5
284
330
1F
100
AcDbEntity
  8
GR1_01
  6
Continuous
 62
     3
370
    50
100
AcDbCircle
 10
534.555918232457
 20
265.7557950191568
 30
0.0
 40
4.7625
100
AcDbArc
 50
42.82723713232251
 51
137.1727628676777
  0
ARC
  5
285
330
1F
100
AcDbEntity
  8
GR1_01
  6
Continuous
 62
     3
370
    50
100
AcDbCircle
 10
543.9957821262003
 20
265.7557950191568
 30
0.0
 40
4.7625
100
AcDbArc
 50
42.82723713232251
 51
137.1727628676775
  0
ARC
  5
286
330
1F
100
AcDbEntity
  8
GR1_01
  6
Continuous
 62
     3
370
    50
100
AcDbCircle
 10
552.7636614993316
 20
265.7557950191568
 30
0.0
 40
4.7625
100
AcDbArc
 50
42.82723713232251
 51
137.1727628676775
  0
ARC
  5
287
330
1F
100
AcDbEntity
  8
GR1_01
  6
Continuous
 62
     3
370
    50
100
AcDbCircle
 10
560.2354076052528
 20
265.7557950191568
 30
0.0
 40
4.7625
100
AcDbArc
 50
42.82723713232251
 51
137.1727628676775
  0
ARC
  5
288
330
1F
100
AcDbEntity
  8
GR1_01
  6
Continuous
 62
     3
370
    50
100
AcDbCircle
 10
565.8791380162467
 20
265.7557950191568
 30
0.0
 40
4.7625
100
AcDbArc
 50
42.82723713232251
 51
126.33587103985
  0
ARC
  5
289
330
1F
100
AcDbEntity
  8
GR1_01
  6
Continuous
 62
     3
370
    50
100
AcDbCircle
 10
569.2930991141062
 20
265.7557950191568
 30
0.0
 40
4.7625
100
AcDbArc
 50
42.82723713232251
 51
111.0032627655209
  0
ARC
  5
28A
330
1F
100
AcDbEntity
  8
GR1_01
  6
Continuous
 62
     3
370
    50
100
AcDbCircle
 10
570.2342652538056
 20
265.7557950191568
 30
0.0
 40
4.7625
100
AcDbArc
 50
42.82723713232251
 51
95.67065449119342
  0
ARC
  5
28B
330
1F
100
AcDbEntity
  8
GR1_01
  6
Continuous
 62
     3
370
    50
100
AcDbCircle
 10
525.1160543387139
 20
265.7557950191568
 30
0.0
 40
4.7625
100
AcDbArc
 50
42.82723713232227
 51
137.1727628676777
  0
ARC
  5
28C
330
1F
100
AcDbEntity
  8
GR1_01
  6
Continuous
 62
     3
370
    50
100
AcDbCircle
 10
516.3481749655825
 20
265.7557950191568
 30
0.0
 40
4.7625
100
AcDbArc
 50
42.82723713232227
 51
137.1727628676777
  0
ARC
  5
28D
330
1F
100
AcDbEntity
  8
GR1_01
  6
Continuous
 62
     3
370
    50
100
AcDbCircle
 10
508.8764288596615
 20
265.7557950191568
 30
0.0
 40
4.7625
100
AcDbArc
 50
42.82723713232227
 51
137.1727628676777
  0
ARC
  5
28E
330
1F
100
AcDbEntity
  8
GR1_01
  6
Continuous
 62
     3
370
    50
100
AcDbCircle
 10
503.2326984486674
 20
265.7557950191568
 30
0.0
 40
4.7625
100
AcDbArc
 50
53.66412896014998
 51
137.1727628676777
  0
ARC
  5
28F
330
1F
100
AcDbEntity
  8
GR1_01
  6
Continuous
 62
     3
370
    50
100
AcDbCircle
 10
499.8187373508081
 20
265.7557950191568
 30
0.0
 40
4.7625
100
AcDbArc
 50
68.9967372344791
 51
137.1727628676777
  0
ARC
  5
290
330
1F
100
AcDbEntity
  8
GR1_01
  6
Continuous
 62
     3
370
    50
100
AcDbCircle
 10
498.8775712111087
 20
265.7557950191568
 30
0.0
 40
4.7625
100
AcDbArc
 50
84.32934550880654
 51
137.1727628676777
  0
ARC
  5
291
330
1F
100
AcDbEntity
  8
GR1_01
  6
Continuous
 62
     3
370
    50
100
AcDbCircle
 10
241.8684813509996
 20
265.7557950191569
 30
0.0
 40
4.7625
100
AcDbArc
 50
42.82723713232251
 51
137.1727628676777
  0
ARC
  5
292
330
1F
100
AcDbEntity
  8
GR1_01
  6
Continuous
 62
     3
370
    50
100
AcDbCircle
 10
232.4286174572565
 20
265.7557950191569
 30
0.0
 40
4.7625
100
AcDbArc
 50
42.82723713232227
 51
137.1727628676777
  0
ARC
  5
293
330
1F
100
AcDbEntity
  8
GR1_01
  6
Continuous
 62
     3
370
    50
100
AcDbCircle
 10
223.6607380841251
 20
265.7557950191569
 30
0.0
 40
4.7625
100
AcDbArc
 50
42.82723713232227
 51
137.1727628676777
  0
ARC
  5
294
330
1F
100
AcDbEntity
  8
GR1_01
  6
Continuous
 62
     3
370
    50
100
AcDbCircle
 10
216.1889919782039
 20
265.7557950191569
 30
0.0
 40
4.7625
100
AcDbArc
 50
42.82723713232227
 51
137.1727628676777
  0
ARC
  5
295
330
1F
100
AcDbEntity
  8
GR1_01
  6
Continuous
 62
     3
370
    50
100
AcDbCircle
 10
210.54526156721
 20
265.7557950191569
 30
0.0
 40
4.7625
100
AcDbArc
 50
53.66412896014998
 51
137.1727628676777
  0
ARC
  5
296
330
1F
100
AcDbEntity
  8
GR1_01
  6
Continuous
 62
     3
370
    50
100
AcDbCircle
 10
207.1313004693505
 20
265.7557950191569
 30
0.0
 40
4.7625
100
AcDbArc
 50
68.9967372344791
 51
137.1727628676777
  0
ARC
  5
297
330
1F
100
AcDbEntity
  8
GR1_01
  6
Continuous
 62
     3
370
    50
100
AcDbCircle
 10
206.1901343296512
 20
265.7557950191569
 30
0.0
 40
4.7625
100
AcDbArc
 50
84.32934550880654
 51
137.1727628676777
  0
LINE
  5
299
330
1F
100
AcDbEntity
  8
基準ﾚｲﾔｸﾞﾙｰﾌﾟ_01
  6
Continuous
 62
     3
370
    50
100
AcDbLine
 10
277.3184813509998
 20
232.6881680002351
 30
0.0
 11
277.3184813509998
 21
241.3484220380794
 31
0.0
  0
LINE
  5
29A
330
1F
100
AcDbEntity
  8
GR1_01
  6
Continuous
 62
     3
370
    50
100
AcDbLine
 10
273.3184813509997
 20
132.9932950191569
 30
0.0
 11
273.3184813509997
 21
245.3364407696646
 31
0.0
  0
LINE
  5
29B
330
1F
100
AcDbEntity
  8
GR1_01
  6
Continuous
 62
     3
370
    50
100
AcDbLine
 10
280.8684813509997
 20
250.793295019157
 30
0.0
 11
280.8584298993924
 21
179.8431023846217
 31
0.0
  0
ARC
  5
29C
330
1F
100
AcDbEntity
  8
GR1_01
  6
Continuous
 62
     3
370
    50
100
AcDbCircle
 10
265.3184813509997
 20
244.4105844220156
 30
0.0
 40
8.0
100
AcDbArc
 50
0.0
 51
71.41265297908153
  0
ARC
  5
29D
330
1F
100
AcDbEntity
  8
GR1_01
  6
Continuous
 62
     3
370
    50
100
AcDbCircle
 10
273.8684813509997
 20
250.793295019157
 30
0.0
 40
7.0
100
AcDbArc
 50
0.0
 51
90.0
  0
ARC
  5
29E
330
1F
100
AcDbEntity
  8
GR1_01
  6
Continuous
 62
     3
370
    50
100
AcDbCircle
 10
280.6175723394609
 20
262.9932950191569
 30
0.0
 40
5.2
100
AcDbArc
 50
270.0
 51
357.188626405473
  0
LINE
  5
29F
330
1F
100
AcDbEntity
  8
GR1_01
  6
Continuous
 62
     3
370
    50
100
AcDbLine
 10
285.811313726879
 20
262.7382452188819
 30
0.0
 11
286.1184813509996
 21
268.9932950191569
 31
0.0
  0
ARC
  5
2A0
330
1F
100
AcDbEntity
  8
GR1_01
  6
Continuous
 62
     3
370
    50
100
AcDbCircle
 10
283.3300926878393
 20
277.5181897548325
 30
0.0
 40
7.0
100
AcDbArc
 50
270.3142170579307
 51
339.0760900045365
  0
ARC
  5
2A1
330
1F
100
AcDbEntity
  8
GR1_01
  6
Continuous
 62
     3
370
    50
100
AcDbCircle
 10
290.8684813509994
 20
275.0182950191568
 30
0.0
 40
1.0
100
AcDbArc
 50
90.0
 51
180.0
  0
LINE
  5
2A2
330
1F
100
AcDbEntity
  8
GR1_01
  6
Continuous
 62
     3
370
    50
100
AcDbLine
 10
301.8684813509994
 20
280.0182950191569
 30
0.0
 11
301.8684813509994
 21
276.0182950191569
 31
0.0
  0
ARC
  5
2A3
330
1F
100
AcDbEntity
  8
GR1_01
  6
Continuous
 62
     3
370
    50
100
AcDbCircle
 10
251.3083452447429
 20
265.7557950191569
 30
0.0
 40
4.7625
100
AcDbArc
 50
42.82723713232251
 51
137.1727628676775
  0
ARC
  5
2A4
330
1F
100
AcDbEntity
  8
GR1_01
  6
Continuous
 62
     3
370
    50
100
AcDbCircle
 10
260.0762246178742
 20
265.7557950191569
 30
0.0
 40
4.7625
100
AcDbArc
 50
42.82723713232251
 51
137.1727628676775
  0
ARC
  5
2A5
330
1F
100
AcDbEntity
  8
GR1_01
  6
Continuous
 62
     3
370
    50
100
AcDbCircle
 10
267.5479707237953
 20
265.7557950191569
 30
0.0
 40
4.7625
100
AcDbArc
 50
42.82723713232251
 51
137.1727628676775
  0
ARC
  5
2A6
330
1F
100
AcDbEntity
  8
GR1_01
  6
Continuous
 62
     3
370
    50
100
AcDbCircle
 10
273.1917011347892
 20
265.7557950191569
 30
0.0
 40
4.7625
100
AcDbArc
 50
42.82723713232251
 51
126.33587103985
  0
ARC
  5
2A7
330
1F
100
AcDbEntity
  8
GR1_01
  6
Continuous
 62
     3
370
    50
100
AcDbCircle
 10
276.6056622326487
 20
265.7557950191569
 30
0.0
 40
4.7625
100
AcDbArc
 50
42.82723713232251
 51
111.0032627655209
  0
ARC
  5
2A8
330
1F
100
AcDbEntity
  8
GR1_01
  6
Continuous
 62
     3
370
    50
100
AcDbCircle
 10
277.546828372348
 20
265.7557950191569
 30
0.0
 40
4.7625
100
AcDbArc
 50
42.82723713232251
 51
95.67065449119346
  0
LINE
  5
2A9
330
1F
100
AcDbEntity
  8
GR1_01
  6
Continuous
 62
     3
370
    50
100
AcDbLine
 10
213.6184813509997
 20
167.0182950191572
 30
0.0
 11
213.8684813509996
 21
167.0182950191572
 31
0.0
  0
LINE
  5
2AA
330
1F
100
AcDbEntity
  8
GR1_01
  6
Continuous
 62
     3
370
    50
100
AcDbLine
 10
213.8684813509996
 20
147.0182950191572
 30
0.0
 11
213.6184813509997
 21
147.0182950191572
 31
0.0
  0
LINE
  5
2AB
330
1F
100
AcDbEntity
  8
GR1_01
  6
Continuous
 62
     3
370
    50
100
AcDbLine
 10
270.1184813509997
 20
167.0182950191572
 30
0.0
 11
269.8684813509997
 21
167.0182950191572
 31
0.0
  0
LINE
  5
2AC
330
1F
100
AcDbEntity
  8
GR1_01
  6
Continuous
 62
     3
370
    50
100
AcDbLine
 10
269.8684813509997
 20
147.0182950191572
 30
0.0
 11
270.1184813509997
 21
147.0182950191572
 31
0.0
  0
LINE
  5
2AD
330
1F
100
AcDbEntity
  8
GR1_01
  6
DASHDOT
 62
     6
370
    25
100
AcDbLine
 10
578.055918232457
 20
483.3896965576458
 30
0.0
 11
578.055918232457
 21
499.1706628754386
 31
0.0
  0
LINE
  5
2AE
330
1F
100
AcDbEntity
  8
GR1_01
  6
DASHDOT
 62
     6
370
    25
100
AcDbLine
 10
571.0672852404865
 20
490.3821839080458
 30
0.0
 11
586.580777552893
 21
490.3821839080458
 31
0.0
  0
LINE
  5
2AF
330
1F
100
AcDbEntity
  8
GR1_01
  6
DASHDOT
 62
     6
370
    25
100
AcDbLine
 10
587.6841078251115
 20
493.3821839080458
 30
0.0
 11
572.4046552674181
 21
493.3821839080458
 31
0.0
  0
LINE
  5
2B0
330
1F
100
AcDbEntity
  8
GR1_01
  6
DASHDOT
 62
     6
370
    25
100
AcDbLine
 10
581.055918232457
 20
499.9730848915974
 30
0.0
 11
581.055918232457
 21
484.3927240778444
 31
0.0
  0
LINE
  5
2B1
330
1F
100
AcDbEntity
  8
図面枠ﾚｲﾔ_01
  6
DASHDOT
 62
     6
370
    25
100
AcDbLine
 10
488.0559182324572
 20
284.5166736961073
 30
0.0
 11
488.0559182324572
 21
269.1014189425649
 31
0.0
  0
LINE
  5
2B2
330
1F
100
AcDbEntity
  8
図面枠ﾚｲﾔ_01
  6
DASHDOT
 62
     6
370
    25
100
AcDbLine
 10
491.0559182324572
 20
284.5166736961073
 30
0.0
 11
491.0559182324572
 21
269.1014189425649
 31
0.0
  0
LINE
  5
2B3
330
1F
100
AcDbEntity
  8
GR1_01
  6
DASHDOT
 62
     6
370
    25
100
AcDbLine
 10
491.055918232457
 20
483.3896965576458
 30
0.0
 11
491.055918232457
 21
499.1706628754386
 31
0.0
  0
LINE
  5
2B4
330
1F
100
AcDbEntity
  8
GR1_01
  6
DASHDOT
 62
     6
370
    25
100
AcDbLine
 10
498.0445512244274
 20
490.3821839080458
 30
0.0
 11
482.531058912021
 21
490.3821839080458
 31
0.0
  0
LINE
  5
2B5
330
1F
100
AcDbEntity
  8
GR1_01
  6
DASHDOT
 62
     6
370
    25
100
AcDbLine
 10
481.4277286398025
 20
493.3821839080458
 30
0.0
 11
496.7071811974959
 21
493.3821839080458
 31
0.0
  0
LINE
  5
2B6
330
1F
100
AcDbEntity
  8
GR1_01
  6
DASHDOT
 62
     6
370
    25
100
AcDbLine
 10
488.055918232457
 20
499.9730848915974
 30
0.0
 11
488.055918232457
 21
484.3927240778444
 31
0.0
  0
LINE
  5
2B7
330
1F
100
AcDbEntity
  8
GR1_01
  6
DASHDOT
 62
     6
370
    25
100
AcDbLine
 10
578.055918232457
 20
410.3746712584459
 30
0.0
 11
578.055918232457
 21
394.5937049406531
 31
0.0
  0
LINE
  5
2B8
330
1F
100
AcDbEntity
  8
GR1_01
  6
DASHDOT
 62
     6
370
    25
100
AcDbLine
 10
571.0672852404865
 20
403.3821839080459
 30
0.0
 11
586.580777552893
 21
403.3821839080459
 31
0.0
  0
LINE
  5
2B9
330
1F
100
AcDbEntity
  8
GR1_01
  6
DASHDOT
 62
     6
370
    25
100
AcDbLine
 10
587.6841078251115
 20
400.3821839080459
 30
0.0
 11
572.4046552674181
 21
400.3821839080459
 31
0.0
  0
LINE
  5
2BA
330
1F
100
AcDbEntity
  8
GR1_01
  6
DASHDOT
 62
     6
370
    25
100
AcDbLine
 10
581.055918232457
 20
393.7912829244942
 30
0.0
 11
581.055918232457
 21
409.3716437382472
 31
0.0
  0
LINE
  5
2BB
330
1F
100
AcDbEntity
  8
GR1_01
  6
DASHDOT
 62
     6
370
    25
100
AcDbLine
 10
491.055918232457
 20
410.3746712584459
 30
0.0
 11
491.055918232457
 21
394.5937049406531
 31
0.0
  0
LINE
  5
2BC
330
1F
100
AcDbEntity
  8
GR1_01
  6
DASHDOT
 62
     6
370
    25
100
AcDbLine
 10
498.0445512244274
 20
403.3821839080459
 30
0.0
 11
482.531058912021
 21
403.3821839080459
 31
0.0
  0
LINE
  5
2BD
330
1F
100
AcDbEntity
  8
GR1_01
  6
DASHDOT
 62
     6
370
    25
100
AcDbLine
 10
481.4277286398025
 20
400.3821839080459
 30
0.0
 11
496.7071811974959
 21
400.3821839080459
 31
0.0
  0
LINE
  5
2BE
330
1F
100
AcDbEntity
  8
GR1_01
  6
DASHDOT
 62
     6
370
    25
100
AcDbLine
 10
488.055918232457
 20
393.7912829244942
 30
0.0
 11
488.055918232457
 21
409.3716437382472
 31
0.0
  0
LINE
  5
2BF
330
1F
100
AcDbEntity
  8
図面枠ﾚｲﾔ_01
  6
DASHDOT
 62
     6
370
    25
100
AcDbLine
 10
581.055918232457
 20
284.5166736961073
 30
0.0
 11
581.055918232457
 21
269.1014189425649
 31
0.0
  0
LINE
  5
2C0
330
1F
100
AcDbEntity
  8
図面枠ﾚｲﾔ_01
  6
DASHDOT
 62
     6
370
    25
100
AcDbLine
 10
578.055918232457
 20
284.5166736961073
 30
0.0
 11
578.055918232457
 21
269.1014189425649
 31
0.0
  0
LINE
  5
2C1
330
1F
100
AcDbEntity
  8
図面枠ﾚｲﾔ_01
  6
DASHDOT
 62
     6
370
    25
100
AcDbLine
 10
195.3684813509998
 20
284.5166736961073
 30
0.0
 11
195.3684813509998
 21
269.1014189425649
 31
0.0
  0
LINE
  5
2C2
330
1F
100
AcDbEntity
  8
図面枠ﾚｲﾔ_01
  6
DASHDOT
 62
     6
370
    25
100
AcDbLine
 10
198.3684813509998
 20
284.5166736961073
 30
0.0
 11
198.3684813509998
 21
269.1014189425649
 31
0.0
  0
LINE
  5
2C3
330
1F
100
AcDbEntity
  8
図面枠ﾚｲﾔ_01
  6
DASHDOT
 62
     6
370
    25
100
AcDbLine
 10
288.3684813509996
 20
284.5166736961073
 30
0.0
 11
288.3684813509996
 21
269.1014189425649
 31
0.0
  0
LINE
  5
2C4
330
1F
100
AcDbEntity
  8
図面枠ﾚｲﾔ_01
  6
DASHDOT
 62
     6
370
    25
100
AcDbLine
 10
285.3684813509996
 20
284.5166736961073
 30
0.0
 11
285.3684813509996
 21
269.1014189425649
 31
0.0
  0
LINE
  5
2C5
330
1F
100
AcDbEntity
  8
GR1_01
  6
Continuous
 62
     3
370
    50
100
AcDbLine
 10
482.0290455509931
 20
233.1304939812953
 30
0.0
 11
482.6905605037743
 21
235.7836855411588
 31
0.0
  0
TEXT
  5
2C6
330
1F
100
AcDbEntity
  8
GR1_01
  6
Continuous
 62
     7
370
    25
100
AcDbText
 10
184.7498474121094
 20
151.018310546875
 30
0.0
 40
4.0
  1
φ１５０
 50
90.0
 41
0.9130434782608696
  7
FX_VECTOR
 72
     5
 11
184.7498474121094
 21
163.018310546875
 31
0.0
100
AcDbText
  0
LINE
  5
2C7
330
1F
100
AcDbEntity
  8
GR1_01
  6
Continuous
 62
     7
370
    25
100
AcDbLine
 10
240.8684813509997
 20
82.01829501915722
 30
0.0
 11
184.749856615787
 21
82.01829501915722
 31
0.0
  0
LINE
  5
2C8
330
1F
100
AcDbEntity
  8
GR1_01
  6
Continuous
 62
     7
370
    25
100
AcDbLine
 10
240.8684813509997
 20
232.0182950191572
 30
0.0
 11
184.749856615787
 21
232.0182950191572
 31
0.0
  0
LINE
  5
2C9
330
1F
100
AcDbEntity
  8
GR1_01
  6
Continuous
 62
     7
370
    25
100
AcDbLine
 10
185.749856615787
 20
82.01829501915722
 30
0.0
 11
185.749856615787
 21
232.0182950191572
 31
0.0
  0
INSERT
  5
2CA
330
1F
100
AcDbEntity
  8
GR1_01
  6
Continuous
 62
     7
370
    25
100
AcDbBlockReference
  2
FXTIP_ARROW_S
 10
185.749856615787
 20
82.01829501915722
 30
0.0
 41
4.0
 42
4.0
 50
270.0
  0
INSERT
  5
2CB
330
1F
100
AcDbEntity
  8
GR1_01
  6
Continuous
 62
     7
370
    25
100
AcDbBlockReference
  2
FXTIP_ARROW_E
 10
185.749856615787
 20
232.0182950191572
 30
0.0
 41
4.0
 42
4.0
 50
90.0
  0
TEXT
  5
2CC
330
1F
100
AcDbEntity
  8
GR1_01
  6
Continuous
 62
     7
370
    25
100
AcDbText
 10
530.055908203125
 20
357.6969909667969
 30
0.0
 40
4.0
  1
１２０
 41
0.9264705882352942
  7
FX_VECTOR
 72
     5
 11
539.055908203125
 21
357.6969909667969
 31
0.0
100
AcDbText
  0
LINE
  5
2CD
330
1F
100
AcDbEntity
  8
GR1_01
  6
Continuous
 62
     7
370
    25
100
AcDbLine
 10
474.555918232457
 20
402.3821839080458
 30
0.0
 11
474.555918232457
 21
355.6970181683652
 31
0.0
  0
LINE
  5
2CE
330
1F
100
AcDbEntity
  8
GR1_01
  6
Continuous
 62
     7
370
    25
100
AcDbLine
 10
594.555918232457
 20
402.3821839080458
 30
0.0
 11
594.555918232457
 21
355.6970181683652
 31
0.0
  0
LINE
  5
2CF
330
1F
100
AcDbEntity
  8
GR1_01
  6
Continuous
 62
     7
370
    25
100
AcDbLine
 10
474.555918232457
 20
356.6970181683652
 30
0.0
 11
594.555918232457
 21
356.6970181683652
 31
0.0
  0
INSERT
  5
2D0
330
1F
100
AcDbEntity
  8
GR1_01
  6
Continuous
 62
     7
370
    25
100
AcDbBlockReference
  2
FXTIP_ARROW_S
 10
474.555918232457
 20
356.6970181683652
 30
0.0
 41
4.0
 42
4.0
 50
180.0
  0
INSERT
  5
2D1
330
1F
100
AcDbEntity
  8
GR1_01
  6
Continuous
 62
     7
370
    25
100
AcDbBlockReference
  2
FXTIP_ARROW_E
 10
594.555918232457
 20
356.6970181683652
 30
0.0
 41
4.0
 42
4.0
 50
360.0
  0
TEXT
  5
2D2
330
1F
100
AcDbEntity
  8
GR1_01
  6
Continuous
 62
     7
370
    25
100
AcDbText
 10
531.555908203125
 20
367.697021484375
 30
0.0
 40
4.0
  1
９３
 41
0.9545454545454547
  7
FX_VECTOR
 72
     5
 11
537.555908203125
 21
367.697021484375
 31
0.0
100
AcDbText
  0
LINE
  5
2D3
330
1F
100
AcDbEntity
  8
GR1_01
  6
Continuous
 62
     7
370
    25
100
AcDbLine
 10
488.055918232457
 20
390.8821839080458
 30
0.0
 11
488.055918232457
 21
365.6970181683652
 31
0.0
  0
LINE
  5
2D4
330
1F
100
AcDbEntity
  8
GR1_01
  6
Continuous
 62
     7
370
    25
100
AcDbLine
 10
581.055918232457
 20
390.8821839080458
 30
0.0
 11
581.055918232457
 21
365.6970181683652
 31
0.0
  0
LINE
  5
2D5
330
1F
100
AcDbEntity
  8
GR1_01
  6
Continuous
 62
     7
370
    25
100
AcDbLine
 10
488.055918232457
 20
366.6970181683652
 30
0.0
 11
581.055918232457
 21
366.6970181683652
 31
0.0
  0
INSERT
  5
2D6
330
1F
100
AcDbEntity
  8
GR1_01
  6
Continuous
 62
     7
370
    25
100
AcDbBlockReference
  2
FXTIP_ARROW_S
 10
488.055918232457
 20
366.6970181683652
 30
0.0
 41
4.0
 42
4.0
 50
180.0
  0
INSERT
  5
2D7
330
1F
100
AcDbEntity
  8
GR1_01
  6
Continuous
 62
     7
370
    25
100
AcDbBlockReference
  2
FXTIP_ARROW_E
 10
581.055918232457
 20
366.6970181683652
 30
0.0
 41
4.0
 42
4.0
 50
360.0
  0
TEXT
  5
2D8
330
1F
100
AcDbEntity
  8
GR1_01
  6
Continuous
 62
     7
370
    25
100
AcDbText
 10
531.555908203125
 20
377.697021484375
 30
0.0
 40
4.0
  1
８７
 41
0.9545454545454547
  7
FX_VECTOR
 72
     5
 11
537.555908203125
 21
377.697021484375
 31
0.0
100
AcDbText
  0
LINE
  5
2D9
330
1F
100
AcDbEntity
  8
GR1_01
  6
Continuous
 62
     7
370
    25
100
AcDbLine
 10
491.055918232457
 20
393.8821839080458
 30
0.0
 11
491.055918232457
 21
375.6970181683652
 31
0.0
  0
LINE
  5
2DA
330
1F
100
AcDbEntity
  8
GR1_01
  6
Continuous
 62
     7
370
    25
100
AcDbLine
 10
578.055918232457
 20
393.8821839080458
 30
0.0
 11
578.055918232457
 21
375.6970181683652
 31
0.0
  0
LINE
  5
2DB
330
1F
100
AcDbEntity
  8
GR1_01
  6
Continuous
 62
     7
370
    25
100
AcDbLine
 10
491.055918232457
 20
376.6970181683652
 30
0.0
 11
578.055918232457
 21
376.6970181683652
 31
0.0
  0
INSERT
  5
2DC
330
1F
100
AcDbEntity
  8
GR1_01
  6
Continuous
 62
     7
370
    25
100
AcDbBlockReference
  2
FXTIP_ARROW_S
 10
491.055918232457
 20
376.6970181683652
 30
0.0
 41
4.0
 42
4.0
 50
180.0
  0
INSERT
  5
2DD
330
1F
100
AcDbEntity
  8
GR1_01
  6
Continuous
 62
     7
370
    25
100
AcDbBlockReference
  2
FXTIP_ARROW_E
 10
578.055918232457
 20
376.6970181683652
 30
0.0
 41
4.0
 42
4.0
 50
360.0
  0
TEXT
  5
2DE
330
1F
100
AcDbEntity
  8
GR1_01
  6
Continuous
 62
     7
370
    25
100
AcDbText
 10
623.5501098632812
 20
442.3821716308594
 30
0.0
 40
4.0
  1
１２０
 50
90.0
 41
0.9264705882352942
  7
FX_VECTOR
 72
     5
 11
623.5501098632812
 21
451.3821716308594
 31
0.0
100
AcDbText
  0
LINE
  5
2DF
330
1F
100
AcDbEntity
  8
GR1_01
  6
Continuous
 62
     7
370
    25
100
AcDbLine
 10
579.055918232457
 20
386.8821839080458
 30
0.0
 11
625.5501576098114
 21
386.8821839080458
 31
0.0
  0
LINE
  5
2E0
330
1F
100
AcDbEntity
  8
GR1_01
  6
Continuous
 62
     7
370
    25
100
AcDbLine
 10
579.055918232457
 20
506.8821839080458
 30
0.0
 11
625.5501576098114
 21
506.8821839080458
 31
0.0
  0
LINE
  5
2E1
330
1F
100
AcDbEntity
  8
GR1_01
  6
Continuous
 62
     7
370
    25
100
AcDbLine
 10
624.5501576098114
 20
386.8821839080458
 30
0.0
 11
624.5501576098114
 21
506.8821839080458
 31
0.0
  0
INSERT
  5
2E2
330
1F
100
AcDbEntity
  8
GR1_01
  6
Continuous
 62
     7
370
    25
100
AcDbBlockReference
  2
FXTIP_ARROW_S
 10
624.5501576098114
 20
386.8821839080458
 30
0.0
 41
4.0
 42
4.0
 50
270.0
  0
INSERT
  5
2E3
330
1F
100
AcDbEntity
  8
GR1_01
  6
Continuous
 62
     7
370
    25
100
AcDbBlockReference
  2
FXTIP_ARROW_E
 10
624.5501576098114
 20
506.8821839080458
 30
0.0
 41
4.0
 42
4.0
 50
90.0
  0
TEXT
  5
2E4
330
1F
100
AcDbEntity
  8
GR1_01
  6
Continuous
 62
     7
370
    25
100
AcDbText
 10
613.5501098632812
 20
443.8821716308594
 30
0.0
 40
4.0
  1
９３
 50
90.0
 41
0.9545454545454547
  7
FX_VECTOR
 72
     5
 11
613.5501098632812
 21
449.8821716308594
 31
0.0
100
AcDbText
  0
LINE
  5
2E5
330
1F
100
AcDbEntity
  8
GR1_01
  6
Continuous
 62
     7
370
    25
100
AcDbLine
 10
590.555918232457
 20
400.3821839080458
 30
0.0
 11
615.5501576098114
 21
400.3821839080458
 31
0.0
  0
LINE
  5
2E6
330
1F
100
AcDbEntity
  8
GR1_01
  6
Continuous
 62
     7
370
    25
100
AcDbLine
 10
590.555918232457
 20
493.3821839080458
 30
0.0
 11
615.5501576098114
 21
493.3821839080458
 31
0.0
  0
LINE
  5
2E7
330
1F
100
AcDbEntity
  8
GR1_01
  6
Continuous
 62
     7
370
    25
100
AcDbLine
 10
614.5501576098114
 20
400.3821839080458
 30
0.0
 11
614.5501576098114
 21
493.3821839080458
 31
0.0
  0
INSERT
  5
2E8
330
1F
100
AcDbEntity
  8
GR1_01
  6
Continuous
 62
     7
370
    25
100
AcDbBlockReference
  2
FXTIP_ARROW_S
 10
614.5501576098114
 20
400.3821839080458
 30
0.0
 41
4.0
 42
4.0
 50
270.0
  0
INSERT
  5
2E9
330
1F
100
AcDbEntity
  8
GR1_01
  6
Continuous
 62
     7
370
    25
100
AcDbBlockReference
  2
FXTIP_ARROW_E
 10
614.5501576098114
 20
493.3821839080458
 30
0.0
 41
4.0
 42
4.0
 50
90.0
  0
TEXT
  5
2EA
330
1F
100
AcDbEntity
  8
GR1_01
  6
Continuous
 62
     7
370
    25
100
AcDbText
 10
603.5501098632812
 20
443.8821716308594
 30
0.0
 40
4.0
  1
８７
 50
90.0
 41
0.9545454545454547
  7
FX_VECTOR
 72
     5
 11
603.5501098632812
 21
449.8821716308594
 31
0.0
100
AcDbText
  0
LINE
  5
2EB
330
1F
100
AcDbEntity
  8
GR1_01
  6
Continuous
 62
     7
370
    25
100
AcDbLine
 10
587.555918232457
 20
403.3821839080458
 30
0.0
 11
605.5501576098114
 21
403.3821839080458
 31
0.0
  0
LINE
  5
2EC
330
1F
100
AcDbEntity
  8
GR1_01
  6
Continuous
 62
     7
370
    25
100
AcDbLine
 10
587.555918232457
 20
490.3821839080458
 30
0.0
 11
605.5501576098114
 21
490.3821839080458
 31
0.0
  0
LINE
  5
2ED
330
1F
100
AcDbEntity
  8
GR1_01
  6
Continuous
 62
     7
370
    25
100
AcDbLine
 10
604.5501576098114
 20
403.3821839080458
 30
0.0
 11
604.5501576098114
 21
490.3821839080458
 31
0.0
  0
INSERT
  5
2EE
330
1F
100
AcDbEntity
  8
GR1_01
  6
Continuous
 62
     7
370
    25
100
AcDbBlockReference
  2
FXTIP_ARROW_S
 10
604.5501576098114
 20
403.3821839080458
 30
0.0
 41
4.0
 42
4.0
 50
270.0
  0
INSERT
  5
2EF
330
1F
100
AcDbEntity
  8
GR1_01
  6
Continuous
 62
     7
370
    25
100
AcDbBlockReference
  2
FXTIP_ARROW_E
 10
604.5501576098114
 20
490.3821839080458
 30
0.0
 41
4.0
 42
4.0
 50
90.0
  0
TEXT
  5
2F0
330
1F
100
AcDbEntity
  8
GR1_01
  6
Continuous
 62
     7
370
    25
100
AcDbText
 10
613.6317749023438
 20
176.518310546875
 30
0.0
 40
4.0
  1
１９８
 50
90.0
 41
0.9264705882352942
  7
FX_VECTOR
 72
     5
 11
613.6317749023438
 21
185.518310546875
 31
0.0
100
AcDbText
  0
LINE
  5
2F1
330
1F
100
AcDbEntity
  8
GR1_01
  6
Continuous
 62
     7
370
    25
100
AcDbLine
 10
595.555918232457
 20
280.0182950191572
 30
0.0
 11
615.6318319285531
 21
280.0182950191572
 31
0.0
  0
LINE
  5
2F2
330
1F
100
AcDbEntity
  8
GR1_01
  6
Continuous
 62
     7
370
    25
100
AcDbLine
 10
490.5559182324571
 20
82.01829514833798
 30
0.0
 11
615.6318319285531
 21
82.01829514833798
 31
0.0
  0
LINE
  5
2F3
330
1F
100
AcDbEntity
  8
GR1_01
  6
Continuous
 62
     7
370
    25
100
AcDbLine
 10
614.6318319285531
 20
280.0182950191572
 30
0.0
 11
614.6318319285531
 21
82.01829514833798
 31
0.0
  0
INSERT
  5
2F4
330
1F
100
AcDbEntity
  8
GR1_01
  6
Continuous
 62
     7
370
    25
100
AcDbBlockReference
  2
FXTIP_ARROW_S
 10
614.6318319285531
 20
280.0182950191572
 30
0.0
 41
4.0
 42
4.0
 50
90.0
  0
INSERT
  5
2F5
330
1F
100
AcDbEntity
  8
GR1_01
  6
Continuous
 62
     7
370
    25
100
AcDbBlockReference
  2
FXTIP_ARROW_E
 10
614.6318319285531
 20
82.01829514833798
 30
0.0
 41
4.0
 42
4.0
 50
270.0
  0
TEXT
  5
2F6
330
1F
100
AcDbEntity
  8
GR1_01
  6
Continuous
 62
     7
370
    25
100
AcDbText
 10
603.6317749023438
 20
214.018310546875
 30
0.0
 40
4.0
  1
１２３
 50
90.0
 41
0.9264705882352942
  7
FX_VECTOR
 72
     5
 11
603.6317749023438
 21
223.018310546875
 31
0.0
100
AcDbText
  0
LINE
  5
2F7
330
1F
100
AcDbEntity
  8
GR1_01
  6
Continuous
 62
     7
370
    25
100
AcDbLine
 10
569.4002951554602
 20
157.0182950191572
 30
0.0
 11
605.6318319285531
 21
157.0182950191572
 31
0.0
  0
LINE
  5
2F8
330
1F
100
AcDbEntity
  8
GR1_01
  6
Continuous
 62
     7
370
    25
100
AcDbLine
 10
604.6318319285531
 20
157.0182950191572
 30
0.0
 11
604.6318319285531
 21
280.0182950191572
 31
0.0
  0
INSERT
  5
2F9
330
1F
100
AcDbEntity
  8
GR1_01
  6
Continuous
 62
     7
370
    25
100
AcDbBlockReference
  2
FXTIP_ARROW_S
 10
604.6318319285531
 20
157.0182950191572
 30
0.0
 41
4.0
 42
4.0
 50
270.0
  0
INSERT
  5
2FA
330
1F
100
AcDbEntity
  8
GR1_01
  6
Continuous
 62
     7
370
    25
100
AcDbBlockReference
  2
FXTIP_ARROW_E
 10
604.6318319285531
 20
280.0182950191572
 30
0.0
 41
4.0
 42
4.0
 50
90.0
  0
TEXT
  5
2FB
330
1F
100
AcDbEntity
  8
GR1_01
  6
Continuous
 62
     7
370
    25
100
AcDbText
 10
509.055908203125
 20
72.93988037109375
 30
0.0
 40
4.0
  1
４５
 41
0.9545454545454547
  7
FX_VECTOR
 72
     5
 11
515.055908203125
 21
72.93988037109375
 31
0.0
100
AcDbText
  0
LINE
  5
2FC
330
1F
100
AcDbEntity
  8
GR1_01
  6
Continuous
 62
     7
370
    25
100
AcDbLine
 10
489.5559182324571
 20
77.64070849000393
 30
0.0
 11
489.5559182324571
 21
70.93988705013578
 31
0.0
  0
LINE
  5
2FD
330
1F
100
AcDbEntity
  8
GR1_01
  6
Continuous
 62
     7
370
    25
100
AcDbLine
 10
534.5559182324571
 20
180.1055073474645
 30
0.0
 11
534.5559182324571
 21
70.93988705013578
 31
0.0
  0
LINE
  5
2FE
330
1F
100
AcDbEntity
  8
GR1_01
  6
Continuous
 62
     7
370
    25
100
AcDbLine
 10
489.5559182324571
 20
71.93988705013578
 30
0.0
 11
534.5559182324571
 21
71.93988705013578
 31
0.0
  0
INSERT
  5
2FF
330
1F
100
AcDbEntity
  8
GR1_01
  6
Continuous
 62
     7
370
    25
100
AcDbBlockReference
  2
FXTIP_ARROW_S
 10
489.5559182324571
 20
71.93988705013578
 30
0.0
 41
4.0
 42
4.0
 50
180.0
  0
INSERT
  5
300
330
1F
100
AcDbEntity
  8
GR1_01
  6
Continuous
 62
     7
370
    25
100
AcDbBlockReference
  2
FXTIP_ARROW_E
 10
534.5559182324571
 20
71.93988705013578
 30
0.0
 41
4.0
 42
4.0
 50
360.0
  0
TEXT
  5
301
330
1F
100
AcDbEntity
  8
GR1_01
  6
Continuous
 62
     7
370
    25
100
AcDbText
 10
425.7478755206608
 20
378.0004906247683
 30
0.0
 40
4.0
  1
１３６．５
 50
32.70262145996082
 41
0.9051724137931026
  7
FX_VECTOR
 72
     5
 11
438.3701664715267
 21
386.1046729494504
 31
0.0
100
AcDbText
  0
LINE
  5
302
330
1F
100
AcDbEntity
  8
GR1_01
  6
Continuous
 62
     7
370
    25
100
AcDbLine
 10
419.6780244877857
 20
373.1244639304388
 30
0.0
 11
534.555918232457
 21
446.8821839080458
 31
0.0
  0
INSERT
  5
303
330
1F
100
AcDbEntity
  8
GR1_01
  6
Continuous
 62
     7
370
    25
100
AcDbBlockReference
  2
FXTIP_ARROW_S
 10
419.6780244877857
 20
373.1244639304388
 30
0.0
 41
4.0
 42
4.0
 50
212.7026216123816
  0
TEXT
  5
304
330
1F
100
AcDbEntity
  8
GR1_01
  6
Continuous
 62
     7
370
    25
100
AcDbText
 10
469.6140487660057
 20
503.338719176162
 30
0.0
 40
4.0
  1
４－１１
 50
45.0
 41
0.9130434782608648
  7
FX_VECTOR
 72
     5
 11
478.0993301402443
 21
511.8240005504005
 31
0.0
100
AcDbText
  0
LINE
  5
305
330
1F
100
AcDbEntity
  8
GR1_01
  6
Continuous
 62
     7
370
    25
100
AcDbLine
 10
483.4597241547445
 20
490.2002033927064
 30
0.0
 11
469.9675982837021
 21
503.6923292637491
 31
0.0
  0
LINE
  5
306
330
1F
100
AcDbEntity
  8
GR1_01
  6
Continuous
 62
     7
370
    25
100
AcDbLine
 10
491.2378987477966
 20
497.9783779857584
 30
0.0
 11
477.7457728767542
 21
511.4705038568011
 31
0.0
  0
LINE
  5
307
330
1F
100
AcDbEntity
  8
GR1_01
  6
Continuous
 62
     7
370
    25
100
AcDbLine
 10
470.6747050648887
 20
502.9852224825627
 30
0.0
 11
478.4528796579408
 21
510.7633970756145
 31
0.0
  0
INSERT
  5
308
330
1F
100
AcDbEntity
  8
GR1_01
  6
Continuous
 62
     7
370
    25
100
AcDbBlockReference
  2
FXTIP_ARROW_S
 10
470.6747050648887
 20
502.9852224825627
 30
0.0
 41
4.0
 42
4.0
 50
224.9999999999989
  0
INSERT
  5
309
330
1F
100
AcDbEntity
  8
GR1_01
  6
Continuous
 62
     7
370
    25
100
AcDbBlockReference
  2
FXTIP_ARROW_E
 10
478.4528796579408
 20
510.7633970756145
 30
0.0
 41
4.0
 42
4.0
 50
44.99999999999893
  0
TEXT
  5
30A
330
1F
100
AcDbEntity
  8
GR1_01
  6
Continuous
 62
     7
370
    25
100
AcDbText
 10
286.6184692382812
 20
301.0214233398438
 30
0.0
 40
4.0
  1
１０４．５
 41
0.9051724137931035
  7
FX_VECTOR
 72
     5
 11
301.6184692382812
 21
301.0214233398438
 31
0.0
100
AcDbText
  0
LINE
  5
30B
330
1F
100
AcDbEntity
  8
GR1_01
  6
Continuous
 62
     7
370
    25
100
AcDbLine
 10
241.8684813509997
 20
281.0182950191572
 30
0.0
 11
241.8684813509997
 21
301.0214367630632
 31
0.0
  0
LINE
  5
30C
330
1F
100
AcDbEntity
  8
GR1_01
  6
Continuous
 62
     7
370
    25
100
AcDbLine
 10
346.3684813509997
 20
223.5933621163392
 30
0.0
 11
346.3684813509997
 21
301.0214367630632
 31
0.0
  0
LINE
  5
30D
330
1F
100
AcDbEntity
  8
GR1_01
  6
Continuous
 62
     7
370
    25
100
AcDbLine
 10
241.8684813509997
 20
300.0214367630632
 30
0.0
 11
346.3684813509997
 21
300.0214367630632
 31
0.0
  0
INSERT
  5
30E
330
1F
100
AcDbEntity
  8
GR1_01
  6
Continuous
 62
     7
370
    25
100
AcDbBlockReference
  2
FXTIP_ARROW_S
 10
241.8684813509997
 20
300.0214367630632
 30
0.0
 41
4.0
 42
4.0
 50
180.0
  0
INSERT
  5
30F
330
1F
100
AcDbEntity
  8
GR1_01
  6
Continuous
 62
     7
370
    25
100
AcDbBlockReference
  2
FXTIP_ARROW_E
 10
346.3684813509997
 20
300.0214367630632
 30
0.0
 41
4.0
 42
4.0
 50
360.0
  0
ARC
  5
310
330
1F
100
AcDbEntity
  8
基準ﾚｲﾔｸﾞﾙｰﾌﾟ_01
  6
Continuous
 62
     3
370
    50
100
AcDbCircle
 10
489.555918232457
 20
157.0182950191571
 30
0.0
 40
75.0
100
AcDbArc
 50
124.9942054529672
 51
43.25969094688472
  0
LINE
  5
311
330
1F
100
AcDbEntity
  8
基準ﾚｲﾔｸﾞﾙｰﾌﾟ_01
  6
Continuous
 62
     3
370
    50
100
AcDbLine
 10
215.8684813509997
 20
187.6070842367347
 30
0.0
 11
215.8684813509997
 21
126.4295058015797
 31
0.0
  0
ARC
  5
312
330
1F
100
AcDbEntity
  8
基準ﾚｲﾔｸﾞﾙｰﾌﾟ_01
  6
Continuous
 62
     3
370
    50
100
AcDbCircle
 10
222.8684813509997
 20
229.0182950191572
 30
0.0
 40
3.0
100
AcDbArc
 50
90.0
 51
180.0
  0
ARC
  5
313
330
1F
100
AcDbEntity
  8
基準ﾚｲﾔｸﾞﾙｰﾌﾟ_01
  6
Continuous
 62
     3
370
    50
100
AcDbCircle
 10
218.8684813509997
 20
187.6070842367347
 30
0.0
 40
3.0
100
AcDbArc
 50
114.9999999999998
 51
180.0
  0
LINE
  5
314
330
1F
100
AcDbEntity
  8
基準ﾚｲﾔｸﾞﾙｰﾌﾟ_01
  6
Continuous
 62
     3
370
    50
100
AcDbLine
 10
260.8684813509997
 20
232.0182950191572
 30
0.0
 11
213.6184813509997
 21
232.0182950191573
 31
0.0
  0
LINE
  5
315
330
1F
100
AcDbEntity
  8
基準ﾚｲﾔｸﾞﾙｰﾌﾟ_01
  6
Continuous
 62
     3
370
    50
100
AcDbLine
 10
219.6375286556959
 20
191.2758306412856
 30
0.0
 11
217.6006265657776
 21
190.3260075978447
 31
0.0
  0
LINE
  5
316
330
1F
100
AcDbEntity
  8
基準ﾚｲﾔｸﾞﾙｰﾌﾟ_01
  6
Continuous
 62
     3
370
    50
100
AcDbLine
 10
219.8684813509997
 20
229.0182950191572
 30
0.0
 11
219.8684813509998
 21
85.0182950191572
 31
0.0
  0
ARC
  5
317
330
1F
100
AcDbEntity
  8
基準ﾚｲﾔｸﾞﾙｰﾌﾟ_01
  6
Continuous
 62
     3
370
    50
100
AcDbCircle
 10
222.8684813509997
 20
85.0182950191572
 30
0.0
 40
3.0
100
AcDbArc
 50
180.0
 51
270.0
  0
ARC
  5
318
330
1F
100
AcDbEntity
  8
基準ﾚｲﾔｸﾞﾙｰﾌﾟ_01
  6
Continuous
 62
     3
370
    50
100
AcDbCircle
 10
218.8684813509997
 20
126.4295058015797
 30
0.0
 40
3.0
100
AcDbArc
 50
180.0
 51
245.0000000000002
  0
LINE
  5
319
330
1F
100
AcDbEntity
  8
基準ﾚｲﾔｸﾞﾙｰﾌﾟ_01
  6
Continuous
 62
     3
370
    50
100
AcDbLine
 10
222.8684813509997
 20
82.0182950191572
 30
0.0
 11
260.8684813509997
 21
82.0182950191572
 31
0.0
  0
ARC
  5
31A
330
1F
100
AcDbEntity
  8
基準ﾚｲﾔｸﾞﾙｰﾌﾟ_01
  6
Continuous
 62
     3
370
    50
100
AcDbCircle
 10
260.8684813509997
 20
229.0182950191572
 30
0.0
 40
3.0
100
AcDbArc
 50
0.0
 51
90.0
  0
ARC
  5
31B
330
1F
100
AcDbEntity
  8
基準ﾚｲﾔｸﾞﾙｰﾌﾟ_01
  6
Continuous
 62
     3
370
    50
100
AcDbCircle
 10
260.8684813509997
 20
85.0182950191572
 30
0.0
 40
3.0
100
AcDbArc
 50
270.0
 51
0.0
  0
ARC
  5
31C
330
1F
100
AcDbEntity
  8
基準ﾚｲﾔｸﾞﾙｰﾌﾟ_01
  6
Continuous
 62
     3
370
    50
100
AcDbCircle
 10
219.4684813509997
 20
191.6383537561002
 30
0.0
 40
0.4
100
AcDbArc
 50
295.0000000000005
 51
0.0
  0
LINE
  5
31D
330
1F
100
AcDbEntity
  8
基準ﾚｲﾔｸﾞﾙｰﾌﾟ_01
  6
Continuous
 62
     3
370
    50
100
AcDbLine
 10
213.6184813509997
 20
167.0182950191573
 30
0.0
 11
215.8684813509997
 21
167.0182950191573
 31
0.0
  0
LINE
  5
31E
330
1F
100
AcDbEntity
  8
基準ﾚｲﾔｸﾞﾙｰﾌﾟ_01
  6
Continuous
 62
     3
370
    50
100
AcDbLine
 10
213.6184813509997
 20
147.0182950191571
 30
0.0
 11
215.8684813509997
 21
147.0182950191571
 31
0.0
  0
LINE
  5
31F
330
1F
100
AcDbEntity
  8
基準ﾚｲﾔｸﾞﾙｰﾌﾟ_01
  6
Continuous
 62
     3
370
    50
100
AcDbLine
 10
219.6375286556959
 20
122.7607593970288
 30
0.0
 11
217.6006265657776
 21
123.7105824404697
 31
0.0
  0
ARC
  5
320
330
1F
100
AcDbEntity
  8
基準ﾚｲﾔｸﾞﾙｰﾌﾟ_01
  6
Continuous
 62
     3
370
    50
100
AcDbCircle
 10
219.4684813509997
 20
122.3982362822142
 30
0.0
 40
0.4
100
AcDbArc
 50
0.0
 51
64.99999999999962
  0
LINE
  5
321
330
1F
100
AcDbEntity
  8
基準ﾚｲﾔｸﾞﾙｰﾌﾟ_01
  6
Continuous
 62
     3
370
    50
100
AcDbLine
 10
267.8684813509997
 20
187.6070842367347
 30
0.0
 11
267.8684813509997
 21
126.4295058015797
 31
0.0
  0
ARC
  5
322
330
1F
100
AcDbEntity
  8
基準ﾚｲﾔｸﾞﾙｰﾌﾟ_01
  6
Continuous
 62
     3
370
    50
100
AcDbCircle
 10
264.8684813509997
 20
187.6070842367347
 30
0.0
 40
3.0
100
AcDbArc
 50
0.0
 51
65.00000000000018
  0
LINE
  5
323
330
1F
100
AcDbEntity
  8
基準ﾚｲﾔｸﾞﾙｰﾌﾟ_01
  6
Continuous
 62
     3
370
    50
100
AcDbLine
 10
264.0994340463034
 20
191.2758306412856
 30
0.0
 11
266.1363361362218
 21
190.3260075978447
 31
0.0
  0
LINE
  5
324
330
1F
100
AcDbEntity
  8
基準ﾚｲﾔｸﾞﾙｰﾌﾟ_01
  6
Continuous
 62
     3
370
    50
100
AcDbLine
 10
263.8684813509997
 20
229.0182950191572
 30
0.0
 11
263.8684813509996
 21
85.0182950191572
 31
0.0
  0
ARC
  5
325
330
1F
100
AcDbEntity
  8
基準ﾚｲﾔｸﾞﾙｰﾌﾟ_01
  6
Continuous
 62
     3
370
    50
100
AcDbCircle
 10
264.8684813509997
 20
126.4295058015797
 30
0.0
 40
3.0
100
AcDbArc
 50
294.9999999999997
 51
0.0
  0
ARC
  5
326
330
1F
100
AcDbEntity
  8
基準ﾚｲﾔｸﾞﾙｰﾌﾟ_01
  6
Continuous
 62
     3
370
    50
100
AcDbCircle
 10
264.2684813509997
 20
191.6383537561002
 30
0.0
 40
0.4
100
AcDbArc
 50
180.0
 51
244.9999999999996
  0
LINE
  5
327
330
1F
100
AcDbEntity
  8
基準ﾚｲﾔｸﾞﾙｰﾌﾟ_01
  6
Continuous
 62
     3
370
    50
100
AcDbLine
 10
264.0994340463034
 20
122.7607593970288
 30
0.0
 11
266.1363361362218
 21
123.7105824404697
 31
0.0
  0
ARC
  5
328
330
1F
100
AcDbEntity
  8
基準ﾚｲﾔｸﾞﾙｰﾌﾟ_01
  6
Continuous
 62
     3
370
    50
100
AcDbCircle
 10
264.2684813509997
 20
122.3982362822142
 30
0.0
 40
0.4
100
AcDbArc
 50
114.9999999999995
 51
180.0
  0
LINE
  5
329
330
1F
100
AcDbEntity
  8
基準ﾚｲﾔｸﾞﾙｰﾌﾟ_01
  6
Continuous
 62
     3
370
    50
100
AcDbLine
 10
267.8684813509997
 20
167.0182950191573
 30
0.0
 11
270.1184813509997
 21
167.0182950191572
 31
0.0
  0
LINE
  5
32A
330
1F
100
AcDbEntity
  8
基準ﾚｲﾔｸﾞﾙｰﾌﾟ_01
  6
Continuous
 62
     3
370
    50
100
AcDbLine
 10
267.8684813509997
 20
147.0182950191571
 30
0.0
 11
270.1184813509997
 21
147.0182950191571
 31
0.0
  0
TEXT
  5
32B
330
1F
100
AcDbEntity
  8
基準ﾚｲﾔｸﾞﾙｰﾌﾟ_01
  6
Continuous
 62
     7
370
    25
100
AcDbText
 10
238.8684844970703
 20
58.01829147286507
 30
0.0
 40
4.0
  1
５２
 41
0.9545454545454547
  7
FX_VECTOR
 72
     5
 11
244.8684844970703
 21
58.01829147391227
 31
0.0
100
AcDbText
  0
LINE
  5
32C
330
1F
100
AcDbEntity
  8
基準ﾚｲﾔｸﾞﾙｰﾌﾟ_01
  6
Continuous
 62
     7
370
    25
100
AcDbLine
 10
215.8684813509997
 20
57.01829501915718
 30
0.0
 11
267.8684813509997
 21
57.01829501915716
 31
0.0
  0
INSERT
  5
32D
330
1F
100
AcDbEntity
  8
基準ﾚｲﾔｸﾞﾙｰﾌﾟ_01
  6
Continuous
 62
     7
370
    25
100
AcDbBlockReference
  2
FXTIP_ARROW_S
 10
215.8684813509997
 20
57.01829501915718
 30
0.0
 41
4.0
 42
4.0
 50
180.0
  0
INSERT
  5
32E
330
1F
100
AcDbEntity
  8
基準ﾚｲﾔｸﾞﾙｰﾌﾟ_01
  6
Continuous
 62
     7
370
    25
100
AcDbBlockReference
  2
FXTIP_ARROW_E
 10
267.8684813509997
 20
57.01829501915716
 30
0.0
 41
4.0
 42
4.0
 50
360.0
  0
LINE
  5
32F
330
1F
100
AcDbEntity
  8
基準ﾚｲﾔｸﾞﾙｰﾌﾟ_01
  6
Continuous
 62
     7
370
    25
100
AcDbLine
 10
215.8684813509997
 20
125.4295058015797
 30
0.0
 11
215.8684813509997
 21
56.01829501915716
 31
0.0
  0
LINE
  5
330
330
1F
100
AcDbEntity
  8
基準ﾚｲﾔｸﾞﾙｰﾌﾟ_01
  6
Continuous
 62
     7
370
    25
100
AcDbLine
 10
267.8684813509997
 20
125.4295058015797
 30
0.0
 11
267.8684813509997
 21
56.01829501915716
 31
0.0
  0
TEXT
  5
331
330
1F
100
AcDbEntity
  8
基準ﾚｲﾔｸﾞﾙｰﾌﾟ_01
  6
Continuous
 62
     7
370
    25
100
AcDbText
 10
238.8684844970703
 20
68.01829528756234
 30
0.0
 40
4.0
  1
４４
 41
0.9545454545454547
  7
FX_VECTOR
 72
     5
 11
244.8684844970703
 21
68.01829528860954
 31
0.0
100
AcDbText
  0
LINE
  5
332
330
1F
100
AcDbEntity
  8
基準ﾚｲﾔｸﾞﾙｰﾌﾟ_01
  6
Continuous
 62
     7
370
    25
100
AcDbLine
 10
219.8684813509997
 20
67.01829501915718
 30
0.0
 11
263.8684813509997
 21
67.01829501915716
 31
0.0
  0
INSERT
  5
333
330
1F
100
AcDbEntity
  8
基準ﾚｲﾔｸﾞﾙｰﾌﾟ_01
  6
Continuous
 62
     7
370
    25
100
AcDbBlockReference
  2
FXTIP_ARROW_S
 10
219.8684813509997
 20
67.01829501915718
 30
0.0
 41
4.0
 42
4.0
 50
180.0
  0
INSERT
  5
334
330
1F
100
AcDbEntity
  8
基準ﾚｲﾔｸﾞﾙｰﾌﾟ_01
  6
Continuous
 62
     7
370
    25
100
AcDbBlockReference
  2
FXTIP_ARROW_E
 10
263.8684813509997
 20
67.01829501915716
 30
0.0
 41
4.0
 42
4.0
 50
360.0
  0
LINE
  5
335
330
1F
100
AcDbEntity
  8
基準ﾚｲﾔｸﾞﾙｰﾌﾟ_01
  6
Continuous
 62
     7
370
    25
100
AcDbLine
 10
219.8684813509997
 20
84.0182950191572
 30
0.0
 11
219.8684813509997
 21
66.0182950191572
 31
0.0
  0
LINE
  5
336
330
1F
100
AcDbEntity
  8
基準ﾚｲﾔｸﾞﾙｰﾌﾟ_01
  6
Continuous
 62
     7
370
    25
100
AcDbLine
 10
263.8684813509997
 20
84.0182950191572
 30
0.0
 11
263.8684813509997
 21
66.01829501915715
 31
0.0
  0
ARC
  5
337
330
1F
100
AcDbEntity
  8
基準ﾚｲﾔｸﾞﾙｰﾌﾟ_01
  6
Continuous
 62
     6
370
    25
100
AcDbCircle
 10
489.555918232457
 20
157.0182950191573
 30
0.0
 40
32.5
100
AcDbArc
 50
128.3050021166895
 51
14.14801373480018
  0
ARC
  5
338
330
1F
100
AcDbEntity
  8
基準ﾚｲﾔｸﾞﾙｰﾌﾟ_01
  6
Continuous
 62
     6
370
    25
100
AcDbCircle
 10
489.555918232457
 20
157.0182950191573
 30
0.0
 40
60.0
100
AcDbArc
 50
101.3792736936607
 51
38.3218145266535
  0
ARC
  5
339
330
1F
100
AcDbEntity
  8
基準ﾚｲﾔｸﾞﾙｰﾌﾟ_01
  6
Continuous
 62
     6
370
    25
100
AcDbCircle
 10
489.555918232457
 20
157.0182950191573
 30
0.0
 40
38.09569189785992
100
AcDbArc
 50
118.458039289657
 51
22.76437035942083
  0
ARC
  5
33A
330
1F
100
AcDbEntity
  8
基準ﾚｲﾔｸﾞﾙｰﾌﾟ_01
  6
Continuous
 62
     6
370
    25
100
AcDbCircle
 10
489.555918232457
 20
157.0182950191573
 30
0.0
 40
58.58938415433224
100
AcDbArc
 50
102.0354800595694
 51
37.71547737650062
  0
LINE
  5
33B
330
1F
100
AcDbEntity
  8
基準ﾚｲﾔｸﾞﾙｰﾌﾟ_01
  6
Continuous
 62
     3
370
    50
100
AcDbLine
 10
474.555918232457
 20
472.8821839080458
 30
0.0
 11
458.9671290148798
 21
472.8821839080458
 31
0.0
  0
LINE
  5
33C
330
1F
100
AcDbEntity
  8
基準ﾚｲﾔｸﾞﾙｰﾌﾟ_01
  6
Continuous
 62
     3
370
    50
100
AcDbLine
 10
474.555918232457
 20
468.8821839080459
 30
0.0
 11
417.5559182324573
 21
468.8821839080458
 31
0.0
  0
ARC
  5
33D
330
1F
100
AcDbEntity
  8
基準ﾚｲﾔｸﾞﾙｰﾌﾟ_01
  6
Continuous
 62
     3
370
    50
100
AcDbCircle
 10
417.5559182324573
 20
465.8821839080458
 30
0.0
 40
3.0
100
AcDbArc
 50
90.0
 51
180.0
  0
ARC
  5
33E
330
1F
100
AcDbEntity
  8
基準ﾚｲﾔｸﾞﾙｰﾌﾟ_01
  6
Continuous
 62
     3
370
    50
100
AcDbCircle
 10
458.9671290148798
 20
469.8821839080458
 30
0.0
 40
3.0
100
AcDbArc
 50
90.0
 51
155.0000000000001
  0
LINE
  5
33F
330
1F
100
AcDbEntity
  8
基準ﾚｲﾔｸﾞﾙｰﾌﾟ_01
  6
Continuous
 62
     3
370
    50
100
AcDbLine
 10
414.5559182324573
 20
465.8821839080458
 30
0.0
 11
414.5559182324573
 21
427.8821839080459
 31
0.0
  0
ARC
  5
340
330
1F
100
AcDbEntity
  8
基準ﾚｲﾔｸﾞﾙｰﾌﾟ_01
  6
Continuous
 62
     3
370
    50
100
AcDbCircle
 10
417.5559182324573
 20
427.8821839080459
 30
0.0
 40
3.0
100
AcDbArc
 50
180.0
 51
270.0
  0
LINE
  5
341
330
1F
100
AcDbEntity
  8
基準ﾚｲﾔｸﾞﾙｰﾌﾟ_01
  6
Continuous
 62
     3
370
    50
100
AcDbLine
 10
455.2983826103289
 20
469.1131366033496
 30
0.0
 11
456.2482056537698
 21
471.150038693268
 31
0.0
  0
ARC
  5
342
330
1F
100
AcDbEntity
  8
基準ﾚｲﾔｸﾞﾙｰﾌﾟ_01
  6
Continuous
 62
     3
370
    50
100
AcDbCircle
 10
454.9358594955143
 20
469.2821839080459
 30
0.0
 40
0.4
100
AcDbArc
 50
270.0
 51
334.9999999999996
  0
LINE
  5
343
330
1F
100
AcDbEntity
  8
基準ﾚｲﾔｸﾞﾙｰﾌﾟ_01
  6
Continuous
 62
     3
370
    50
100
AcDbLine
 10
474.555918232457
 20
420.8821839080458
 30
0.0
 11
458.9671290148798
 21
420.8821839080459
 31
0.0
  0
LINE
  5
344
330
1F
100
AcDbEntity
  8
基準ﾚｲﾔｸﾞﾙｰﾌﾟ_01
  6
Continuous
 62
     3
370
    50
100
AcDbLine
 10
474.555918232457
 20
424.882183908046
 30
0.0
 11
417.5559182324573
 21
424.882183908046
 31
0.0
  0
ARC
  5
345
330
1F
100
AcDbEntity
  8
基準ﾚｲﾔｸﾞﾙｰﾌﾟ_01
  6
Continuous
 62
     3
370
    50
100
AcDbCircle
 10
458.9671290148798
 20
423.8821839080459
 30
0.0
 40
3.0
100
AcDbArc
 50
204.9999999999997
 51
270.0
  0
LINE
  5
346
330
1F
100
AcDbEntity
  8
基準ﾚｲﾔｸﾞﾙｰﾌﾟ_01
  6
Continuous
 62
     3
370
    50
100
AcDbLine
 10
455.2983826103289
 20
424.6512312127422
 30
0.0
 11
456.2482056537698
 21
422.6143291228238
 31
0.0
  0
ARC
  5
347
330
1F
100
AcDbEntity
  8
基準ﾚｲﾔｸﾞﾙｰﾌﾟ_01
  6
Continuous
 62
     3
370
    50
100
AcDbCircle
 10
454.9358594955143
 20
424.4821839080459
 30
0.0
 40
0.4
100
AcDbArc
 50
24.99999999999953
 51
90.0
  0
LINE
  5
348
330
1F
100
AcDbEntity
  8
基準ﾚｲﾔｸﾞﾙｰﾌﾟ_01
  6
Continuous
 62
     3
370
    50
100
AcDbLine
 10
216.3684813509998
 20
240.0182950191573
 30
0.0
 11
214.118303303547
 21
240.0182950191573
 31
0.0
  0
LINE
  5
349
330
1F
100
AcDbEntity
  8
基準ﾚｲﾔｸﾞﾙｰﾌﾟ_01
  6
Continuous
 62
     3
370
    50
100
AcDbLine
 10
216.3684813509998
 20
234.0182950191573
 30
0.0
 11
213.6184813509997
 21
234.0182950191573
 31
0.0
  0
LINE
  5
34A
330
1F
100
AcDbEntity
  8
基準ﾚｲﾔｸﾞﾙｰﾌﾟ_01
  6
Continuous
 62
     3
370
    50
100
AcDbLine
 10
269.6186593984523
 20
240.0182950191573
 30
0.0
 11
267.3684813509998
 21
240.0182950191574
 31
0.0
  0
LINE
  5
34B
330
1F
100
AcDbEntity
  8
基準ﾚｲﾔｸﾞﾙｰﾌﾟ_01
  6
Continuous
 62
     3
370
    50
100
AcDbLine
 10
267.2182970749487
 20
241.1182950191573
 30
0.0
 11
216.5186656270506
 21
241.1182950191573
 31
0.0
  0
LINE
  5
34C
330
1F
100
AcDbEntity
  8
基準ﾚｲﾔｸﾞﾙｰﾌﾟ_01
  6
Continuous
 62
     3
370
    50
100
AcDbLine
 10
216.3684813509998
 20
232.9182950191573
 30
0.0
 11
267.3684813509998
 21
232.9182950191573
 31
0.0
  0
LINE
  5
34D
330
1F
100
AcDbEntity
  8
基準ﾚｲﾔｸﾞﾙｰﾌﾟ_01
  6
Continuous
 62
     3
370
    50
100
AcDbLine
 10
267.3684813509998
 20
234.0182950191573
 30
0.0
 11
270.1184813509997
 21
234.0182950191573
 31
0.0
  0
LINE
  5
34E
330
1F
100
AcDbEntity
  8
基準ﾚｲﾔｸﾞﾙｰﾌﾟ_01
  6
Continuous
 62
     3
370
    50
100
AcDbLine
 10
270.1184813509997
 20
232.0182950191573
 30
0.0
 11
263.1389504829224
 21
232.0182950191573
 31
0.0
  0
LINE
  5
34F
330
1F
100
AcDbEntity
  8
基準ﾚｲﾔｸﾞﾙｰﾌﾟ_01
  6
Continuous
 62
     6
370
    25
100
AcDbLine
 10
213.6184813509997
 20
239.4767950191573
 30
0.0
 11
216.3684813509998
 21
239.4767950191573
 31
0.0
  0
LINE
  5
350
330
1F
100
AcDbEntity
  8
基準ﾚｲﾔｸﾞﾙｰﾌﾟ_01
  6
Continuous
 62
     6
370
    25
100
AcDbLine
 10
213.6184813509997
 20
234.5597950191573
 30
0.0
 11
216.3684813509998
 21
234.5597950191573
 31
0.0
  0
LINE
  5
351
330
1F
100
AcDbEntity
  8
基準ﾚｲﾔｸﾞﾙｰﾌﾟ_01
  6
Continuous
 62
     3
370
    50
100
AcDbLine
 10
267.3684813509998
 20
241.0686035445367
 30
0.0
 11
267.3684813509998
 21
232.9182950191573
 31
0.0
  0
LINE
  5
352
330
1F
100
AcDbEntity
  8
基準ﾚｲﾔｸﾞﾙｰﾌﾟ_01
  6
Continuous
 62
     3
370
    50
100
AcDbLine
 10
216.3684813509998
 20
241.0686035445368
 30
0.0
 11
216.3684813509998
 21
232.9182950191573
 31
0.0
  0
ARC
  5
353
330
1F
100
AcDbEntity
  8
基準ﾚｲﾔｸﾞﾙｰﾌﾟ_01
  6
Continuous
 62
     3
370
    50
100
AcDbCircle
 10
267.3684813509998
 20
222.5299998169236
 30
0.0
 40
10.38829520223371
100
AcDbArc
 50
90.0
 51
118.6195479277013
  0
ARC
  5
354
330
1F
100
AcDbEntity
  8
基準ﾚｲﾔｸﾞﾙｰﾌﾟ_01
  6
Continuous
 62
     3
370
    50
100
AcDbCircle
 10
216.3684813509995
 20
222.5299998169236
 30
0.0
 40
10.38829520223371
100
AcDbArc
 50
61.38045207229903
 51
90.0
  0
ENDSEC
  0
SECTION
  2
OBJECTS
  0
DICTIONARY
  5
C
330
0
100
AcDbDictionary
281
     1
  3
ACAD_GROUP
350
D
  3
ACAD_LAYOUT
350
1A
  3
ACAD_MATERIAL
350
3B
  3
ACAD_MLEADERSTYLE
350
357
  3
ACAD_MLINESTYLE
350
17
  3
ACAD_PLOTSETTINGS
350
19
  3
ACAD_PLOTSTYLENAME
350
E
  3
ACAD_VISUALSTYLE
350
2A
  3
AcDbVariableDictionary
350
355
  0
DICTIONARY
  5
D
102
{ACAD_REACTORS
330
C
102
}
330
C
100
AcDbDictionary
281
     1
  0
DICTIONARY
  5
1A
102
{ACAD_REACTORS
330
C
102
}
330
C
100
AcDbDictionary
281
     1
  3
Layout1
350
1E
  3
Layout2
350
26
  3
Model
350
22
  0
DICTIONARY
  5
3B
102
{ACAD_REACTORS
330
C
102
}
330
C
100
AcDbDictionary
281
     1
  3
ByBlock
350
3D
  3
ByLayer
350
3C
  3
Global
350
3E
  0
DICTIONARY
  5
357
102
{ACAD_REACTORS
330
C
102
}
330
C
100
AcDbDictionary
281
     1
  0
DICTIONARY
  5
17
102
{ACAD_REACTORS
330
C
102
}
330
C
100
AcDbDictionary
281
     1
  3
Standard
350
18
  0
DICTIONARY
  5
19
102
{ACAD_REACTORS
330
C
102
}
330
C
100
AcDbDictionary
281
     1
  0
ACDBDICTIONARYWDFLT
  5
E
102
{ACAD_REACTORS
330
C
102
}
330
C
100
AcDbDictionary
281
     1
  3
Normal
350
F
100
AcDbDictionaryWithDefault
340
F
  0
DICTIONARY
  5
2A
102
{ACAD_REACTORS
330
C
102
}
330
C
100
AcDbDictionary
281
     1
  3
2dWireframe
350
2F
  3
3D Hidden
350
31
  3
3dWireframe
350
30
  3
Basic
350
32
  3
Brighten
350
36
  3
ColorChange
350
3A
  3
Conceptual
350
34
  3
Dim
350
35
  3
Facepattern
350
39
  3
Flat
350
2B
  3
FlatWithEdges
350
2C
  3
Gouraud
350
2D
  3
GouraudWithEdges
350
2E
  3
Linepattern
350
38
  3
Realistic
350
33
  3
Thicken
350
37
  0
DICTIONARY
  5
355
102
{ACAD_REACTORS
330
C
102
}
330
C
100
AcDbDictionary
281
     1
  3
DIMASSOC
350
35A
  3
HIDETEXT
350
35B
  3
PSOLHEIGHT
350
359
  3
PSOLWIDTH
350
358
  0
LAYOUT
  5
1E
102
{ACAD_REACTORS
330
1A
102
}
330
1A
100
AcDbPlotSettings
  1

  2
none_device
  4

  6

 40
0.0
 41
0.0
 42
0.0
 43
0.0
 44
0.0
 45
0.0
 46
0.0
 47
0.0
 48
0.0
 49
0.0
140
0.0
141
0.0
142
1.0
143
1.0
 70
   688
 72
     0
 73
     0
 74
     5
  7

 75
    16
147
1.0
148
0.0
149
0.0
100
AcDbLayout
  1
Layout1
 70
     1
 71
     1
 10
0.0
 20
0.0
 11
420.0
 21
297.0
 12
0.0
 22
0.0
 32
0.0
 14
1.000000000000000E+20
 24
1.000000000000000E+20
 34
1.000000000000000E+20
 15
-1.000000000000000E+20
 25
-1.000000000000000E+20
 35
-1.000000000000000E+20
146
0.0
 13
0.0
 23
0.0
 33
0.0
 16
1.0
 26
0.0
 36
0.0
 17
0.0
 27
1.0
 37
0.0
 76
     0
330
1B
  0
LAYOUT
  5
26
102
{ACAD_REACTORS
330
1A
102
}
330
1A
100
AcDbPlotSettings
  1

  2
none_device
  4

  6

 40
0.0
 41
0.0
 42
0.0
 43
0.0
 44
0.0
 45
0.0
 46
0.0
 47
0.0
 48
0.0
 49
0.0
140
0.0
141
0.0
142
1.0
143
1.0
 70
   688
 72
     0
 73
     0
 74
     5
  7

 75
    16
147
1.0
148
0.0
149
0.0
100
AcDbLayout
  1
Layout2
 70
     1
 71
     2
 10
0.0
 20
0.0
 11
0.0
 21
0.0
 12
0.0
 22
0.0
 32
0.0
 14
0.0
 24
0.0
 34
0.0
 15
0.0
 25
0.0
 35
0.0
146
0.0
 13
0.0
 23
0.0
 33
0.0
 16
1.0
 26
0.0
 36
0.0
 17
0.0
 27
1.0
 37
0.0
 76
     0
330
23
  0
LAYOUT
  5
22
102
{ACAD_REACTORS
330
1A
102
}
330
1A
100
AcDbPlotSettings
  1

  2
none_device
  4

  6

 40
0.0
 41
0.0
 42
0.0
 43
0.0
 44
0.0
 45
0.0
 46
0.0
 47
0.0
 48
0.0
 49
0.0
140
0.0
141
0.0
142
1.0
143
1.0
 70
  1712
 72
     0
 73
     0
 74
     0
  7

 75
     0
147
1.0
148
0.0
149
0.0
100
AcDbLayout
  1
Model
 70
     1
 71
     0
 10
0.0
 20
0.0
 11
841.0
 21
594.0
 12
0.0
 22
0.0
 32
0.0
 14
0.0
 24
0.0
 34
0.0
 15
841.0
 25
594.0
 35
0.0
146
0.0
 13
0.0
 23
0.0
 33
0.0
 16
1.0
 26
0.0
 36
0.0
 17
0.0
 27
1.0
 37
0.0
 76
     0
330
1F
331
29
  0
MATERIAL
  5
3D
102
{ACAD_REACTORS
330
3B
102
}
102
{ACAD_XDICTIONARY
360
37E
102
}
330
3B
100
AcDbMaterial
  1
ByBlock
  0
MATERIAL
  5
3C
102
{ACAD_REACTORS
330
3B
102
}
102
{ACAD_XDICTIONARY
360
37C
102
}
330
3B
100
AcDbMaterial
  1
ByLayer
  0
MATERIAL
  5
3E
102
{ACAD_REACTORS
330
3B
102
}
102
{ACAD_XDICTIONARY
360
380
102
}
330
3B
100
AcDbMaterial
  1
Global
  0
MLINESTYLE
  5
18
102
{ACAD_REACTORS
330
17
102
}
330
17
100
AcDbMlineStyle
  2
Standard
 70
     0
  3

 62
   256
 51
90.0
 52
90.0
 71
     2
 49
0.5
 62
   256
  6
BYLAYER
 49
-0.5
 62
   256
  6
BYLAYER
  0
ACDBPLACEHOLDER
  5
F
102
{ACAD_REACTORS
330
E
102
}
330
E
  0
VISUALSTYLE
  5
2F
102
{ACAD_REACTORS
330
2A
102
}
102
{ACAD_XDICTIONARY
360
364
102
}
330
2A
100
AcDbVisualStyle
  2
2dWireframe
 70
     4
 71
     0
 72
     2
 73
     0
 90
        0
 40
-0.6
 41
-30.0
 62
     5
 63
     7
 74
     1
 91
        4
 64
     7
 65
   257
 75
     1
175
     1
 42
1.0
 92
        0
 66
   257
 43
1.0
 76
     1
 77
     6
 78
     2
 67
     7
 79
     5
170
     0
171
     0
290
     0
174
     0
 93
        1
 44
0.0
173
     0
291
     0
 45
0.0
1001
ACAD
1000
AcDbSavedByObjectVersion
1070
     0
  0
VISUALSTYLE
  5
31
102
{ACAD_REACTORS
330
2A
102
}
102
{ACAD_XDICTIONARY
360
368
102
}
330
2A
100
AcDbVisualStyle
  2
3D Hidden
 70
     6
 71
     1
 72
     2
 73
     2
 90
        0
 40
-0.6
 41
-30.0
 62
     5
 63
     7
 74
     2
 91
        2
 64
     7
 65
   257
 75
     2
175
     1
 42
40.0
 92
        0
 66
   257
 43
1.0
 76
     1
 77
     6
 78
     2
 67
     7
 79
     3
170
     0
171
     0
290
     0
174
     0
 93
        1
 44
0.0
173
     0
291
     0
 45
0.0
1001
ACAD
1000
AcDbSavedByObjectVersion
1070
     0
  0
VISUALSTYLE
  5
30
102
{ACAD_REACTORS
330
2A
102
}
102
{ACAD_XDICTIONARY
360
366
102
}
330
2A
100
AcDbVisualStyle
  2
3dWireframe
 70
     5
 71
     0
 72
     2
 73
     0
 90
        0
 40
-0.6
 41
-30.0
 62
     5
 63
     7
 74
     1
 91
        4
 64
     7
 65
   257
 75
     1
175
     1
 42
1.0
 92
        0
 66
   257
 43
1.0
 76
     1
 77
     6
 78
     2
 67
     7
 79
     5
170
     0
171
     0
290
     0
174
     0
 93
        1
 44
0.0
173
     0
291
     0
 45
0.0
1001
ACAD
1000
AcDbSavedByObjectVersion
1070
     0
  0
VISUALSTYLE
  5
32
102
{ACAD_REACTORS
330
2A
102
}
102
{ACAD_XDICTIONARY
360
36A
102
}
330
2A
100
AcDbVisualStyle
  2
Basic
 70
     7
 71
     1
 72
     0
 73
     1
 90
        0
 40
-0.6
 41
-30.0
 62
     5
 63
     7
 74
     0
 91
        4
 64
     7
 65
   257
 75
     1
175
     1
 42
1.0
 92
        8
 66
     7
 43
1.0
 76
     1
 77
     6
 78
     2
 67
     7
 79
     5
170
     0
171
     0
290
     0
174
     0
 93
        1
 44
0.0
173
     0
291
     1
 45
0.0
1001
ACAD
1000
AcDbSavedByObjectVersion
1070
     0
  0
VISUALSTYLE
  5
36
102
{ACAD_REACTORS
330
2A
102
}
102
{ACAD_XDICTIONARY
360
372
102
}
330
2A
100
AcDbVisualStyle
  2
Brighten
 70
    12
 71
     2
 72
     2
 73
     0
 90
        0
 40
-0.6
 41
-30.0
 62
     5
 63
     7
 74
     1
 91
        4
 64
     7
 65
   257
 75
     1
175
     1
 42
1.0
 92
        8
 66
     7
 43
1.0
 76
     1
 77
     6
 78
     2
 67
     7
 79
     5
170
     0
171
     0
290
     0
174
     0
 93
        1
 44
50.0
173
     0
291
     1
 45
0.0
1001
ACAD
1000
AcDbSavedByObjectVersion
1070
     0
  0
VISUALSTYLE
  5
3A
102
{ACAD_REACTORS
330
2A
102
}
102
{ACAD_XDICTIONARY
360
37A
102
}
330
2A
100
AcDbVisualStyle
  2
ColorChange
 70
    16
 71
     2
 72
     2
 73
     3
 90
        0
 40
-0.6
 41
-30.0
 62
     5
 63
     8
 74
     1
 91
        4
 64
     7
 65
   257
 75
     1
175
     1
 42
1.0
 92
        8
 66
     8
 43
1.0
 76
     1
 77
     6
 78
     2
 67
     7
 79
     5
170
     0
171
     0
290
     0
174
     0
 93
        1
 44
0.0
173
     0
291
     1
 45
0.0
1001
ACAD
1000
AcDbSavedByObjectVersion
1070
     0
  0
VISUALSTYLE
  5
34
102
{ACAD_REACTORS
330
2A
102
}
102
{ACAD_XDICTIONARY
360
36E
102
}
330
2A
100
AcDbVisualStyle
  2
Conceptual
 70
     9
 71
     3
 72
     2
 73
     0
 90
        0
 40
-0.6
 41
-30.0
 62
     5
 63
     7
 74
     2
 91
        2
 64
     7
 65
   257
 75
     1
175
     1
 42
40.0
 92
        8
 66
     7
 43
1.0
 76
     1
 77
     6
 78
     2
 67
     7
 79
     3
170
     0
171
     0
290
     0
174
     0
 93
        1
 44
0.0
173
     0
291
     0
 45
0.0
1001
ACAD
1000
AcDbSavedByObjectVersion
1070
     0
  0
VISUALSTYLE
  5
35
102
{ACAD_REACTORS
330
2A
102
}
102
{ACAD_XDICTIONARY
360
370
102
}
330
2A
100
AcDbVisualStyle
  2
Dim
 70
    11
 71
     2
 72
     2
 73
     0
 90
        0
 40
-0.6
 41
-30.0
 62
     5
 63
     7
 74
     1
 91
        4
 64
     7
 65
   257
 75
     1
175
     1
 42
1.0
 92
        8
 66
     7
 43
1.0
 76
     1
 77
     6
 78
     2
 67
     7
 79
     5
170
     0
171
     0
290
     0
174
     0
 93
        1
 44
-50.0
173
     0
291
     1
 45
0.0
1001
ACAD
1000
AcDbSavedByObjectVersion
1070
     0
  0
VISUALSTYLE
  5
39
102
{ACAD_REACTORS
330
2A
102
}
102
{ACAD_XDICTIONARY
360
378
102
}
330
2A
100
AcDbVisualStyle
  2
Facepattern
 70
    15
 71
     2
 72
     2
 73
     0
 90
        0
 40
-0.6
 41
-30.0
 62
     5
 63
     7
 74
     1
 91
        4
 64
     7
 65
   257
 75
     1
175
     1
 42
1.0
 92
        8
 66
     7
 43
1.0
 76
     1
 77
     6
 78
     2
 67
     7
 79
     5
170
     0
171
     0
290
     0
174
     0
 93
        1
 44
0.0
173
     0
291
     1
 45
0.0
1001
ACAD
1000
AcDbSavedByObjectVersion
1070
     0
  0
VISUALSTYLE
  5
2B
102
{ACAD_REACTORS
330
2A
102
}
102
{ACAD_XDICTIONARY
360
35C
102
}
330
2A
100
AcDbVisualStyle
  2
Flat
 70
     0
 71
     2
 72
     1
 73
     1
 90
        2
 40
-0.6
 41
30.0
 62
     5
 63
     7
 74
     0
 91
        4
 64
     7
 65
   257
 75
     1
175
     1
 42
1.0
 92
        8
 66
     7
 43
1.0
 76
     1
 77
     6
 78
     2
 67
     7
 79
     5
170
     0
171
     0
290
     0
174
     0
 93
       13
 44
0.0
173
     0
291
     1
 45
0.0
1001
ACAD
1000
AcDbSavedByObjectVersion
1070
     0
  0
VISUALSTYLE
  5
2C
102
{ACAD_REACTORS
330
2A
102
}
102
{ACAD_XDICTIONARY
360
35E
102
}
330
2A
100
AcDbVisualStyle
  2
FlatWithEdges
 70
     1
 71
     2
 72
     1
 73
     1
 90
        2
 40
-0.6
 41
30.0
 62
     5
 63
     7
 74
     1
 91
        4
 64
     7
 65
   257
 75
     1
175
     1
 42
1.0
 92
        0
 66
   257
 43
1.0
 76
     1
 77
     6
 78
     2
 67
     7
 79
     5
170
     0
171
     0
290
     0
174
     0
 93
       13
 44
0.0
173
     0
291
     1
 45
0.0
1001
ACAD
1000
AcDbSavedByObjectVersion
1070
     0
  0
VISUALSTYLE
  5
2D
102
{ACAD_REACTORS
330
2A
102
}
102
{ACAD_XDICTIONARY
360
360
102
}
330
2A
100
AcDbVisualStyle
  2
Gouraud
 70
     2
 71
     2
 72
     2
 73
     1
 90
        2
 40
-0.6
 41
30.0
 62
     5
 63
     7
 74
     0
 91
        4
 64
     7
 65
   257
 75
     1
175
     1
 42
1.0
 92
        0
 66
     7
 43
1.0
 76
     1
 77
     6
 78
     2
 67
     7
 79
     5
170
     0
171
     0
290
     0
174
     0
 93
       13
 44
0.0
173
     0
291
     1
 45
0.0
1001
ACAD
1000
AcDbSavedByObjectVersion
1070
     0
  0
VISUALSTYLE
  5
2E
102
{ACAD_REACTORS
330
2A
102
}
102
{ACAD_XDICTIONARY
360
362
102
}
330
2A
100
AcDbVisualStyle
  2
GouraudWithEdges
 70
     3
 71
     2
 72
     2
 73
     1
 90
        2
 40
-0.6
 41
30.0
 62
     5
 63
     7
 74
     1
 91
        4
 64
     7
 65
   257
 75
     1
175
     1
 42
1.0
 92
        0
 66
   257
 43
1.0
 76
     1
 77
     6
 78
     2
 67
     7
 79
     5
170
     0
171
     0
290
     0
174
     0
 93
       13
 44
0.0
173
     0
291
     1
 45
0.0
1001
ACAD
1000
AcDbSavedByObjectVersion
1070
     0
  0
VISUALSTYLE
  5
38
102
{ACAD_REACTORS
330
2A
102
}
102
{ACAD_XDICTIONARY
360
376
102
}
330
2A
100
AcDbVisualStyle
  2
Linepattern
 70
    14
 71
     2
 72
     2
 73
     0
 90
        0
 40
-0.6
 41
-30.0
 62
     5
 63
     7
 74
     1
 91
        4
 64
     7
 65
   257
 75
     7
175
     7
 42
1.0
 92
        8
 66
     7
 43
1.0
 76
     1
 77
     6
 78
     2
 67
     7
 79
     5
170
     0
171
     0
290
     0
174
     0
 93
        1
 44
0.0
173
     0
291
     1
 45
0.0
1001
ACAD
1000
AcDbSavedByObjectVersion
1070
     0
  0
VISUALSTYLE
  5
33
102
{ACAD_REACTORS
330
2A
102
}
102
{ACAD_XDICTIONARY
360
36C
102
}
330
2A
100
AcDbVisualStyle
  2
Realistic
 70
     8
 71
     2
 72
     2
 73
     0
 90
        0
 40
-0.6
 41
-30.0
 62
     5
 63
     7
 74
     1
 91
        0
 64
     7
 65
   257
 75
     1
175
     1
 42
1.0
 92
        8
 66
     8
 43
1.0
 76
     1
 77
     6
 78
     2
 67
     7
 79
     5
170
     0
171
     0
290
     0
174
     0
 93
       13
 44
0.0
173
     0
291
     0
 45
0.0
1001
ACAD
1000
AcDbSavedByObjectVersion
1070
     0
  0
VISUALSTYLE
  5
37
102
{ACAD_REACTORS
330
2A
102
}
102
{ACAD_XDICTIONARY
360
374
102
}
330
2A
100
AcDbVisualStyle
  2
Thicken
 70
    13
 71
     2
 72
     2
 73
     0
 90
        0
 40
-0.6
 41
-30.0
 62
     5
 63
     7
 74
     1
 91
        4
 64
     7
 65
   257
 75
     1
175
     1
 42
1.0
 92
       12
 66
     7
 43
1.0
 76
     1
 77
     6
 78
     2
 67
     7
 79
     5
170
     0
171
     0
290
     0
174
     0
 93
        1
 44
0.0
173
     0
291
     1
 45
0.0
1001
ACAD
1000
AcDbSavedByObjectVersion
1070
     0
  0
DICTIONARYVAR
  5
35A
102
{ACAD_REACTORS
330
355
102
}
330
355
100
DictionaryVariables
280
     0
  1
2
  0
DICTIONARYVAR
  5
35B
102
{ACAD_REACTORS
330
355
102
}
330
355
100
DictionaryVariables
280
     0
  1
1
  0
DICTIONARYVAR
  5
359
102
{ACAD_REACTORS
330
355
102
}
330
355
100
DictionaryVariables
280
     0
  1
80.000000
  0
DICTIONARYVAR
  5
358
102
{ACAD_REACTORS
330
355
102
}
330
355
100
DictionaryVariables
280
     0
  1
5.000000
  0
DICTIONARY
  5
37E
330
3D
100
AcDbDictionary
280
     1
281
     1
  3
ACAD_XREC_ROUNDTRIP
360
37F
  0
DICTIONARY
  5
37C
330
3C
100
AcDbDictionary
280
     1
281
     1
  3
ACAD_XREC_ROUNDTRIP
360
37D
  0
DICTIONARY
  5
380
330
3E
100
AcDbDictionary
280
     1
281
     1
  3
ACAD_XREC_ROUNDTRIP
360
381
  0
DICTIONARY
  5
364
330
2F
100
AcDbDictionary
280
     1
281
     1
  3
ACAD_XREC_ROUNDTRIP
360
365
  0
DICTIONARY
  5
368
330
31
100
AcDbDictionary
280
     1
281
     1
  3
ACAD_XREC_ROUNDTRIP
360
369
  0
DICTIONARY
  5
366
330
30
100
AcDbDictionary
280
     1
281
     1
  3
ACAD_XREC_ROUNDTRIP
360
367
  0
DICTIONARY
  5
36A
330
32
100
AcDbDictionary
280
     1
281
     1
  3
ACAD_XREC_ROUNDTRIP
360
36B
  0
DICTIONARY
  5
372
330
36
100
AcDbDictionary
280
     1
281
     1
  3
ACAD_XREC_ROUNDTRIP
360
373
  0
DICTIONARY
  5
37A
330
3A
100
AcDbDictionary
280
     1
281
     1
  3
ACAD_XREC_ROUNDTRIP
360
37B
  0
DICTIONARY
  5
36E
330
34
100
AcDbDictionary
280
     1
281
     1
  3
ACAD_XREC_ROUNDTRIP
360
36F
  0
DICTIONARY
  5
370
330
35
100
AcDbDictionary
280
     1
281
     1
  3
ACAD_XREC_ROUNDTRIP
360
371
  0
DICTIONARY
  5
378
330
39
100
AcDbDictionary
280
     1
281
     1
  3
ACAD_XREC_ROUNDTRIP
360
379
  0
DICTIONARY
  5
35C
330
2B
100
AcDbDictionary
280
     1
281
     1
  3
ACAD_XREC_ROUNDTRIP
360
35D
  0
DICTIONARY
  5
35E
330
2C
100
AcDbDictionary
280
     1
281
     1
  3
ACAD_XREC_ROUNDTRIP
360
35F
  0
DICTIONARY
  5
360
330
2D
100
AcDbDictionary
280
     1
281
     1
  3
ACAD_XREC_ROUNDTRIP
360
361
  0
DICTIONARY
  5
362
330
2E
100
AcDbDictionary
280
     1
281
     1
  3
ACAD_XREC_ROUNDTRIP
360
363
  0
DICTIONARY
  5
376
330
38
100
AcDbDictionary
280
     1
281
     1
  3
ACAD_XREC_ROUNDTRIP
360
377
  0
DICTIONARY
  5
36C
330
33
100
AcDbDictionary
280
     1
281
     1
  3
ACAD_XREC_ROUNDTRIP
360
36D
  0
DICTIONARY
  5
374
330
37
100
AcDbDictionary
280
     1
281
     1
  3
ACAD_XREC_ROUNDTRIP
360
375
  0
XRECORD
  5
37F
102
{ACAD_REACTORS
330
37E
102
}
330
37E
100
AcDbXrecord
280
     1
102
MATERIAL
148
0.0
149
0.0
149
0.0
 93
        0
 94
      127
282
     0
 72
     1
 77
     1
171
     1
175
     1
179
     1
273
     0
  0
XRECORD
  5
37D
102
{ACAD_REACTORS
330
37C
102
}
330
37C
100
AcDbXrecord
280
     1
102
MATERIAL
148
0.0
149
0.0
149
0.0
 93
        0
 94
      127
282
     0
 72
     1
 77
     1
171
     1
175
     1
179
     1
273
     0
  0
XRECORD
  5
381
102
{ACAD_REACTORS
330
380
102
}
330
380
100
AcDbXrecord
280
     1
102
MATERIAL
148
0.0
149
0.0
149
0.0
 93
        0
 94
      127
282
     0
 72
     1
 77
     1
171
     1
175
     1
179
     1
273
     0
  0
XRECORD
  5
365
102
{ACAD_REACTORS
330
364
102
}
330
364
100
AcDbXrecord
280
     1
102
RTVSPropertyOp0
 70
     1
102
RTVSPropertyOp1
 70
     1
102
RTVSPropertyOp2
 70
     1
102
RTVSPropertyOp3
 70
     1
102
RTVSPropertyOp4
 70
     1
102
RTVSPropertyOp5
 70
     1
102
RTVSPropertyOp6
 70
     1
102
RTVSPropertyOp7
 70
     1
102
RTVSPropertyOp8
 70
     1
102
RTVSPropertyOp9
 70
     1
102
RTVSPropertyOp10
 70
     1
102
RTVSPropertyOp11
 70
     1
102
RTVSPropertyOp12
 70
     1
102
RTVSPropertyOp13
 70
     1
102
RTVSPropertyOp14
 70
     1
102
RTVSPropertyOp15
 70
     1
102
RTVSPropertyOp16
 70
     1
102
RTVSPropertyOp17
 70
     1
102
RTVSPropertyOp18
 70
     1
102
RTVSPropertyOp19
 70
     1
102
RTVSPropertyOp20
 70
     1
102
RTVSPropertyOp21
 70
     1
102
RTVSPropertyOp22
 70
     1
102
RTVSPropertyOp23
 70
     1
102
RTVSPropertyOp24
 70
     1
102
RTVSPropertyOp25
 70
     1
102
RTVSPropertyOp26
 70
     1
102
RTVSPropertyOp27
 70
     1
  0
XRECORD
  5
369
102
{ACAD_REACTORS
330
368
102
}
330
368
100
AcDbXrecord
280
     1
102
RTVSPropertyOp0
 70
     1
102
RTVSPropertyOp1
 70
     1
102
RTVSPropertyOp2
 70
     1
102
RTVSPropertyOp3
 70
     1
102
RTVSPropertyOp4
 70
     1
102
RTVSPropertyOp5
 70
     1
102
RTVSPropertyOp6
 70
     1
102
RTVSPropertyOp7
 70
     1
102
RTVSPropertyOp8
 70
     1
102
RTVSPropertyOp9
 70
     1
102
RTVSPropertyOp10
 70
     1
102
RTVSPropertyOp11
 70
     1
102
RTVSPropertyOp12
 70
     1
102
RTVSPropertyOp13
 70
     1
102
RTVSPropertyOp14
 70
     1
102
RTVSPropertyOp15
 70
     1
102
RTVSPropertyOp16
 70
     1
102
RTVSPropertyOp17
 70
     1
102
RTVSPropertyOp18
 70
     1
102
RTVSPropertyOp19
 70
     1
102
RTVSPropertyOp20
 70
     1
102
RTVSPropertyOp21
 70
     1
102
RTVSPropertyOp22
 70
     1
102
RTVSPropertyOp23
 70
     1
102
RTVSPropertyOp24
 70
     1
102
RTVSPropertyOp25
 70
     1
102
RTVSPropertyOp26
 70
     1
102
RTVSPropertyOp27
 70
     1
  0
XRECORD
  5
367
102
{ACAD_REACTORS
330
366
102
}
330
366
100
AcDbXrecord
280
     1
102
RTVSPropertyOp0
 70
     1
102
RTVSPropertyOp1
 70
     1
102
RTVSPropertyOp2
 70
     1
102
RTVSPropertyOp3
 70
     1
102
RTVSPropertyOp4
 70
     1
102
RTVSPropertyOp5
 70
     1
102
RTVSPropertyOp6
 70
     1
102
RTVSPropertyOp7
 70
     1
102
RTVSPropertyOp8
 70
     1
102
RTVSPropertyOp9
 70
     1
102
RTVSPropertyOp10
 70
     1
102
RTVSPropertyOp11
 70
     1
102
RTVSPropertyOp12
 70
     1
102
RTVSPropertyOp13
 70
     1
102
RTVSPropertyOp14
 70
     1
102
RTVSPropertyOp15
 70
     1
102
RTVSPropertyOp16
 70
     1
102
RTVSPropertyOp17
 70
     1
102
RTVSPropertyOp18
 70
     1
102
RTVSPropertyOp19
 70
     1
102
RTVSPropertyOp20
 70
     1
102
RTVSPropertyOp21
 70
     1
102
RTVSPropertyOp22
 70
     1
102
RTVSPropertyOp23
 70
     1
102
RTVSPropertyOp24
 70
     1
102
RTVSPropertyOp25
 70
     1
102
RTVSPropertyOp26
 70
     1
102
RTVSPropertyOp27
 70
     1
  0
XRECORD
  5
36B
102
{ACAD_REACTORS
330
36A
102
}
330
36A
100
AcDbXrecord
280
     1
102
RTVSPropertyOp0
 70
     1
102
RTVSPropertyOp1
 70
     1
102
RTVSPropertyOp2
 70
     1
102
RTVSPropertyOp3
 70
     1
102
RTVSPropertyOp4
 70
     1
102
RTVSPropertyOp5
 70
     1
102
RTVSPropertyOp6
 70
     1
102
RTVSPropertyOp7
 70
     1
102
RTVSPropertyOp8
 70
     1
102
RTVSPropertyOp9
 70
     1
102
RTVSPropertyOp10
 70
     1
102
RTVSPropertyOp11
 70
     1
102
RTVSPropertyOp12
 70
     1
102
RTVSPropertyOp13
 70
     1
102
RTVSPropertyOp14
 70
     1
102
RTVSPropertyOp15
 70
     1
102
RTVSPropertyOp16
 70
     1
102
RTVSPropertyOp17
 70
     1
102
RTVSPropertyOp18
 70
     1
102
RTVSPropertyOp19
 70
     1
102
RTVSPropertyOp20
 70
     1
102
RTVSPropertyOp21
 70
     1
102
RTVSPropertyOp22
 70
     1
102
RTVSPropertyOp23
 70
     1
102
RTVSPropertyOp24
 70
     1
102
RTVSPropertyOp25
 70
     1
102
RTVSPropertyOp26
 70
     1
102
RTVSPropertyOp27
 70
     1
  0
XRECORD
  5
373
102
{ACAD_REACTORS
330
372
102
}
330
372
100
AcDbXrecord
280
     1
102
RTVSPropertyOp0
 70
     1
102
RTVSPropertyOp1
 70
     1
102
RTVSPropertyOp2
 70
     1
102
RTVSPropertyOp3
 70
     1
102
RTVSPropertyOp4
 70
     1
102
RTVSPropertyOp5
 70
     1
102
RTVSPropertyOp6
 70
     1
102
RTVSPropertyOp7
 70
     1
102
RTVSPropertyOp8
 70
     1
102
RTVSPropertyOp9
 70
     1
102
RTVSPropertyOp10
 70
     1
102
RTVSPropertyOp11
 70
     1
102
RTVSPropertyOp12
 70
     1
102
RTVSPropertyOp13
 70
     1
102
RTVSPropertyOp14
 70
     1
102
RTVSPropertyOp15
 70
     1
102
RTVSPropertyOp16
 70
     1
102
RTVSPropertyOp17
 70
     1
102
RTVSPropertyOp18
 70
     1
102
RTVSPropertyOp19
 70
     1
102
RTVSPropertyOp20
 70
     1
102
RTVSPropertyOp21
 70
     1
102
RTVSPropertyOp22
 70
     1
102
RTVSPropertyOp23
 70
     1
102
RTVSPropertyOp24
 70
     1
102
RTVSPropertyOp25
 70
     1
102
RTVSPropertyOp26
 70
     1
102
RTVSPropertyOp27
 70
     1
  0
XRECORD
  5
37B
102
{ACAD_REACTORS
330
37A
102
}
330
37A
100
AcDbXrecord
280
     1
102
RTVSPropertyOp0
 70
     1
102
RTVSPropertyOp1
 70
     1
102
RTVSPropertyOp2
 70
     1
102
RTVSPropertyOp3
 70
     1
102
RTVSPropertyOp4
 70
     1
102
RTVSPropertyOp5
 70
     1
102
RTVSPropertyOp6
 70
     1
102
RTVSPropertyOp7
 70
     1
102
RTVSPropertyOp8
 70
     1
102
RTVSPropertyOp9
 70
     1
102
RTVSPropertyOp10
 70
     1
102
RTVSPropertyOp11
 70
     1
102
RTVSPropertyOp12
 70
     1
102
RTVSPropertyOp13
 70
     1
102
RTVSPropertyOp14
 70
     1
102
RTVSPropertyOp15
 70
     1
102
RTVSPropertyOp16
 70
     1
102
RTVSPropertyOp17
 70
     1
102
RTVSPropertyOp18
 70
     1
102
RTVSPropertyOp19
 70
     1
102
RTVSPropertyOp20
 70
     1
102
RTVSPropertyOp21
 70
     1
102
RTVSPropertyOp22
 70
     1
102
RTVSPropertyOp23
 70
     1
102
RTVSPropertyOp24
 70
     1
102
RTVSPropertyOp25
 70
     1
102
RTVSPropertyOp26
 70
     1
102
RTVSPropertyOp27
 70
     1
  0
XRECORD
  5
36F
102
{ACAD_REACTORS
330
36E
102
}
330
36E
100
AcDbXrecord
280
     1
102
RTVSPropertyOp0
 70
     1
102
RTVSPropertyOp1
 70
     1
102
RTVSPropertyOp2
 70
     1
102
RTVSPropertyOp3
 70
     1
102
RTVSPropertyOp4
 70
     1
102
RTVSPropertyOp5
 70
     1
102
RTVSPropertyOp6
 70
     1
102
RTVSPropertyOp7
 70
     1
102
RTVSPropertyOp8
 70
     1
102
RTVSPropertyOp9
 70
     1
102
RTVSPropertyOp10
 70
     1
102
RTVSPropertyOp11
 70
     1
102
RTVSPropertyOp12
 70
     1
102
RTVSPropertyOp13
 70
     1
102
RTVSPropertyOp14
 70
     1
102
RTVSPropertyOp15
 70
     1
102
RTVSPropertyOp16
 70
     1
102
RTVSPropertyOp17
 70
     1
102
RTVSPropertyOp18
 70
     1
102
RTVSPropertyOp19
 70
     1
102
RTVSPropertyOp20
 70
     1
102
RTVSPropertyOp21
 70
     1
102
RTVSPropertyOp22
 70
     1
102
RTVSPropertyOp23
 70
     1
102
RTVSPropertyOp24
 70
     1
102
RTVSPropertyOp25
 70
     1
102
RTVSPropertyOp26
 70
     1
102
RTVSPropertyOp27
 70
     1
  0
XRECORD
  5
371
102
{ACAD_REACTORS
330
370
102
}
330
370
100
AcDbXrecord
280
     1
102
RTVSPropertyOp0
 70
     1
102
RTVSPropertyOp1
 70
     1
102
RTVSPropertyOp2
 70
     1
102
RTVSPropertyOp3
 70
     1
102
RTVSPropertyOp4
 70
     1
102
RTVSPropertyOp5
 70
     1
102
RTVSPropertyOp6
 70
     1
102
RTVSPropertyOp7
 70
     1
102
RTVSPropertyOp8
 70
     1
102
RTVSPropertyOp9
 70
     1
102
RTVSPropertyOp10
 70
     1
102
RTVSPropertyOp11
 70
     1
102
RTVSPropertyOp12
 70
     1
102
RTVSPropertyOp13
 70
     1
102
RTVSPropertyOp14
 70
     1
102
RTVSPropertyOp15
 70
     1
102
RTVSPropertyOp16
 70
     1
102
RTVSPropertyOp17
 70
     1
102
RTVSPropertyOp18
 70
     1
102
RTVSPropertyOp19
 70
     1
102
RTVSPropertyOp20
 70
     1
102
RTVSPropertyOp21
 70
     1
102
RTVSPropertyOp22
 70
     1
102
RTVSPropertyOp23
 70
     1
102
RTVSPropertyOp24
 70
     1
102
RTVSPropertyOp25
 70
     1
102
RTVSPropertyOp26
 70
     1
102
RTVSPropertyOp27
 70
     1
  0
XRECORD
  5
379
102
{ACAD_REACTORS
330
378
102
}
330
378
100
AcDbXrecord
280
     1
102
RTVSPropertyOp0
 70
     1
102
RTVSPropertyOp1
 70
     1
102
RTVSPropertyOp2
 70
     1
102
RTVSPropertyOp3
 70
     1
102
RTVSPropertyOp4
 70
     1
102
RTVSPropertyOp5
 70
     1
102
RTVSPropertyOp6
 70
     1
102
RTVSPropertyOp7
 70
     1
102
RTVSPropertyOp8
 70
     1
102
RTVSPropertyOp9
 70
     1
102
RTVSPropertyOp10
 70
     1
102
RTVSPropertyOp11
 70
     1
102
RTVSPropertyOp12
 70
     1
102
RTVSPropertyOp13
 70
     1
102
RTVSPropertyOp14
 70
     1
102
RTVSPropertyOp15
 70
     1
102
RTVSPropertyOp16
 70
     1
102
RTVSPropertyOp17
 70
     1
102
RTVSPropertyOp18
 70
     1
102
RTVSPropertyOp19
 70
     1
102
RTVSPropertyOp20
 70
     1
102
RTVSPropertyOp21
 70
     1
102
RTVSPropertyOp22
 70
     1
102
RTVSPropertyOp23
 70
     1
102
RTVSPropertyOp24
 70
     1
102
RTVSPropertyOp25
 70
     1
102
RTVSPropertyOp26
 70
     1
102
RTVSPropertyOp27
 70
     1
  0
XRECORD
  5
35D
102
{ACAD_REACTORS
330
35C
102
}
330
35C
100
AcDbXrecord
280
     1
102
RTVSPropertyOp0
 70
     1
102
RTVSPropertyOp1
 70
     1
102
RTVSPropertyOp2
 70
     1
102
RTVSPropertyOp3
 70
     1
102
RTVSPropertyOp4
 70
     1
102
RTVSPropertyOp5
 70
     1
102
RTVSPropertyOp6
 70
     1
102
RTVSPropertyOp7
 70
     1
102
RTVSPropertyOp8
 70
     1
102
RTVSPropertyOp9
 70
     1
102
RTVSPropertyOp10
 70
     1
102
RTVSPropertyOp11
 70
     1
102
RTVSPropertyOp12
 70
     1
102
RTVSPropertyOp13
 70
     1
102
RTVSPropertyOp14
 70
     1
102
RTVSPropertyOp15
 70
     1
102
RTVSPropertyOp16
 70
     1
102
RTVSPropertyOp17
 70
     1
102
RTVSPropertyOp18
 70
     1
102
RTVSPropertyOp19
 70
     1
102
RTVSPropertyOp20
 70
     1
102
RTVSPropertyOp21
 70
     1
102
RTVSPropertyOp22
 70
     1
102
RTVSPropertyOp23
 70
     1
102
RTVSPropertyOp24
 70
     1
102
RTVSPropertyOp25
 70
     1
102
RTVSPropertyOp26
 70
     1
102
RTVSPropertyOp27
 70
     1
  0
XRECORD
  5
35F
102
{ACAD_REACTORS
330
35E
102
}
330
35E
100
AcDbXrecord
280
     1
102
RTVSPropertyOp0
 70
     1
102
RTVSPropertyOp1
 70
     1
102
RTVSPropertyOp2
 70
     1
102
RTVSPropertyOp3
 70
     1
102
RTVSPropertyOp4
 70
     1
102
RTVSPropertyOp5
 70
     1
102
RTVSPropertyOp6
 70
     1
102
RTVSPropertyOp7
 70
     1
102
RTVSPropertyOp8
 70
     1
102
RTVSPropertyOp9
 70
     1
102
RTVSPropertyOp10
 70
     1
102
RTVSPropertyOp11
 70
     1
102
RTVSPropertyOp12
 70
     1
102
RTVSPropertyOp13
 70
     1
102
RTVSPropertyOp14
 70
     1
102
RTVSPropertyOp15
 70
     1
102
RTVSPropertyOp16
 70
     1
102
RTVSPropertyOp17
 70
     1
102
RTVSPropertyOp18
 70
     1
102
RTVSPropertyOp19
 70
     1
102
RTVSPropertyOp20
 70
     1
102
RTVSPropertyOp21
 70
     1
102
RTVSPropertyOp22
 70
     1
102
RTVSPropertyOp23
 70
     1
102
RTVSPropertyOp24
 70
     1
102
RTVSPropertyOp25
 70
     1
102
RTVSPropertyOp26
 70
     1
102
RTVSPropertyOp27
 70
     1
  0
XRECORD
  5
361
102
{ACAD_REACTORS
330
360
102
}
330
360
100
AcDbXrecord
280
     1
102
RTVSPropertyOp0
 70
     1
102
RTVSPropertyOp1
 70
     1
102
RTVSPropertyOp2
 70
     1
102
RTVSPropertyOp3
 70
     1
102
RTVSPropertyOp4
 70
     1
102
RTVSPropertyOp5
 70
     1
102
RTVSPropertyOp6
 70
     1
102
RTVSPropertyOp7
 70
     1
102
RTVSPropertyOp8
 70
     1
102
RTVSPropertyOp9
 70
     1
102
RTVSPropertyOp10
 70
     1
102
RTVSPropertyOp11
 70
     1
102
RTVSPropertyOp12
 70
     1
102
RTVSPropertyOp13
 70
     1
102
RTVSPropertyOp14
 70
     1
102
RTVSPropertyOp15
 70
     1
102
RTVSPropertyOp16
 70
     1
102
RTVSPropertyOp17
 70
     1
102
RTVSPropertyOp18
 70
     1
102
RTVSPropertyOp19
 70
     1
102
RTVSPropertyOp20
 70
     1
102
RTVSPropertyOp21
 70
     1
102
RTVSPropertyOp22
 70
     1
102
RTVSPropertyOp23
 70
     1
102
RTVSPropertyOp24
 70
     1
102
RTVSPropertyOp25
 70
     1
102
RTVSPropertyOp26
 70
     1
102
RTVSPropertyOp27
 70
     1
  0
XRECORD
  5
363
102
{ACAD_REACTORS
330
362
102
}
330
362
100
AcDbXrecord
280
     1
102
RTVSPropertyOp0
 70
     1
102
RTVSPropertyOp1
 70
     1
102
RTVSPropertyOp2
 70
     1
102
RTVSPropertyOp3
 70
     1
102
RTVSPropertyOp4
 70
     1
102
RTVSPropertyOp5
 70
     1
102
RTVSPropertyOp6
 70
     1
102
RTVSPropertyOp7
 70
     1
102
RTVSPropertyOp8
 70
     1
102
RTVSPropertyOp9
 70
     1
102
RTVSPropertyOp10
 70
     1
102
RTVSPropertyOp11
 70
     1
102
RTVSPropertyOp12
 70
     1
102
RTVSPropertyOp13
 70
     1
102
RTVSPropertyOp14
 70
     1
102
RTVSPropertyOp15
 70
     1
102
RTVSPropertyOp16
 70
     1
102
RTVSPropertyOp17
 70
     1
102
RTVSPropertyOp18
 70
     1
102
RTVSPropertyOp19
 70
     1
102
RTVSPropertyOp20
 70
     1
102
RTVSPropertyOp21
 70
     1
102
RTVSPropertyOp22
 70
     1
102
RTVSPropertyOp23
 70
     1
102
RTVSPropertyOp24
 70
     1
102
RTVSPropertyOp25
 70
     1
102
RTVSPropertyOp26
 70
     1
102
RTVSPropertyOp27
 70
     1
  0
XRECORD
  5
377
102
{ACAD_REACTORS
330
376
102
}
330
376
100
AcDbXrecord
280
     1
102
RTVSPropertyOp0
 70
     1
102
RTVSPropertyOp1
 70
     1
102
RTVSPropertyOp2
 70
     1
102
RTVSPropertyOp3
 70
     1
102
RTVSPropertyOp4
 70
     1
102
RTVSPropertyOp5
 70
     1
102
RTVSPropertyOp6
 70
     1
102
RTVSPropertyOp7
 70
     1
102
RTVSPropertyOp8
 70
     1
102
RTVSPropertyOp9
 70
     1
102
RTVSPropertyOp10
 70
     1
102
RTVSPropertyOp11
 70
     1
102
RTVSPropertyOp12
 70
     1
102
RTVSPropertyOp13
 70
     1
102
RTVSPropertyOp14
 70
     1
102
RTVSPropertyOp15
 70
     1
102
RTVSPropertyOp16
 70
     1
102
RTVSPropertyOp17
 70
     1
102
RTVSPropertyOp18
 70
     1
102
RTVSPropertyOp19
 70
     1
102
RTVSPropertyOp20
 70
     1
102
RTVSPropertyOp21
 70
     1
102
RTVSPropertyOp22
 70
     1
102
RTVSPropertyOp23
 70
     1
102
RTVSPropertyOp24
 70
     1
102
RTVSPropertyOp25
 70
     1
102
RTVSPropertyOp26
 70
     1
102
RTVSPropertyOp27
 70
     1
  0
XRECORD
  5
36D
102
{ACAD_REACTORS
330
36C
102
}
330
36C
100
AcDbXrecord
280
     1
102
RTVSPropertyOp0
 70
     1
102
RTVSPropertyOp1
 70
     1
102
RTVSPropertyOp2
 70
     1
102
RTVSPropertyOp3
 70
     1
102
RTVSPropertyOp4
 70
     1
102
RTVSPropertyOp5
 70
     1
102
RTVSPropertyOp6
 70
     1
102
RTVSPropertyOp7
 70
     1
102
RTVSPropertyOp8
 70
     1
102
RTVSPropertyOp9
 70
     1
102
RTVSPropertyOp10
 70
     1
102
RTVSPropertyOp11
 70
     1
102
RTVSPropertyOp12
 70
     1
102
RTVSPropertyOp13
 70
     1
102
RTVSPropertyOp14
 70
     1
102
RTVSPropertyOp15
 70
     1
102
RTVSPropertyOp16
 70
     1
102
RTVSPropertyOp17
 70
     1
102
RTVSPropertyOp18
 70
     1
102
RTVSPropertyOp19
 70
     1
102
RTVSPropertyOp20
 70
     1
102
RTVSPropertyOp21
 70
     1
102
RTVSPropertyOp22
 70
     1
102
RTVSPropertyOp23
 70
     1
102
RTVSPropertyOp24
 70
     1
102
RTVSPropertyOp25
 70
     1
102
RTVSPropertyOp26
 70
     1
102
RTVSPropertyOp27
 70
     1
  0
XRECORD
  5
375
102
{ACAD_REACTORS
330
374
102
}
330
374
100
AcDbXrecord
280
     1
102
RTVSPropertyOp0
 70
     1
102
RTVSPropertyOp1
 70
     1
102
RTVSPropertyOp2
 70
     1
102
RTVSPropertyOp3
 70
     1
102
RTVSPropertyOp4
 70
     1
102
RTVSPropertyOp5
 70
     1
102
RTVSPropertyOp6
 70
     1
102
RTVSPropertyOp7
 70
     1
102
RTVSPropertyOp8
 70
     1
102
RTVSPropertyOp9
 70
     1
102
RTVSPropertyOp10
 70
     1
102
RTVSPropertyOp11
 70
     1
102
RTVSPropertyOp12
 70
     1
102
RTVSPropertyOp13
 70
     1
102
RTVSPropertyOp14
 70
     1
102
RTVSPropertyOp15
 70
     1
102
RTVSPropertyOp16
 70
     1
102
RTVSPropertyOp17
 70
     1
102
RTVSPropertyOp18
 70
     1
102
RTVSPropertyOp19
 70
     1
102
RTVSPropertyOp20
 70
     1
102
RTVSPropertyOp21
 70
     1
102
RTVSPropertyOp22
 70
     1
102
RTVSPropertyOp23
 70
     1
102
RTVSPropertyOp24
 70
     1
102
RTVSPropertyOp25
 70
     1
102
RTVSPropertyOp26
 70
     1
102
RTVSPropertyOp27
 70
     1
  0
ENDSEC
  0
EOF
