  0
SECTION
  2
HEADER
  9
$ACADVER
  1
AC1015
  9
$ACADMAINTVER
 70
     6
  9
$DWGCODEPAGE
  3
ANSI_932
  9
$INSBASE
 10
0.0
 20
0.0
 30
0.0
  9
$EXTMIN
 10
0.0
 20
0.0
 30
0.0
  9
$EXTMAX
 10
841.0
 20
594.0
 30
0.0
  9
$LIMMIN
 10
0.0
 20
0.0
  9
$LIMMAX
 10
841.0
 20
594.0
  9
$ORTHOMODE
 70
     0
  9
$REGENMODE
 70
     1
  9
$FILLMODE
 70
     1
  9
$QTEXTMODE
 70
     0
  9
$MIRRTEXT
 70
     1
  9
$LTSCALE
 40
1.0
  9
$ATTMODE
 70
     1
  9
$TEXTSIZE
 40
2.5
  9
$TRACEWID
 40
1.0
  9
$TEXTSTYLE
  7
FX_VECTOR
  9
$CLAYER
  8
0
  9
$CELTYPE
  6
ByLayer
  9
$CECOLOR
 62
   256
  9
$CELTSCALE
 40
1.0
  9
$DISPSILH
 70
     0
  9
$DIMSCALE
 40
1.0
  9
$DIMASZ
 40
4.0
  9
$DIMEXO
 40
1.0
  9
$DIMDLI
 40
10.0
  9
$DIMRND
 40
0.0
  9
$DIMDLE
 40
6.0
  9
$DIMEXE
 40
1.0
  9
$DIMTP
 40
0.0
  9
$DIMTM
 40
0.0
  9
$DIMTXT
 40
4.0
  9
$DIMCEN
 40
2.5
  9
$DIMTSZ
 40
0.0
  9
$DIMTOL
 70
     0
  9
$DIMLIM
 70
     0
  9
$DIMTIH
 70
     0
  9
$DIMTOH
 70
     0
  9
$DIMSE1
 70
     0
  9
$DIMSE2
 70
     0
  9
$DIMTAD
 70
     1
  9
$DIMZIN
 70
     8
  9
$DIMBLK
  1

  9
$DIMASO
 70
     1
  9
$DIMSHO
 70
     1
  9
$DIMPOST
  1

  9
$DIMAPOST
  1

  9
$DIMALT
 70
     0
  9
$DIMALTD
 70
     3
  9
$DIMALTF
 40
0.03937
  9
$DIMLFAC
 40
1.0
  9
$DIMTOFL
 70
     1
  9
$DIMTVP
 40
0.0
  9
$DIMTIX
 70
     0
  9
$DIMSOXD
 70
     0
  9
$DIMSAH
 70
     1
  9
$DIMBLK1
  1
FXTIP_ARROW_S
  9
$DIMBLK2
  1
FXTIP_ARROW_E
  9
$DIMSTYLE
  2
FXDIMINFO
  9
$DIMCLRD
 70
     7
  9
$DIMCLRE
 70
     7
  9
$DIMCLRT
 70
     7
  9
$DIMTFAC
 40
1.0
  9
$DIMGAP
 40
1.0
  9
$DIMJUST
 70
     0
  9
$DIMSD1
 70
     0
  9
$DIMSD2
 70
     0
  9
$DIMTOLJ
 70
     1
  9
$DIMTZIN
 70
     8
  9
$DIMALTZ
 70
     0
  9
$DIMALTTZ
 70
     0
  9
$DIMUPT
 70
     0
  9
$DIMDEC
 70
     2
  9
$DIMTDEC
 70
     2
  9
$DIMALTU
 70
     2
  9
$DIMALTTD
 70
     3
  9
$DIMTXSTY
  7
FX_VECTOR
  9
$DIMAUNIT
 70
     0
  9
$DIMADEC
 70
     2
  9
$DIMALTRND
 40
0.0
  9
$DIMAZIN
 70
     2
  9
$DIMDSEP
 70
    46
  9
$DIMATFIT
 70
     3
  9
$DIMFRAC
 70
     0
  9
$DIMLDRBLK
  1
FXTIP_ARROW_S
  9
$DIMLUNIT
 70
     2
  9
$DIMLWD
 70
    -2
  9
$DIMLWE
 70
    -2
  9
$DIMTMOVE
 70
     0
  9
$LUNITS
 70
     2
  9
$LUPREC
 70
     4
  9
$SKETCHINC
 40
1.0
  9
$FILLETRAD
 40
10.0
  9
$AUNITS
 70
     0
  9
$AUPREC
 70
     0
  9
$MENU
  1
.
  9
$ELEVATION
 40
0.0
  9
$PELEVATION
 40
0.0
  9
$THICKNESS
 40
0.0
  9
$LIMCHECK
 70
     0
  9
$CHAMFERA
 40
10.0
  9
$CHAMFERB
 40
10.0
  9
$CHAMFERC
 40
20.0
  9
$CHAMFERD
 40
0.0
  9
$SKPOLY
 70
     0
  9
$TDCREATE
 40
2455840.608715405
  9
$TDUCREATE
 40
2455840.233715405
  9
$TDUPDATE
 40
2455840.608715417
  9
$TDUUPDATE
 40
2455840.233715417
  9
$TDINDWG
 40
0.0000000116
  9
$TDUSRTIMER
 40
0.0000000116
  9
$USRTIMER
 70
     1
  9
$ANGBASE
 50
0.0
  9
$ANGDIR
 70
     0
  9
$PDMODE
 70
     0
  9
$PDSIZE
 40
0.0
  9
$PLINEWID
 40
0.0
  9
$SPLFRAME
 70
     0
  9
$SPLINETYPE
 70
     6
  9
$SPLINESEGS
 70
     8
  9
$HANDSEED
  5
589
  9
$SURFTAB1
 70
     6
  9
$SURFTAB2
 70
     6
  9
$SURFTYPE
 70
     6
  9
$SURFU
 70
     6
  9
$SURFV
 70
     6
  9
$UCSBASE
  2

  9
$UCSNAME
  2

  9
$UCSORG
 10
0.0
 20
0.0
 30
0.0
  9
$UCSXDIR
 10
1.0
 20
0.0
 30
0.0
  9
$UCSYDIR
 10
0.0
 20
1.0
 30
0.0
  9
$UCSORTHOREF
  2

  9
$UCSORTHOVIEW
 70
     0
  9
$UCSORGTOP
 10
0.0
 20
0.0
 30
0.0
  9
$UCSORGBOTTOM
 10
0.0
 20
0.0
 30
0.0
  9
$UCSORGLEFT
 10
0.0
 20
0.0
 30
0.0
  9
$UCSORGRIGHT
 10
0.0
 20
0.0
 30
0.0
  9
$UCSORGFRONT
 10
0.0
 20
0.0
 30
0.0
  9
$UCSORGBACK
 10
0.0
 20
0.0
 30
0.0
  9
$PUCSBASE
  2

  9
$PUCSNAME
  2

  9
$PUCSORG
 10
0.0
 20
0.0
 30
0.0
  9
$PUCSXDIR
 10
1.0
 20
0.0
 30
0.0
  9
$PUCSYDIR
 10
0.0
 20
1.0
 30
0.0
  9
$PUCSORTHOREF
  2

  9
$PUCSORTHOVIEW
 70
     0
  9
$PUCSORGTOP
 10
0.0
 20
0.0
 30
0.0
  9
$PUCSORGBOTTOM
 10
0.0
 20
0.0
 30
0.0
  9
$PUCSORGLEFT
 10
0.0
 20
0.0
 30
0.0
  9
$PUCSORGRIGHT
 10
0.0
 20
0.0
 30
0.0
  9
$PUCSORGFRONT
 10
0.0
 20
0.0
 30
0.0
  9
$PUCSORGBACK
 10
0.0
 20
0.0
 30
0.0
  9
$USERI1
 70
     0
  9
$USERI2
 70
     0
  9
$USERI3
 70
     0
  9
$USERI4
 70
     0
  9
$USERI5
 70
     0
  9
$USERR1
 40
0.0
  9
$USERR2
 40
0.0
  9
$USERR3
 40
0.0
  9
$USERR4
 40
0.0
  9
$USERR5
 40
0.0
  9
$WORLDVIEW
 70
     1
  9
$SHADEDGE
 70
     3
  9
$SHADEDIF
 70
    70
  9
$TILEMODE
 70
     1
  9
$MAXACTVP
 70
    64
  9
$PINSBASE
 10
0.0
 20
0.0
 30
0.0
  9
$PLIMCHECK
 70
     0
  9
$PEXTMIN
 10
1.000000000000000E+20
 20
1.000000000000000E+20
 30
1.000000000000000E+20
  9
$PEXTMAX
 10
-1.000000000000000E+20
 20
-1.000000000000000E+20
 30
-1.000000000000000E+20
  9
$PLIMMIN
 10
0.0
 20
0.0
  9
$PLIMMAX
 10
420.0
 20
297.0
  9
$UNITMODE
 70
     0
  9
$VISRETAIN
 70
     1
  9
$PLINEGEN
 70
     0
  9
$PSLTSCALE
 70
     1
  9
$TREEDEPTH
 70
  3020
  9
$CMLSTYLE
  2
Standard
  9
$CMLJUST
 70
     0
  9
$CMLSCALE
 40
20.0
  9
$PROXYGRAPHICS
 70
     1
  9
$MEASUREMENT
 70
     1
  9
$CELWEIGHT
370
    -1
  9
$ENDCAPS
280
     0
  9
$JOINSTYLE
280
     0
  9
$LWDISPLAY
290
     0
  9
$INSUNITS
 70
     4
  9
$HYPERLINKBASE
  1

  9
$STYLESHEET
  1

  9
$XEDIT
290
     1
  9
$CEPSNTYPE
380
     0
  9
$PSTYLEMODE
290
     1
  9
$FINGERPRINTGUID
  2
{B43ED9BA-8F6B-4618-83C8-2BE410A42CBB}
  9
$VERSIONGUID
  2
{FAEB1C32-E019-11D5-929B-00C0DF256EC4}
  9
$EXTNAMES
290
     1
  9
$PSVPSCALE
 40
0.0
  9
$OLESTARTUP
290
     0
  0
ENDSEC
  0
SECTION
  2
CLASSES
  0
CLASS
  1
ACDBDICTIONARYWDFLT
  2
AcDbDictionaryWithDefault
  3
ObjectDBX Classes
 90
        0
280
     0
281
     0
  0
CLASS
  1
VISUALSTYLE
  2
AcDbVisualStyle
  3
ObjectDBX Classes
 90
     4095
280
     0
281
     0
  0
CLASS
  1
MATERIAL
  2
AcDbMaterial
  3
ObjectDBX Classes
 90
     1153
280
     0
281
     0
  0
CLASS
  1
DICTIONARYVAR
  2
AcDbDictionaryVar
  3
ObjectDBX Classes
 90
        0
280
     0
281
     0
  0
CLASS
  1
ACDBPLACEHOLDER
  2
AcDbPlaceHolder
  3
ObjectDBX Classes
 90
        0
280
     0
281
     0
  0
CLASS
  1
LAYOUT
  2
AcDbLayout
  3
ObjectDBX Classes
 90
        0
280
     0
281
     0
  0
ENDSEC
  0
SECTION
  2
TABLES
  0
TABLE
  2
VPORT
  5
8
330
0
100
AcDbSymbolTable
 70
     1
  0
VPORT
  5
29
330
8
100
AcDbSymbolTableRecord
100
AcDbViewportTableRecord
  2
*Active
 70
     0
 10
0.0
 20
0.0
 11
1.0
 21
1.0
 12
420.5
 22
297.0
 13
0.0
 23
0.0
 14
10.0
 24
10.0
 15
10.0
 25
10.0
 16
0.0
 26
0.0
 36
1.0
 17
0.0
 27
0.0
 37
0.0
 40
594.0
 41
1.415824915824916
 42
50.0
 43
0.0
 44
0.0
 50
0.0
 51
0.0
 71
     0
 72
   100
 73
     1
 74
     3
 75
     0
 76
     0
 77
     0
 78
     0
281
     0
 65
     1
110
0.0
120
0.0
130
0.0
111
1.0
121
0.0
131
0.0
112
0.0
122
1.0
132
0.0
 79
     0
146
0.0
  0
ENDTAB
  0
TABLE
  2
LTYPE
  5
5
330
0
100
AcDbSymbolTable
 70
     5
  0
LTYPE
  5
14
330
5
100
AcDbSymbolTableRecord
100
AcDbLinetypeTableRecord
  2
ByBlock
 70
     0
  3

 72
    65
 73
     0
 40
0.0
  0
LTYPE
  5
15
330
5
100
AcDbSymbolTableRecord
100
AcDbLinetypeTableRecord
  2
ByLayer
 70
     0
  3

 72
    65
 73
     0
 40
0.0
  0
LTYPE
  5
16
330
5
100
AcDbSymbolTableRecord
100
AcDbLinetypeTableRecord
  2
Continuous
 70
     0
  3
Continuous
 72
    65
 73
     0
 40
0.0
  0
LTYPE
  5
3F
330
5
100
AcDbSymbolTableRecord
100
AcDbLinetypeTableRecord
  2
DASHDOT
 70
     0
  3
Dash dot __ . __ . __ . __ . __ . __ . __ . __
 72
    65
 73
     4
 40
13.0
 49
10.0
 74
     0
 49
-1.0
 74
     0
 49
1.0
 74
     0
 49
-1.0
 74
     0
  0
LTYPE
  5
42
330
5
100
AcDbSymbolTableRecord
100
AcDbLinetypeTableRecord
  2
DASHED
 70
     0
  3
Dashed __ __ __ __ __ __ __ __ __ __ __ __ __ _
 72
    65
 73
     2
 40
2.0
 49
1.0
 74
     0
 49
-1.0
 74
     0
  0
ENDTAB
  0
TABLE
  2
LAYER
  5
2
330
0
100
AcDbSymbolTable
 70
     7
  0
LAYER
  5
10
330
2
100
AcDbSymbolTableRecord
100
AcDbLayerTableRecord
  2
0
 70
     0
 62
     7
  6
Continuous
370
    -3
390
F
  0
LAYER
  5
AD
330
2
100
AcDbSymbolTableRecord
100
AcDbLayerTableRecord
  2
図面枠ﾚｲﾔ_01
 70
     0
 62
     7
  6
Continuous
370
    -3
390
F
  0
LAYER
  5
AF
330
2
100
AcDbSymbolTableRecord
100
AcDbLayerTableRecord
  2
GR1_01
 70
     0
 62
     7
  6
Continuous
370
    -3
390
F
  0
LAYER
  5
26F
330
2
100
AcDbSymbolTableRecord
100
AcDbLayerTableRecord
  2
基準ﾚｲﾔｸﾞﾙｰﾌﾟ_01
 70
     0
 62
     7
  6
Continuous
370
    -3
390
F
  0
LAYER
  5
3C5
330
2
100
AcDbSymbolTableRecord
100
AcDbLayerTableRecord
  2
0_01
 70
     0
 62
     7
  6
Continuous
370
    -3
390
F
  0
ENDTAB
  0
TABLE
  2
STYLE
  5
3
330
0
100
AcDbSymbolTable
 70
     2
  0
STYLE
  5
11
330
3
100
AcDbSymbolTableRecord
100
AcDbTextStyleTableRecord
  2
Standard
 70
     0
 40
0.0
 41
1.0
 50
0.0
 71
     0
 42
2.5
  3
txt
  4

  0
STYLE
  5
45
330
3
100
AcDbSymbolTableRecord
100
AcDbTextStyleTableRecord
  2
FX_VECTOR
 70
     0
 40
0.0
 41
1.0
 50
0.0
 71
     0
 42
0.2
  3
MONOTXT.SHX
  4
BigFont.shx
  0
ENDTAB
  0
TABLE
  2
VIEW
  5
6
330
0
100
AcDbSymbolTable
 70
     0
  0
ENDTAB
  0
TABLE
  2
UCS
  5
7
330
0
100
AcDbSymbolTable
 70
     0
  0
ENDTAB
  0
TABLE
  2
APPID
  5
9
330
0
100
AcDbSymbolTable
 70
     1
  0
APPID
  5
12
330
9
100
AcDbSymbolTableRecord
100
AcDbRegAppTableRecord
  2
ACAD
 70
     0
  0
ENDTAB
  0
TABLE
  2
DIMSTYLE
  5
A
330
0
100
AcDbSymbolTable
 70
     2
100
AcDbDimStyleTable
  0
DIMSTYLE
105
27
330
A
100
AcDbSymbolTableRecord
100
AcDbDimStyleTableRecord
  2
ISO-25
 70
     0
 41
2.5
 42
0.625
 43
3.75
 44
1.25
 73
     0
 74
     0
 77
     1
 78
     8
140
2.5
141
2.5
143
0.03937007874016
147
0.625
171
     3
172
     1
178
     0
271
     2
272
     2
274
     3
278
    44
283
     0
284
     8
340
11
  0
DIMSTYLE
105
AC
330
A
100
AcDbSymbolTableRecord
100
AcDbDimStyleTableRecord
  2
FXDIMINFO
 70
     0
 41
4.0
 42
1.0
 43
10.0
 44
1.0
 46
6.0
 73
     0
 74
     0
 77
     1
 78
     8
 79
     2
140
4.0
141
2.5
143
0.03937
147
1.0
171
     3
172
     1
173
     1
176
     7
177
     7
271
     2
178
     7
179
     2
271
     2
272
     2
274
     3
284
     8
340
45
341
46
343
46
344
4C
  0
ENDTAB
  0
TABLE
  2
BLOCK_RECORD
  5
1
330
0
100
AcDbSymbolTable
 70
    19
  0
BLOCK_RECORD
  5
1F
330
1
100
AcDbSymbolTableRecord
100
AcDbBlockTableRecord
  2
*Model_Space
340
22
  0
BLOCK_RECORD
  5
1B
330
1
100
AcDbSymbolTableRecord
100
AcDbBlockTableRecord
  2
*Paper_Space
340
1E
  0
BLOCK_RECORD
  5
23
330
1
100
AcDbSymbolTableRecord
100
AcDbBlockTableRecord
  2
*Paper_Space0
340
26
  0
BLOCK_RECORD
  5
46
330
1
100
AcDbSymbolTableRecord
100
AcDbBlockTableRecord
  2
FXTIP_ARROW_S
340
0
102
{BLKREFS
331
2A0
331
2A6
331
2AC
331
2B2
331
2B8
331
2BE
331
2C4
331
2CA
331
2CF
331
2D5
331
2D9
331
2DE
331
2E4
331
2EA
331
2F0
102
}
  0
BLOCK_RECORD
  5
4C
330
1
100
AcDbSymbolTableRecord
100
AcDbBlockTableRecord
  2
FXTIP_ARROW_E
340
0
102
{BLKREFS
331
2A1
331
2A7
331
2AD
331
2B3
331
2B9
331
2BF
331
2C5
331
2CB
331
2D0
331
2D6
331
2DF
331
2E5
331
2EB
331
2F1
102
}
  0
BLOCK_RECORD
  5
52
330
1
100
AcDbSymbolTableRecord
100
AcDbBlockTableRecord
  2
FXTIP_BLACKDOT_S
340
0
  0
BLOCK_RECORD
  5
58
330
1
100
AcDbSymbolTableRecord
100
AcDbBlockTableRecord
  2
FXTIP_BLACKDOT_E
340
0
  0
BLOCK_RECORD
  5
5E
330
1
100
AcDbSymbolTableRecord
100
AcDbBlockTableRecord
  2
FXTIP_TRIANGLE_S
340
0
  0
BLOCK_RECORD
  5
65
330
1
100
AcDbSymbolTableRecord
100
AcDbBlockTableRecord
  2
FXTIP_TRIANGLE_E
340
0
  0
BLOCK_RECORD
  5
6C
330
1
100
AcDbSymbolTableRecord
100
AcDbBlockTableRecord
  2
FXTIP_ARCHITECT_S
340
0
  0
BLOCK_RECORD
  5
72
330
1
100
AcDbSymbolTableRecord
100
AcDbBlockTableRecord
  2
FXTIP_ARCHITECT_E
340
0
  0
BLOCK_RECORD
  5
78
330
1
100
AcDbSymbolTableRecord
100
AcDbBlockTableRecord
  2
FXTIP_CIVIL_S
340
0
  0
BLOCK_RECORD
  5
7E
330
1
100
AcDbSymbolTableRecord
100
AcDbBlockTableRecord
  2
FXTIP_CIVIL_E
340
0
  0
BLOCK_RECORD
  5
84
330
1
100
AcDbSymbolTableRecord
100
AcDbBlockTableRecord
  2
FXTIP_WHITEDOT_S
340
0
  0
BLOCK_RECORD
  5
89
330
1
100
AcDbSymbolTableRecord
100
AcDbBlockTableRecord
  2
FXTIP_WHITEDOT_E
340
0
  0
BLOCK_RECORD
  5
8E
330
1
100
AcDbSymbolTableRecord
100
AcDbBlockTableRecord
  2
FXTIP_UPARROW_S
340
0
  0
BLOCK_RECORD
  5
93
330
1
100
AcDbSymbolTableRecord
100
AcDbBlockTableRecord
  2
FXTIP_UPARROW_E
340
0
  0
BLOCK_RECORD
  5
98
330
1
100
AcDbSymbolTableRecord
100
AcDbBlockTableRecord
  2
FXTIP_DOWNARROW_S
340
0
  0
BLOCK_RECORD
  5
9D
330
1
100
AcDbSymbolTableRecord
100
AcDbBlockTableRecord
  2
FXTIP_DOWNARROW_E
340
0
  0
BLOCK_RECORD
  5
A2
330
1
100
AcDbSymbolTableRecord
100
AcDbBlockTableRecord
  2
FXTIP_BLACKTRIANGLE_S
340
0
  0
BLOCK_RECORD
  5
A7
330
1
100
AcDbSymbolTableRecord
100
AcDbBlockTableRecord
  2
FXTIP_BLACKTRIANGLE_E
340
0
  0
ENDTAB
  0
ENDSEC
  0
SECTION
  2
BLOCKS
  0
BLOCK
  5
20
330
1F
100
AcDbEntity
  8
0
100
AcDbBlockBegin
  2
*Model_Space
 70
     0
 10
0.0
 20
0.0
 30
0.0
  3
*Model_Space
  1

  0
ENDBLK
  5
21
330
1F
100
AcDbEntity
  8
0
100
AcDbBlockEnd
  0
BLOCK
  5
1C
330
1B
100
AcDbEntity
 67
     1
  8
0
100
AcDbBlockBegin
  2
*Paper_Space
 70
     0
 10
0.0
 20
0.0
 30
0.0
  3
*Paper_Space
  1

  0
ENDBLK
  5
1D
330
1B
100
AcDbEntity
 67
     1
  8
0
100
AcDbBlockEnd
  0
BLOCK
  5
24
330
23
100
AcDbEntity
  8
0
100
AcDbBlockBegin
  2
*Paper_Space0
 70
     0
 10
0.0
 20
0.0
 30
0.0
  3
*Paper_Space0
  1

  0
ENDBLK
  5
25
330
23
100
AcDbEntity
  8
0
100
AcDbBlockEnd
  0
BLOCK
  5
47
330
46
100
AcDbEntity
  8
0
100
AcDbBlockBegin
  2
FXTIP_ARROW_S
 70
     0
 10
0.0
 20
0.0
 30
0.0
  3
FXTIP_ARROW_S
  1

  0
LINE
  5
49
330
46
100
AcDbEntity
  8
0
  6
Continuous
 62
     0
370
    -2
100
AcDbLine
 10
0.0
 20
0.0
 30
0.0
 11
-1.0
 21
0.0000000000000001
 31
0.0
  0
LINE
  5
4A
330
46
100
AcDbEntity
  8
0
  6
Continuous
 62
     0
370
    -2
100
AcDbLine
 10
0.0
 20
0.0
 30
0.0
 11
-0.9659258262890683
 21
-0.2588190451025206
 31
0.0
  0
LINE
  5
4B
330
46
100
AcDbEntity
  8
0
  6
Continuous
 62
     0
370
    -2
100
AcDbLine
 10
0.0
 20
0.0
 30
0.0
 11
-0.9659258262890683
 21
0.2588190451025209
 31
0.0
  0
ENDBLK
  5
48
330
46
100
AcDbEntity
  8
0
100
AcDbBlockEnd
  0
BLOCK
  5
4D
330
4C
100
AcDbEntity
  8
0
100
AcDbBlockBegin
  2
FXTIP_ARROW_E
 70
     0
 10
0.0
 20
0.0
 30
0.0
  3
FXTIP_ARROW_E
  1

  0
LINE
  5
4F
330
4C
100
AcDbEntity
  8
0
  6
Continuous
 62
     0
370
    -2
100
AcDbLine
 10
0.0
 20
0.0
 30
0.0
 11
-1.0
 21
0.0
 31
0.0
  0
LINE
  5
50
330
4C
100
AcDbEntity
  8
0
  6
Continuous
 62
     0
370
    -2
100
AcDbLine
 10
0.0
 20
0.0
 30
0.0
 11
-0.9659258262890683
 21
0.2588190451025207
 31
0.0
  0
LINE
  5
51
330
4C
100
AcDbEntity
  8
0
  6
Continuous
 62
     0
370
    -2
100
AcDbLine
 10
0.0
 20
0.0
 30
0.0
 11
-0.9659258262890683
 21
-0.2588190451025207
 31
0.0
  0
ENDBLK
  5
4E
330
4C
100
AcDbEntity
  8
0
100
AcDbBlockEnd
  0
BLOCK
  5
53
330
52
100
AcDbEntity
  8
0
100
AcDbBlockBegin
  2
FXTIP_BLACKDOT_S
 70
     0
 10
0.0
 20
0.0
 30
0.0
  3
FXTIP_BLACKDOT_S
  1

  0
LINE
  5
55
330
52
100
AcDbEntity
  8
0
  6
Continuous
 62
     0
370
    -2
100
AcDbLine
 10
0.0
 20
0.0
 30
0.0
 11
-1.0
 21
0.0000000000000001
 31
0.0
  0
LWPOLYLINE
  5
56
330
52
100
AcDbEntity
  8
0
  6
Continuous
 62
     0
370
    -2
100
AcDbPolyline
 90
        2
 70
     1
 10
-0.25
 20
0.0
 40
0.5
 41
0.5
 42
1.0
 10
0.25
 20
0.0
 40
0.5
 41
0.5
 42
1.0
  0
CIRCLE
  5
57
330
52
100
AcDbEntity
  8
0
  6
Continuous
 62
     0
370
    -2
100
AcDbCircle
 10
0.0
 20
0.0
 30
0.0
 40
0.5
  0
ENDBLK
  5
54
330
52
100
AcDbEntity
  8
0
100
AcDbBlockEnd
  0
BLOCK
  5
59
330
58
100
AcDbEntity
  8
0
100
AcDbBlockBegin
  2
FXTIP_BLACKDOT_E
 70
     0
 10
0.0
 20
0.0
 30
0.0
  3
FXTIP_BLACKDOT_E
  1

  0
LINE
  5
5B
330
58
100
AcDbEntity
  8
0
  6
Continuous
 62
     0
370
    -2
100
AcDbLine
 10
0.0
 20
0.0
 30
0.0
 11
-1.0
 21
0.0
 31
0.0
  0
LWPOLYLINE
  5
5C
330
58
100
AcDbEntity
  8
0
  6
Continuous
 62
     0
370
    -2
100
AcDbPolyline
 90
        2
 70
     1
 10
-0.25
 20
0.0
 40
0.5
 41
0.5
 42
1.0
 10
0.25
 20
0.0
 40
0.5
 41
0.5
 42
1.0
  0
CIRCLE
  5
5D
330
58
100
AcDbEntity
  8
0
  6
Continuous
 62
     0
370
    -2
100
AcDbCircle
 10
0.0
 20
0.0
 30
0.0
 40
0.5
  0
ENDBLK
  5
5A
330
58
100
AcDbEntity
  8
0
100
AcDbBlockEnd
  0
BLOCK
  5
5F
330
5E
100
AcDbEntity
  8
0
100
AcDbBlockBegin
  2
FXTIP_TRIANGLE_S
 70
     0
 10
0.0
 20
0.0
 30
0.0
  3
FXTIP_TRIANGLE_S
  1

  0
LINE
  5
61
330
5E
100
AcDbEntity
  8
0
  6
Continuous
 62
     0
370
    -2
100
AcDbLine
 10
0.0
 20
0.0
 30
0.0
 11
-1.0
 21
0.0000000000000001
 31
0.0
  0
LINE
  5
62
330
5E
100
AcDbEntity
  8
0
  6
Continuous
 62
     0
370
    -2
100
AcDbLine
 10
0.0
 20
0.0
 30
0.0
 11
-0.9659258262890683
 21
-0.2588190451025206
 31
0.0
  0
LINE
  5
63
330
5E
100
AcDbEntity
  8
0
  6
Continuous
 62
     0
370
    -2
100
AcDbLine
 10
0.0
 20
0.0
 30
0.0
 11
-0.9659258262890683
 21
0.2588190451025209
 31
0.0
  0
LINE
  5
64
330
5E
100
AcDbEntity
  8
0
  6
Continuous
 62
     0
370
    -2
100
AcDbLine
 10
-0.9659258262890683
 20
-0.2588190451025206
 30
0.0
 11
-0.9659258262890683
 21
0.2588190451025209
 31
0.0
  0
ENDBLK
  5
60
330
5E
100
AcDbEntity
  8
0
100
AcDbBlockEnd
  0
BLOCK
  5
66
330
65
100
AcDbEntity
  8
0
100
AcDbBlockBegin
  2
FXTIP_TRIANGLE_E
 70
     0
 10
0.0
 20
0.0
 30
0.0
  3
FXTIP_TRIANGLE_E
  1

  0
LINE
  5
68
330
65
100
AcDbEntity
  8
0
  6
Continuous
 62
     0
370
    -2
100
AcDbLine
 10
0.0
 20
0.0
 30
0.0
 11
-1.0
 21
0.0
 31
0.0
  0
LINE
  5
69
330
65
100
AcDbEntity
  8
0
  6
Continuous
 62
     0
370
    -2
100
AcDbLine
 10
0.0
 20
0.0
 30
0.0
 11
-0.9659258262890683
 21
0.2588190451025207
 31
0.0
  0
LINE
  5
6A
330
65
100
AcDbEntity
  8
0
  6
Continuous
 62
     0
370
    -2
100
AcDbLine
 10
0.0
 20
0.0
 30
0.0
 11
-0.9659258262890683
 21
-0.2588190451025207
 31
0.0
  0
LINE
  5
6B
330
65
100
AcDbEntity
  8
0
  6
Continuous
 62
     0
370
    -2
100
AcDbLine
 10
-0.9659258262890683
 20
0.2588190451025207
 30
0.0
 11
-0.9659258262890683
 21
-0.2588190451025207
 31
0.0
  0
ENDBLK
  5
67
330
65
100
AcDbEntity
  8
0
100
AcDbBlockEnd
  0
BLOCK
  5
6D
330
6C
100
AcDbEntity
  8
0
100
AcDbBlockBegin
  2
FXTIP_ARCHITECT_S
 70
     0
 10
0.0
 20
0.0
 30
0.0
  3
FXTIP_ARCHITECT_S
  1

  0
LINE
  5
6F
330
6C
100
AcDbEntity
  8
0
  6
Continuous
 62
     0
370
    -2
100
AcDbLine
 10
0.0
 20
0.0
 30
0.0
 11
-1.0
 21
0.0000000000000001
 31
0.0
  0
LINE
  5
70
330
6C
100
AcDbEntity
  8
0
  6
Continuous
 62
     0
370
    -2
100
AcDbLine
 10
0.0
 20
0.0
 30
0.0
 11
-0.7071067811865476
 21
-0.7071067811865474
 31
0.0
  0
LINE
  5
71
330
6C
100
AcDbEntity
  8
0
  6
Continuous
 62
     0
370
    -2
100
AcDbLine
 10
0.0
 20
0.0
 30
0.0
 11
0.7071067811865476
 21
0.7071067811865474
 31
0.0
  0
ENDBLK
  5
6E
330
6C
100
AcDbEntity
  8
0
100
AcDbBlockEnd
  0
BLOCK
  5
73
330
72
100
AcDbEntity
  8
0
100
AcDbBlockBegin
  2
FXTIP_ARCHITECT_E
 70
     0
 10
0.0
 20
0.0
 30
0.0
  3
FXTIP_ARCHITECT_E
  1

  0
LINE
  5
75
330
72
100
AcDbEntity
  8
0
  6
Continuous
 62
     0
370
    -2
100
AcDbLine
 10
0.0
 20
0.0
 30
0.0
 11
-1.0
 21
0.0
 31
0.0
  0
LINE
  5
76
330
72
100
AcDbEntity
  8
0
  6
Continuous
 62
     0
370
    -2
100
AcDbLine
 10
0.0
 20
0.0
 30
0.0
 11
0.7071067811865475
 21
0.7071067811865475
 31
0.0
  0
LINE
  5
77
330
72
100
AcDbEntity
  8
0
  6
Continuous
 62
     0
370
    -2
100
AcDbLine
 10
0.0
 20
0.0
 30
0.0
 11
-0.7071067811865475
 21
-0.7071067811865475
 31
0.0
  0
ENDBLK
  5
74
330
72
100
AcDbEntity
  8
0
100
AcDbBlockEnd
  0
BLOCK
  5
79
330
78
100
AcDbEntity
  8
0
100
AcDbBlockBegin
  2
FXTIP_CIVIL_S
 70
     0
 10
0.0
 20
0.0
 30
0.0
  3
FXTIP_CIVIL_S
  1

  0
LINE
  5
7B
330
78
100
AcDbEntity
  8
0
  6
Continuous
 62
     0
370
    -2
100
AcDbLine
 10
0.0
 20
0.0
 30
0.0
 11
-1.0
 21
0.0000000000000001
 31
0.0
  0
LINE
  5
7C
330
78
100
AcDbEntity
  8
0
  6
Continuous
 62
     0
370
    -2
100
AcDbLine
 10
0.0
 20
-0.0625
 30
0.0
 11
-1.0
 21
-0.0624999999999999
 31
0.0
  0
LINE
  5
7D
330
78
100
AcDbEntity
  8
0
  6
Continuous
 62
     0
370
    -2
100
AcDbLine
 10
0.0
 20
-0.125
 30
0.0
 11
-1.0
 21
-0.1249999999999999
 31
0.0
  0
ENDBLK
  5
7A
330
78
100
AcDbEntity
  8
0
100
AcDbBlockEnd
  0
BLOCK
  5
7F
330
7E
100
AcDbEntity
  8
0
100
AcDbBlockBegin
  2
FXTIP_CIVIL_E
 70
     0
 10
0.0
 20
0.0
 30
0.0
  3
FXTIP_CIVIL_E
  1

  0
LINE
  5
81
330
7E
100
AcDbEntity
  8
0
  6
Continuous
 62
     0
370
    -2
100
AcDbLine
 10
0.0
 20
0.0
 30
0.0
 11
-1.0
 21
0.0
 31
0.0
  0
LINE
  5
82
330
7E
100
AcDbEntity
  8
0
  6
Continuous
 62
     0
370
    -2
100
AcDbLine
 10
0.0
 20
0.0625
 30
0.0
 11
-1.0
 21
0.0625
 31
0.0
  0
LINE
  5
83
330
7E
100
AcDbEntity
  8
0
  6
Continuous
 62
     0
370
    -2
100
AcDbLine
 10
0.0
 20
0.125
 30
0.0
 11
-1.0
 21
0.125
 31
0.0
  0
ENDBLK
  5
80
330
7E
100
AcDbEntity
  8
0
100
AcDbBlockEnd
  0
BLOCK
  5
85
330
84
100
AcDbEntity
  8
0
100
AcDbBlockBegin
  2
FXTIP_WHITEDOT_S
 70
     0
 10
0.0
 20
0.0
 30
0.0
  3
FXTIP_WHITEDOT_S
  1

  0
LINE
  5
87
330
84
100
AcDbEntity
  8
0
  6
Continuous
 62
     0
370
    -2
100
AcDbLine
 10
0.0
 20
0.0
 30
0.0
 11
-1.0
 21
0.0000000000000001
 31
0.0
  0
CIRCLE
  5
88
330
84
100
AcDbEntity
  8
0
  6
Continuous
 62
     0
370
    -2
100
AcDbCircle
 10
0.0
 20
0.0
 30
0.0
 40
0.5
  0
ENDBLK
  5
86
330
84
100
AcDbEntity
  8
0
100
AcDbBlockEnd
  0
BLOCK
  5
8A
330
89
100
AcDbEntity
  8
0
100
AcDbBlockBegin
  2
FXTIP_WHITEDOT_E
 70
     0
 10
0.0
 20
0.0
 30
0.0
  3
FXTIP_WHITEDOT_E
  1

  0
LINE
  5
8C
330
89
100
AcDbEntity
  8
0
  6
Continuous
 62
     0
370
    -2
100
AcDbLine
 10
0.0
 20
0.0
 30
0.0
 11
-1.0
 21
0.0
 31
0.0
  0
CIRCLE
  5
8D
330
89
100
AcDbEntity
  8
0
  6
Continuous
 62
     0
370
    -2
100
AcDbCircle
 10
0.0
 20
0.0
 30
0.0
 40
0.5
  0
ENDBLK
  5
8B
330
89
100
AcDbEntity
  8
0
100
AcDbBlockEnd
  0
BLOCK
  5
8F
330
8E
100
AcDbEntity
  8
0
100
AcDbBlockBegin
  2
FXTIP_UPARROW_S
 70
     0
 10
0.0
 20
0.0
 30
0.0
  3
FXTIP_UPARROW_S
  1

  0
LINE
  5
91
330
8E
100
AcDbEntity
  8
0
  6
Continuous
 62
     0
370
    -2
100
AcDbLine
 10
0.0
 20
0.0
 30
0.0
 11
-1.0
 21
0.0000000000000001
 31
0.0
  0
LINE
  5
92
330
8E
100
AcDbEntity
  8
0
  6
Continuous
 62
     0
370
    -2
100
AcDbLine
 10
0.0
 20
0.0
 30
0.0
 11
-0.9659258262890683
 21
-0.2588190451025206
 31
0.0
  0
ENDBLK
  5
90
330
8E
100
AcDbEntity
  8
0
100
AcDbBlockEnd
  0
BLOCK
  5
94
330
93
100
AcDbEntity
  8
0
100
AcDbBlockBegin
  2
FXTIP_UPARROW_E
 70
     0
 10
0.0
 20
0.0
 30
0.0
  3
FXTIP_UPARROW_E
  1

  0
LINE
  5
96
330
93
100
AcDbEntity
  8
0
  6
Continuous
 62
     0
370
    -2
100
AcDbLine
 10
0.0
 20
0.0
 30
0.0
 11
-1.0
 21
0.0
 31
0.0
  0
LINE
  5
97
330
93
100
AcDbEntity
  8
0
  6
Continuous
 62
     0
370
    -2
100
AcDbLine
 10
0.0
 20
0.0
 30
0.0
 11
-0.9659258262890683
 21
0.2588190451025207
 31
0.0
  0
ENDBLK
  5
95
330
93
100
AcDbEntity
  8
0
100
AcDbBlockEnd
  0
BLOCK
  5
99
330
98
100
AcDbEntity
  8
0
100
AcDbBlockBegin
  2
FXTIP_DOWNARROW_S
 70
     0
 10
0.0
 20
0.0
 30
0.0
  3
FXTIP_DOWNARROW_S
  1

  0
LINE
  5
9B
330
98
100
AcDbEntity
  8
0
  6
Continuous
 62
     0
370
    -2
100
AcDbLine
 10
0.0
 20
0.0
 30
0.0
 11
-1.0
 21
0.0000000000000001
 31
0.0
  0
LINE
  5
9C
330
98
100
AcDbEntity
  8
0
  6
Continuous
 62
     0
370
    -2
100
AcDbLine
 10
0.0
 20
0.0
 30
0.0
 11
-0.9659258262890683
 21
0.2588190451025209
 31
0.0
  0
ENDBLK
  5
9A
330
98
100
AcDbEntity
  8
0
100
AcDbBlockEnd
  0
BLOCK
  5
9E
330
9D
100
AcDbEntity
  8
0
100
AcDbBlockBegin
  2
FXTIP_DOWNARROW_E
 70
     0
 10
0.0
 20
0.0
 30
0.0
  3
FXTIP_DOWNARROW_E
  1

  0
LINE
  5
A0
330
9D
100
AcDbEntity
  8
0
  6
Continuous
 62
     0
370
    -2
100
AcDbLine
 10
0.0
 20
0.0
 30
0.0
 11
-1.0
 21
0.0
 31
0.0
  0
LINE
  5
A1
330
9D
100
AcDbEntity
  8
0
  6
Continuous
 62
     0
370
    -2
100
AcDbLine
 10
0.0
 20
0.0
 30
0.0
 11
-0.9659258262890683
 21
-0.2588190451025207
 31
0.0
  0
ENDBLK
  5
9F
330
9D
100
AcDbEntity
  8
0
100
AcDbBlockEnd
  0
BLOCK
  5
A3
330
A2
100
AcDbEntity
  8
0
100
AcDbBlockBegin
  2
FXTIP_BLACKTRIANGLE_S
 70
     0
 10
0.0
 20
0.0
 30
0.0
  3
FXTIP_BLACKTRIANGLE_S
  1

  0
LINE
  5
A5
330
A2
100
AcDbEntity
  8
0
  6
Continuous
 62
     0
370
    -2
100
AcDbLine
 10
0.0
 20
0.0
 30
0.0
 11
-1.0
 21
0.0000000000000001
 31
0.0
  0
SOLID
  5
A6
330
A2
100
AcDbEntity
  8
0
  6
Continuous
 62
     0
370
    -2
100
AcDbTrace
 10
0.0
 20
0.0
 30
0.0
 11
-0.9659258262890683
 21
-0.2588190451025206
 31
0.0
 12
-0.9659258262890683
 22
0.2588190451025209
 32
0.0
 13
-0.9659258262890683
 23
0.2588190451025209
 33
0.0
  0
ENDBLK
  5
A4
330
A2
100
AcDbEntity
  8
0
100
AcDbBlockEnd
  0
BLOCK
  5
A8
330
A7
100
AcDbEntity
  8
0
100
AcDbBlockBegin
  2
FXTIP_BLACKTRIANGLE_E
 70
     0
 10
0.0
 20
0.0
 30
0.0
  3
FXTIP_BLACKTRIANGLE_E
  1

  0
LINE
  5
AA
330
A7
100
AcDbEntity
  8
0
  6
Continuous
 62
     0
370
    -2
100
AcDbLine
 10
0.0
 20
0.0
 30
0.0
 11
-1.0
 21
0.0
 31
0.0
  0
SOLID
  5
AB
330
A7
100
AcDbEntity
  8
0
  6
Continuous
 62
     0
370
    -2
100
AcDbTrace
 10
0.0
 20
0.0
 30
0.0
 11
-0.9659258262890683
 21
0.2588190451025207
 31
0.0
 12
-0.9659258262890683
 22
-0.2588190451025207
 32
0.0
 13
-0.9659258262890683
 23
-0.2588190451025207
 33
0.0
  0
ENDBLK
  5
A9
330
A7
100
AcDbEntity
  8
0
100
AcDbBlockEnd
  0
ENDSEC
  0
SECTION
  2
ENTITIES
  0
TEXT
  5
AE
330
1F
100
AcDbEntity
  8
図面枠ﾚｲﾔ_01
  6
Continuous
 62
     7
370
    25
100
AcDbText
 10
566.347412109375
 20
21.92035484313965
 30
0.0
 40
6.0
  1
ＷＪ－１５０　ＲＢ　ＷＳＲ
 41
0.7878787878787881
  7
FX_VECTOR
 72
     5
 11
618.347412109375
 21
21.92035484313965
 31
0.0
100
AcDbText
  0
LINE
  5
B0
330
1F
100
AcDbEntity
  8
GR1_01
  6
Continuous
 62
     3
370
    50
100
AcDbLine
 10
216.3684813509999
 20
240.0182950191573
 30
0.0
 11
214.1183033035471
 21
240.0182950191573
 31
0.0
  0
LINE
  5
B1
330
1F
100
AcDbEntity
  8
GR1_01
  6
Continuous
 62
     3
370
    50
100
AcDbLine
 10
213.6184813509998
 20
239.6956446950163
 30
0.0
 11
213.6184813509998
 21
132.9932950191569
 31
0.0
  0
LINE
  5
B2
330
1F
100
AcDbEntity
  8
GR1_01
  6
Continuous
 62
     3
370
    50
100
AcDbLine
 10
213.6184813509998
 20
132.9932950191569
 30
0.0
 11
210.4184813509997
 21
132.9932950191569
 31
0.0
  0
LINE
  5
B3
330
1F
100
AcDbEntity
  8
GR1_01
  6
Continuous
 62
     3
370
    50
100
AcDbLine
 10
210.4184813509997
 20
132.9932950191569
 30
0.0
 11
210.4184813509997
 21
245.3364407696646
 31
0.0
  0
LINE
  5
B4
330
1F
100
AcDbEntity
  8
GR1_01
  6
Continuous
 62
     3
370
    50
100
AcDbLine
 10
209.9718993636145
 20
242.7917977110536
 30
0.0
 11
210.4184813509997
 21
242.0182950191573
 31
0.0
  0
LINE
  5
B5
330
1F
100
AcDbEntity
  8
GR1_01
  6
Continuous
 62
     3
370
    50
100
AcDbLine
 10
209.9718993636145
 20
242.7917963651055
 30
0.0
 11
207.2650633383849
 21
242.7917977110535
 31
0.0
  0
ARC
  5
B6
330
1F
100
AcDbEntity
  8
GR1_01
  6
Continuous
 62
     3
370
    50
100
AcDbCircle
 10
209.3743040994223
 20
241.3484220380795
 30
0.0
 40
2.555822748422663
100
AcDbArc
 50
145.6157525319512
 51
214.3842474680497
  0
LINE
  5
B7
330
1F
100
AcDbEntity
  8
GR1_01
  6
Continuous
 62
     3
370
    50
100
AcDbLine
 10
207.2650633383849
 20
239.9050463651055
 30
0.0
 11
209.9718993636145
 21
239.9050463651055
 31
0.0
  0
ARC
  5
B8
330
1F
100
AcDbEntity
  8
GR1_01
  6
Continuous
 62
     3
370
    50
100
AcDbCircle
 10
207.8626586025771
 20
241.3484220380795
 30
0.0
 40
2.555822748422663
100
AcDbArc
 50
325.6157525319502
 51
34.38424746804883
  0
LINE
  5
B9
330
1F
100
AcDbEntity
  8
GR1_01
  6
Continuous
 62
     3
370
    50
100
AcDbLine
 10
207.2650624173391
 20
242.7917963651055
 30
0.0
 11
206.8184813509997
 21
242.0182950191573
 31
0.0
  0
LINE
  5
BA
330
1F
100
AcDbEntity
  8
GR1_01
  6
Continuous
 62
     3
370
    50
100
AcDbLine
 10
206.8184813509997
 20
242.0182950191573
 30
0.0
 11
206.0684813509997
 21
242.0182950191573
 31
0.0
  0
ARC
  5
BB
330
1F
100
AcDbEntity
  8
GR1_01
  6
Continuous
 62
     3
370
    50
100
AcDbCircle
 10
206.0684813509997
 20
241.2682950191573
 30
0.0
 40
0.75
100
AcDbArc
 50
90.0
 51
180.0
  0
LINE
  5
BC
330
1F
100
AcDbEntity
  8
GR1_01
  6
Continuous
 62
     3
370
    50
100
AcDbLine
 10
205.3184813509997
 20
241.2682950191573
 30
0.0
 11
205.3184813509997
 21
232.7682950191573
 31
0.0
  0
ARC
  5
BD
330
1F
100
AcDbEntity
  8
GR1_01
  6
Continuous
 62
     3
370
    50
100
AcDbCircle
 10
206.0684813509997
 20
232.7682950191573
 30
0.0
 40
0.75
100
AcDbArc
 50
180.0
 51
270.0
  0
LINE
  5
BE
330
1F
100
AcDbEntity
  8
GR1_01
  6
Continuous
 62
     3
370
    50
100
AcDbLine
 10
216.3684813509999
 20
234.0182950191573
 30
0.0
 11
213.6184813509998
 21
234.0182950191573
 31
0.0
  0
ARC
  5
BF
330
1F
100
AcDbEntity
  8
GR1_01
  6
Continuous
 62
     3
370
    50
100
AcDbCircle
 10
200.8650633383852
 20
237.0182950191573
 30
0.0
 40
9.553418012614543
100
AcDbArc
 50
342.4120462260055
 51
17.58795377399449
  0
ARC
  5
C0
330
1F
100
AcDbEntity
  8
GR1_01
  6
Continuous
 62
     3
370
    50
100
AcDbCircle
 10
216.3718993636143
 20
237.0182950191573
 30
0.0
 40
9.553418012614543
100
AcDbArc
 50
162.4120462260053
 51
197.5879537739949
  0
LINE
  5
C1
330
1F
100
AcDbEntity
  8
GR1_01
  6
Continuous
 62
     3
370
    50
100
AcDbLine
 10
207.2650633383849
 20
234.1315436732091
 30
0.0
 11
209.9718993636145
 21
234.1315436732091
 31
0.0
  0
LINE
  5
C2
330
1F
100
AcDbEntity
  8
GR1_01
  6
Continuous
 62
     3
370
    50
100
AcDbLine
 10
210.4184813509997
 20
232.0182950191573
 30
0.0
 11
209.9718993636145
 21
231.2447923272609
 31
0.0
  0
LINE
  5
C3
330
1F
100
AcDbEntity
  8
GR1_01
  6
Continuous
 62
     3
370
    50
100
AcDbLine
 10
209.9718993636145
 20
231.2447923272611
 30
0.0
 11
207.2650633383849
 21
231.2447923272611
 31
0.0
  0
LINE
  5
C4
330
1F
100
AcDbEntity
  8
GR1_01
  6
Continuous
 62
     3
370
    50
100
AcDbLine
 10
207.2650633383849
 20
231.2447923272611
 30
0.0
 11
206.8184813509997
 21
232.0182950191573
 31
0.0
  0
ARC
  5
C5
330
1F
100
AcDbEntity
  8
GR1_01
  6
Continuous
 62
     3
370
    50
100
AcDbCircle
 10
209.3743040994223
 20
232.6881680002351
 30
0.0
 40
2.555822748422663
100
AcDbArc
 50
145.6157525319503
 51
214.3842474680489
  0
ARC
  5
C6
330
1F
100
AcDbEntity
  8
GR1_01
  6
Continuous
 62
     3
370
    50
100
AcDbCircle
 10
207.8626586025771
 20
232.6881680002351
 30
0.0
 40
2.555822748422663
100
AcDbArc
 50
325.6157525319512
 51
34.38424746804974
  0
LINE
  5
C7
330
1F
100
AcDbEntity
  8
GR1_01
  6
Continuous
 62
     3
370
    50
100
AcDbLine
 10
205.3184813509997
 20
234.0182950191573
 30
0.0
 11
203.8184813509998
 21
234.0182950191573
 31
0.0
  0
LINE
  5
C8
330
1F
100
AcDbEntity
  8
GR1_01
  6
Continuous
 62
     3
370
    50
100
AcDbLine
 10
203.8184813509998
 20
234.0182950191573
 30
0.0
 11
203.3184813509998
 21
234.5597950191573
 31
0.0
  0
LINE
  5
C9
330
1F
100
AcDbEntity
  8
GR1_01
  6
Continuous
 62
     3
370
    50
100
AcDbLine
 10
203.3184813509998
 20
234.5597950191573
 30
0.0
 11
203.3184813509998
 21
239.4767950191573
 31
0.0
  0
LINE
  5
CA
330
1F
100
AcDbEntity
  8
GR1_01
  6
Continuous
 62
     3
370
    50
100
AcDbLine
 10
203.3184813509998
 20
239.4767950191573
 30
0.0
 11
203.8184813509998
 21
240.0182950191573
 31
0.0
  0
LINE
  5
CB
330
1F
100
AcDbEntity
  8
GR1_01
  6
Continuous
 62
     3
370
    50
100
AcDbLine
 10
203.8184813509998
 20
240.0182950191573
 30
0.0
 11
205.3184813509997
 21
240.0182950191573
 31
0.0
  0
ARC
  5
CC
330
1F
100
AcDbEntity
  8
GR1_01
  6
Continuous
 62
     3
370
    50
100
AcDbCircle
 10
200.3146100947542
 20
241.3484220380795
 30
0.0
 40
2.555822748422663
100
AcDbArc
 50
325.6157525319502
 51
34.38424746804883
  0
LINE
  5
CD
330
1F
100
AcDbEntity
  8
GR1_01
  6
Continuous
 62
     3
370
    50
100
AcDbLine
 10
202.4238508557916
 20
242.7917977110536
 30
0.0
 11
202.8704328431768
 21
242.0182950191573
 31
0.0
  0
LINE
  5
CE
330
1F
100
AcDbEntity
  8
GR1_01
  6
Continuous
 62
     3
370
    50
100
AcDbLine
 10
202.8704328431768
 20
242.0182950191573
 30
0.0
 11
202.8704328431768
 21
232.0182950191573
 31
0.0
  0
LINE
  5
CF
330
1F
100
AcDbEntity
  8
GR1_01
  6
Continuous
 62
     3
370
    50
100
AcDbLine
 10
202.8704328431768
 20
232.0182950191573
 30
0.0
 11
202.4238508557916
 21
231.2447923272609
 31
0.0
  0
LINE
  5
D0
330
1F
100
AcDbEntity
  8
GR1_01
  6
Continuous
 62
     3
370
    50
100
AcDbLine
 10
202.4238508557917
 20
231.2447923272611
 30
0.0
 11
199.7170148305621
 21
231.2447923272611
 31
0.0
  0
LINE
  5
D1
330
1F
100
AcDbEntity
  8
GR1_01
  6
Continuous
 62
     3
370
    50
100
AcDbLine
 10
199.7170148305621
 20
231.2447923272611
 30
0.0
 11
199.2704328431768
 21
232.0182950191573
 31
0.0
  0
LINE
  5
D2
330
1F
100
AcDbEntity
  8
GR1_01
  6
Continuous
 62
     3
370
    50
100
AcDbLine
 10
199.2704328431768
 20
232.0182950191573
 30
0.0
 11
198.5204328431768
 21
232.0182950191573
 31
0.0
  0
LINE
  5
D3
330
1F
100
AcDbEntity
  8
GR1_01
  6
Continuous
 62
     3
370
    50
100
AcDbLine
 10
197.7704328431768
 20
232.7682950191573
 30
0.0
 11
197.7704328431768
 21
241.2682950191573
 31
0.0
  0
LINE
  5
D4
330
1F
100
AcDbEntity
  8
GR1_01
  6
Continuous
 62
     3
370
    50
100
AcDbLine
 10
198.5204328431768
 20
242.0182950191573
 30
0.0
 11
199.2704328431768
 21
242.0182950191573
 31
0.0
  0
LINE
  5
D5
330
1F
100
AcDbEntity
  8
GR1_01
  6
Continuous
 62
     3
370
    50
100
AcDbLine
 10
199.2704328431768
 20
242.0182950191573
 30
0.0
 11
199.7170139095163
 21
242.7917963651055
 31
0.0
  0
LINE
  5
D6
330
1F
100
AcDbEntity
  8
GR1_01
  6
Continuous
 62
     3
370
    50
100
AcDbLine
 10
199.7170148305621
 20
242.7917977110535
 30
0.0
 11
202.4238508557917
 21
242.7917963651055
 31
0.0
  0
ARC
  5
D7
330
1F
100
AcDbEntity
  8
GR1_01
  6
Continuous
 62
     3
370
    50
100
AcDbCircle
 10
201.8262555915994
 20
241.3484220380795
 30
0.0
 40
2.555822748422663
100
AcDbArc
 50
145.6157525319512
 51
214.3842474680497
  0
LINE
  5
D8
330
1F
100
AcDbEntity
  8
GR1_01
  6
Continuous
 62
     3
370
    50
100
AcDbLine
 10
199.7170148305621
 20
239.9050463651055
 30
0.0
 11
202.4238508557916
 21
239.9050463651055
 31
0.0
  0
ARC
  5
D9
330
1F
100
AcDbEntity
  8
GR1_01
  6
Continuous
 62
     3
370
    50
100
AcDbCircle
 10
208.8238508557914
 20
237.0182950191573
 30
0.0
 40
9.553418012614543
100
AcDbArc
 50
162.4120462260053
 51
197.5879537739949
  0
LINE
  5
DA
330
1F
100
AcDbEntity
  8
GR1_01
  6
Continuous
 62
     3
370
    50
100
AcDbLine
 10
199.7170148305621
 20
234.1315436732091
 30
0.0
 11
202.4238508557916
 21
234.1315436732091
 31
0.0
  0
ARC
  5
DB
330
1F
100
AcDbEntity
  8
GR1_01
  6
Continuous
 62
     3
370
    50
100
AcDbCircle
 10
193.3170148305623
 20
237.0182950191573
 30
0.0
 40
9.553418012614543
100
AcDbArc
 50
342.4120462260055
 51
17.58795377399449
  0
ARC
  5
DC
330
1F
100
AcDbEntity
  8
GR1_01
  6
Continuous
 62
     3
370
    50
100
AcDbCircle
 10
198.5204328431768
 20
241.2682950191573
 30
0.0
 40
0.75
100
AcDbArc
 50
90.0
 51
180.0
  0
LINE
  5
DD
330
1F
100
AcDbEntity
  8
GR1_01
  6
Continuous
 62
     3
370
    50
100
AcDbLine
 10
197.7704328431769
 20
240.137708125772
 30
0.0
 11
196.8684813509998
 21
240.137708125772
 31
0.0
  0
LINE
  5
DE
330
1F
100
AcDbEntity
  8
GR1_01
  6
Continuous
 62
     3
370
    50
100
AcDbLine
 10
196.8684813509998
 20
240.137708125772
 30
0.0
 11
196.3684813509998
 21
239.5962081257719
 31
0.0
  0
LINE
  5
DF
330
1F
100
AcDbEntity
  8
GR1_01
  6
Continuous
 62
     3
370
    50
100
AcDbLine
 10
196.3684813509998
 20
239.5962081257719
 30
0.0
 11
196.3684813509998
 21
234.6792081257719
 31
0.0
  0
LINE
  5
E0
330
1F
100
AcDbEntity
  8
GR1_01
  6
Continuous
 62
     3
370
    50
100
AcDbLine
 10
196.3684813509998
 20
234.6792081257719
 30
0.0
 11
196.8684813509998
 21
234.137708125772
 31
0.0
  0
LINE
  5
E1
330
1F
100
AcDbEntity
  8
GR1_01
  6
Continuous
 62
     3
370
    50
100
AcDbLine
 10
196.8684813509998
 20
234.137708125772
 30
0.0
 11
197.7704328431769
 21
234.137708125772
 31
0.0
  0
ARC
  5
E2
330
1F
100
AcDbEntity
  8
GR1_01
  6
Continuous
 62
     3
370
    50
100
AcDbCircle
 10
198.5204328431768
 20
232.7682950191573
 30
0.0
 40
0.75
100
AcDbArc
 50
180.0
 51
270.0
  0
ARC
  5
E3
330
1F
100
AcDbEntity
  8
GR1_01
  6
Continuous
 62
     3
370
    50
100
AcDbCircle
 10
201.8262555915994
 20
232.6881680002351
 30
0.0
 40
2.555822748422663
100
AcDbArc
 50
145.6157525319503
 51
214.3842474680489
  0
ARC
  5
E4
330
1F
100
AcDbEntity
  8
GR1_01
  6
Continuous
 62
     3
370
    50
100
AcDbCircle
 10
200.3146100947542
 20
232.6881680002351
 30
0.0
 40
2.555822748422663
100
AcDbArc
 50
325.6157525319512
 51
34.38424746804974
  0
LINE
  5
E5
330
1F
100
AcDbEntity
  8
GR1_01
  6
Continuous
 62
     3
370
    50
100
AcDbLine
 10
202.8684813509998
 20
250.793295019157
 30
0.0
 11
202.878532802607
 21
179.8431023846217
 31
0.0
  0
ARC
  5
E6
330
1F
100
AcDbEntity
  8
GR1_01
  6
Continuous
 62
     3
370
    50
100
AcDbCircle
 10
282.1243932782666
 20
183.3212983335605
 30
0.0
 40
79.32215484709751
100
AcDbArc
 50
182.5131675531267
 51
189.8732458090843
  0
LINE
  5
E7
330
1F
100
AcDbEntity
  8
GR1_01
  6
Continuous
 62
     3
370
    50
100
AcDbLine
 10
205.9360009787522
 20
169.7200009413287
 30
0.0
 11
206.9184813509997
 21
168.0182950191572
 31
0.0
  0
LINE
  5
E8
330
1F
100
AcDbEntity
  8
GR1_01
  6
Continuous
 62
     3
370
    50
100
AcDbLine
 10
206.9184813509997
 20
168.5182950191572
 30
0.0
 11
206.9184813509997
 21
145.5182950191572
 31
0.0
  0
ARC
  5
E9
330
1F
100
AcDbEntity
  8
GR1_01
  6
Continuous
 62
     3
370
    50
100
AcDbCircle
 10
207.4184813509997
 20
145.5182950191572
 30
0.0
 40
0.5
100
AcDbArc
 50
180.0
 51
270.0
  0
LINE
  5
EA
330
1F
100
AcDbEntity
  8
GR1_01
  6
Continuous
 62
     3
370
    50
100
AcDbLine
 10
207.4184813509997
 20
145.0182950191572
 30
0.0
 11
209.9184813509997
 21
145.0182950191572
 31
0.0
  0
ARC
  5
EB
330
1F
100
AcDbEntity
  8
GR1_01
  6
Continuous
 62
     3
370
    50
100
AcDbCircle
 10
209.9184813509997
 20
145.5182950191572
 30
0.0
 40
0.5
100
AcDbArc
 50
270.0
 51
0.0
  0
LINE
  5
EC
330
1F
100
AcDbEntity
  8
GR1_01
  6
Continuous
 62
     3
370
    50
100
AcDbLine
 10
206.9184813509997
 20
146.0182950191572
 30
0.0
 11
205.9360009787522
 21
144.3165890969856
 31
0.0
  0
ARC
  5
ED
330
1F
100
AcDbEntity
  8
GR1_01
  6
Continuous
 62
     3
370
    50
100
AcDbCircle
 10
201.2956713044704
 20
147.4920155775286
 30
0.0
 40
5.622810046529507
100
AcDbArc
 50
325.6157525319481
 51
34.38424746805076
  0
LINE
  5
EE
330
1F
100
AcDbEntity
  8
GR1_01
  6
Continuous
 62
     3
370
    50
100
AcDbLine
 10
205.9360009787523
 20
150.6674420580712
 30
0.0
 11
199.900961723247
 21
150.6674420580713
 31
0.0
  0
ARC
  5
EF
330
1F
100
AcDbEntity
  8
GR1_01
  6
Continuous
 62
     3
370
    50
100
AcDbCircle
 10
204.5412913975288
 20
147.4920155775286
 30
0.0
 40
5.622810046529507
100
AcDbArc
 50
145.6157525319492
 51
214.3842474680519
  0
LINE
  5
F0
330
1F
100
AcDbEntity
  8
GR1_01
  6
Continuous
 62
     3
370
    50
100
AcDbLine
 10
199.9009617232471
 20
144.3165890969857
 30
0.0
 11
198.9184813509996
 21
146.0182950191572
 31
0.0
  0
LINE
  5
F1
330
1F
100
AcDbEntity
  8
GR1_01
  6
Continuous
 62
     3
370
    50
100
AcDbLine
 10
198.9184813509996
 20
146.0182950191571
 30
0.0
 11
198.9184813509996
 21
168.0182950191573
 31
0.0
  0
LINE
  5
F2
330
1F
100
AcDbEntity
  8
GR1_01
  6
Continuous
 62
     3
370
    50
100
AcDbLine
 10
198.9184813509996
 20
168.0182950191572
 30
0.0
 11
199.9009617232471
 21
169.7200009413288
 31
0.0
  0
ARC
  5
F3
330
1F
100
AcDbEntity
  8
GR1_01
  6
Continuous
 62
     3
370
    50
100
AcDbCircle
 10
204.5412913975288
 20
166.5445744607858
 30
0.0
 40
5.622810046529507
100
AcDbArc
 50
145.6157525319481
 51
214.3842474680508
  0
ARC
  5
F4
330
1F
100
AcDbEntity
  8
GR1_01
  6
Continuous
 62
     3
370
    50
100
AcDbCircle
 10
219.9360009787543
 20
157.0182950191571
 30
0.0
 40
21.01751962775467
100
AcDbArc
 50
162.4120462260082
 51
197.5879537739922
  0
LINE
  5
F5
330
1F
100
AcDbEntity
  8
GR1_01
  6
Continuous
 62
     3
370
    50
100
AcDbLine
 10
198.9184813509996
 20
150.0164862108705
 30
0.0
 11
198.1184813509998
 21
150.0164862108705
 31
0.0
  0
LINE
  5
F6
330
1F
100
AcDbEntity
  8
GR1_01
  6
Continuous
 62
     3
370
    50
100
AcDbLine
 10
198.1184813509998
 20
150.0164862108705
 30
0.0
 11
197.1184813509998
 21
151.0164862108705
 31
0.0
  0
LINE
  5
F7
330
1F
100
AcDbEntity
  8
GR1_01
  6
Continuous
 62
     3
370
    50
100
AcDbLine
 10
197.1184813509998
 20
151.0164862108705
 30
0.0
 11
197.1184813509998
 21
163.0164862108705
 31
0.0
  0
LINE
  5
F8
330
1F
100
AcDbEntity
  8
GR1_01
  6
Continuous
 62
     3
370
    50
100
AcDbLine
 10
197.1184813509998
 20
163.0164862108705
 30
0.0
 11
198.1184813509998
 21
164.0164862108705
 31
0.0
  0
LINE
  5
F9
330
1F
100
AcDbEntity
  8
GR1_01
  6
Continuous
 62
     3
370
    50
100
AcDbLine
 10
198.1184813509998
 20
164.0164862108705
 30
0.0
 11
198.9184813509996
 21
164.0164862108705
 31
0.0
  0
LINE
  5
FA
330
1F
100
AcDbEntity
  8
GR1_01
  6
Continuous
 62
     3
370
    50
100
AcDbLine
 10
199.900961723247
 20
163.369147980243
 30
0.0
 11
205.9360009787523
 21
163.3691479802429
 31
0.0
  0
ARC
  5
FB
330
1F
100
AcDbEntity
  8
GR1_01
  6
Continuous
 62
     3
370
    50
100
AcDbCircle
 10
201.2956713044704
 20
166.5445744607858
 30
0.0
 40
5.622810046529507
100
AcDbArc
 50
325.6157525319492
 51
34.38424746805187
  0
LINE
  5
FC
330
1F
100
AcDbEntity
  8
GR1_01
  6
Continuous
 62
     3
370
    50
100
AcDbLine
 10
205.9360009787523
 20
169.7200009413287
 30
0.0
 11
199.900961723247
 21
169.7200009413288
 31
0.0
  0
LINE
  5
FD
330
1F
100
AcDbEntity
  8
GR1_01
  6
Continuous
 62
     3
370
    50
100
AcDbLine
 10
207.4184813509997
 20
169.0182950191572
 30
0.0
 11
209.9184813509997
 21
169.0182950191571
 31
0.0
  0
ARC
  5
FE
330
1F
100
AcDbEntity
  8
GR1_01
  6
Continuous
 62
     3
370
    50
100
AcDbCircle
 10
209.9184813509997
 20
168.5182950191571
 30
0.0
 40
0.5
100
AcDbArc
 50
0.0
 51
90.0
  0
ARC
  5
FF
330
1F
100
AcDbEntity
  8
GR1_01
  6
Continuous
 62
     3
370
    50
100
AcDbCircle
 10
207.4184813509997
 20
168.5182950191572
 30
0.0
 40
0.5
100
AcDbArc
 50
90.0
 51
180.0
  0
LINE
  5
100
330
1F
100
AcDbEntity
  8
GR1_01
  6
Continuous
 62
     3
370
    50
100
AcDbLine
 10
205.9360009787523
 20
144.3165890969856
 30
0.0
 11
199.900961723247
 21
144.3165890969857
 31
0.0
  0
ARC
  5
101
330
1F
100
AcDbEntity
  8
GR1_01
  6
Continuous
 62
     3
370
    50
100
AcDbCircle
 10
185.9009617232451
 20
157.0182950191572
 30
0.0
 40
21.01751962775467
100
AcDbArc
 50
342.4120462260076
 51
17.5879537739918
  0
LINE
  5
102
330
1F
100
AcDbEntity
  8
GR1_01
  6
Continuous
 62
     3
370
    50
100
AcDbLine
 10
270.1184813509997
 20
132.9932950191569
 30
0.0
 11
270.1184813509997
 21
239.6956446950163
 31
0.0
  0
LINE
  5
103
330
1F
100
AcDbEntity
  8
GR1_01
  6
Continuous
 62
     3
370
    50
100
AcDbLine
 10
269.6186593984525
 20
240.0182950191573
 30
0.0
 11
267.368481351
 21
240.0182950191574
 31
0.0
  0
LINE
  5
104
330
1F
100
AcDbEntity
  8
GR1_01
  6
Continuous
 62
     3
370
    50
100
AcDbLine
 10
273.3184813509998
 20
170.0164862108705
 30
0.0
 11
276.3184813509998
 21
170.0164862108705
 31
0.0
  0
LINE
  5
105
330
1F
100
AcDbEntity
  8
GR1_01
  6
Continuous
 62
     3
370
    50
100
AcDbLine
 10
276.3184813509998
 20
170.0164862108705
 30
0.0
 11
277.8184813509998
 21
167.0164862108705
 31
0.0
  0
LINE
  5
106
330
1F
100
AcDbEntity
  8
GR1_01
  6
Continuous
 62
     3
370
    50
100
AcDbLine
 10
277.8184813509998
 20
167.0164862108705
 30
0.0
 11
277.8184813509998
 21
147.0164862108705
 31
0.0
  0
LINE
  5
107
330
1F
100
AcDbEntity
  8
GR1_01
  6
Continuous
 62
     3
370
    50
100
AcDbLine
 10
277.8184813509998
 20
147.0164862108705
 30
0.0
 11
276.3184813509998
 21
144.0164862108705
 31
0.0
  0
LINE
  5
108
330
1F
100
AcDbEntity
  8
GR1_01
  6
Continuous
 62
     3
370
    50
100
AcDbLine
 10
276.3184813509998
 20
144.0164862108705
 30
0.0
 11
273.3184813509998
 21
144.0164862108705
 31
0.0
  0
LINE
  5
109
330
1F
100
AcDbEntity
  8
GR1_01
  6
Continuous
 62
     3
370
    50
100
AcDbLine
 10
270.1184813509998
 20
132.9932950191569
 30
0.0
 11
273.3184813509998
 21
132.9932950191569
 31
0.0
  0
LINE
  5
10A
330
1F
100
AcDbEntity
  8
GR1_01
  6
Continuous
 62
     3
370
    50
100
AcDbLine
 10
273.3184813509997
 20
242.7917977110535
 30
0.0
 11
276.5832242290197
 21
242.7917977110535
 31
0.0
  0
LINE
  5
10B
330
1F
100
AcDbEntity
  8
GR1_01
  6
Continuous
 62
     3
370
    50
100
AcDbLine
 10
267.2182970749488
 20
241.1182950191573
 30
0.0
 11
216.5186656270507
 21
241.1182950191573
 31
0.0
  0
ARC
  5
10C
330
1F
100
AcDbEntity
  8
GR1_01
  6
Continuous
 62
     3
370
    50
100
AcDbCircle
 10
219.9907165583783
 20
230.3727951256186
 30
0.0
 40
11.29251546962738
100
AcDbArc
 50
95.16147616037544
 51
147.9582689748221
  0
LINE
  5
10D
330
1F
100
AcDbEntity
  8
GR1_01
  6
Continuous
 62
     3
370
    50
100
AcDbLine
 10
216.3684813509999
 20
232.9182950191573
 30
0.0
 11
267.3684813509999
 21
232.9182950191573
 31
0.0
  0
LINE
  5
10E
330
1F
100
AcDbEntity
  8
GR1_01
  6
Continuous
 62
     3
370
    50
100
AcDbLine
 10
267.368481351
 20
234.0182950191573
 30
0.0
 11
270.1184813509998
 21
234.0182950191573
 31
0.0
  0
LINE
  5
10F
330
1F
100
AcDbEntity
  8
GR1_01
  6
Continuous
 62
     3
370
    50
100
AcDbLine
 10
270.1184813509998
 20
232.0182950191573
 30
0.0
 11
263.1389504829226
 21
232.0182950191573
 31
0.0
  0
ARC
  5
110
330
1F
100
AcDbEntity
  8
GR1_01
  6
Continuous
 62
     3
370
    50
100
AcDbCircle
 10
235.3195016809168
 20
-58.18727281027481
 30
0.0
 40
300.2519982233577
100
AcDbArc
 50
88.75018765536544
 51
93.12052902980673
  0
ARC
  5
111
330
1F
100
AcDbEntity
  8
GR1_01
  6
Continuous
 62
     3
370
    50
100
AcDbCircle
 10
218.4184813509997
 20
244.4105844220156
 30
0.0
 40
8.0
100
AcDbArc
 50
108.5873470209185
 51
180.0
  0
LINE
  5
112
330
1F
100
AcDbEntity
  8
GR1_01
  6
Continuous
 62
     3
370
    50
100
AcDbLine
 10
215.8684813509997
 20
251.9932950191569
 30
0.0
 11
267.8684813509998
 21
251.9932950191569
 31
0.0
  0
LINE
  5
113
330
1F
100
AcDbEntity
  8
GR1_01
  6
Continuous
 62
     3
370
    50
100
AcDbLine
 10
203.1193903625385
 20
257.793295019157
 30
0.0
 11
280.617572339461
 21
257.793295019157
 31
0.0
  0
ARC
  5
114
330
1F
100
AcDbEntity
  8
GR1_01
  6
Continuous
 62
     3
370
    50
100
AcDbCircle
 10
209.8684813509998
 20
250.793295019157
 30
0.0
 40
7.0
100
AcDbArc
 50
90.0
 51
180.0
  0
ARC
  5
115
330
1F
100
AcDbEntity
  8
GR1_01
  6
Continuous
 62
     3
370
    50
100
AcDbCircle
 10
203.1193903625385
 20
262.9932950191569
 30
0.0
 40
5.2
100
AcDbArc
 50
182.8113735945269
 51
270.0
  0
LINE
  5
116
330
1F
100
AcDbEntity
  8
GR1_01
  6
Continuous
 62
     3
370
    50
100
AcDbLine
 10
197.9256489751205
 20
262.7382452188819
 30
0.0
 11
197.6184813509998
 21
268.9932950191569
 31
0.0
  0
LINE
  5
117
330
1F
100
AcDbEntity
  8
GR1_01
  6
Continuous
 62
     3
370
    50
100
AcDbLine
 10
197.6184813509998
 20
268.9932950191571
 30
0.0
 11
286.1184813509998
 21
268.9932950191571
 31
0.0
  0
LINE
  5
118
330
1F
100
AcDbEntity
  8
GR1_01
  6
Continuous
 62
     3
370
    50
100
AcDbLine
 10
200.368481351
 20
270.5182950191568
 30
0.0
 11
283.3684813509996
 21
270.5182950191568
 31
0.0
  0
ARC
  5
119
330
1F
100
AcDbEntity
  8
GR1_01
  6
Continuous
 62
     3
370
    50
100
AcDbCircle
 10
200.4068700141601
 20
277.5181897548325
 30
0.0
 40
7.0
100
AcDbArc
 50
200.9239099954635
 51
269.6857829420693
  0
ARC
  5
11A
330
1F
100
AcDbEntity
  8
GR1_01
  6
Continuous
 62
     3
370
    50
100
AcDbCircle
 10
192.868481351
 20
275.0182950191568
 30
0.0
 40
1.0
100
AcDbArc
 50
0.0
 51
90.0
  0
LINE
  5
11B
330
1F
100
AcDbEntity
  8
GR1_01
  6
Continuous
 62
     3
370
    50
100
AcDbLine
 10
181.868481351
 20
276.0182950191568
 30
0.0
 11
301.8684813509996
 21
276.0182950191568
 31
0.0
  0
LINE
  5
11C
330
1F
100
AcDbEntity
  8
GR1_01
  6
Continuous
 62
     3
370
    50
100
AcDbLine
 10
181.8684813509999
 20
280.0182950191568
 30
0.0
 11
301.8684813509996
 21
280.0182950191568
 31
0.0
  0
LINE
  5
11D
330
1F
100
AcDbEntity
  8
GR1_01
  6
Continuous
 62
     3
370
    50
100
AcDbLine
 10
181.8684813509999
 20
280.0182950191569
 30
0.0
 11
181.8684813509999
 21
276.0182950191569
 31
0.0
  0
ARC
  5
11E
330
1F
100
AcDbEntity
  8
GR1_01
  6
Continuous
 62
     3
370
    50
100
AcDbCircle
 10
248.4174610210827
 20
-58.18727281027481
 30
0.0
 40
300.2519982233577
100
AcDbArc
 50
86.8794709701933
 51
91.24981234463456
  0
LINE
  5
11F
330
1F
100
AcDbEntity
  8
GR1_01
  6
Continuous
 62
     3
370
    50
100
AcDbLine
 10
273.3184813509998
 20
231.2447923272611
 30
0.0
 11
276.5832242290197
 21
231.2447923272611
 31
0.0
  0
ARC
  5
120
330
1F
100
AcDbEntity
  8
GR1_01
  6
Continuous
 62
     3
370
    50
100
AcDbCircle
 10
275.5341148414385
 20
232.6881680002351
 30
0.0
 40
1.784366509561449
100
AcDbArc
 50
306.011315179096
 51
53.98868482090659
  0
ARC
  5
121
330
1F
100
AcDbEntity
  8
GR1_01
  6
Continuous
 62
     3
370
    50
100
AcDbCircle
 10
271.2839009957232
 20
237.0182950191573
 30
0.0
 40
6.0345803552766
100
AcDbArc
 50
331.4211192439801
 51
28.57888075602055
  0
ARC
  5
122
330
1F
100
AcDbEntity
  8
GR1_01
  6
Continuous
 62
     3
370
    50
100
AcDbCircle
 10
275.5341148414385
 20
241.3484220380794
 30
0.0
 40
1.784366509561449
100
AcDbArc
 50
306.0113151790934
 51
53.98868482090406
  0
LINE
  5
123
330
1F
100
AcDbEntity
  8
GR1_01
  6
Continuous
 62
     3
370
    50
100
AcDbLine
 10
276.5832242290197
 20
239.9050463651054
 30
0.0
 11
273.3184813509998
 21
239.9050463651054
 31
0.0
  0
ARC
  5
124
330
1F
100
AcDbEntity
  8
GR1_01
  6
Continuous
 62
     3
370
    50
100
AcDbCircle
 10
263.7462461436212
 20
230.3727951256186
 30
0.0
 40
11.29251546962738
100
AcDbArc
 50
32.04173102517788
 51
84.83852383962456
  0
ARC
  5
125
330
1F
100
AcDbEntity
  8
GR1_01
  6
Continuous
 62
     3
370
    50
100
AcDbCircle
 10
201.6125694237329
 20
183.3212983335605
 30
0.0
 40
79.32215484709751
100
AcDbArc
 50
343.8865629038269
 51
357.4868324468733
  0
LINE
  5
126
330
1F
100
AcDbEntity
  8
GR1_01
  6
Continuous
 62
     3
370
    50
100
AcDbLine
 10
302.6202694914036
 20
217.5933621163392
 30
0.0
 11
315.3684813509998
 21
217.5933621163392
 31
0.0
  0
LINE
  5
127
330
1F
100
AcDbEntity
  8
GR1_01
  6
Continuous
 62
     3
370
    50
100
AcDbLine
 10
315.3684813509998
 20
217.5933621163392
 30
0.0
 11
316.3684813509998
 21
219.4433621163392
 31
0.0
  0
LINE
  5
128
330
1F
100
AcDbEntity
  8
GR1_01
  6
Continuous
 62
     3
370
    50
100
AcDbLine
 10
316.3684813509998
 20
219.4433621163392
 30
0.0
 11
345.6184813509998
 21
219.4433621163392
 31
0.0
  0
ARC
  5
129
330
1F
100
AcDbEntity
  8
GR1_01
  6
Continuous
 62
     3
370
    50
100
AcDbCircle
 10
339.3784813510001
 20
222.5933621163392
 30
0.0
 40
6.9899999999997
100
AcDbArc
 50
333.2150044924962
 51
26.78499550750335
  0
LINE
  5
12A
330
1F
100
AcDbEntity
  8
GR1_01
  6
Continuous
 62
     3
370
    50
100
AcDbLine
 10
345.6184813509998
 20
225.7433621163392
 30
0.0
 11
316.3684813509998
 21
225.7433621163392
 31
0.0
  0
LINE
  5
12B
330
1F
100
AcDbEntity
  8
GR1_01
  6
Continuous
 62
     3
370
    50
100
AcDbLine
 10
316.3684813509998
 20
225.7433621163393
 30
0.0
 11
315.3684813509998
 21
227.5933621163392
 31
0.0
  0
LINE
  5
12C
330
1F
100
AcDbEntity
  8
GR1_01
  6
Continuous
 62
     3
370
    50
100
AcDbLine
 10
315.3684813509998
 20
227.5933621163392
 30
0.0
 11
307.5337558069821
 21
227.5933621163392
 31
0.0
  0
LINE
  5
12D
330
1F
100
AcDbEntity
  8
GR1_01
  6
Continuous
 62
     3
370
    50
100
AcDbLine
 10
307.5337558069821
 20
227.5933621163392
 30
0.0
 11
307.4191711229038
 21
234.1579142706556
 31
0.0
  0
ARC
  5
12E
330
1F
100
AcDbEntity
  8
GR1_01
  6
Continuous
 62
     3
370
    50
100
AcDbCircle
 10
299.4203895616527
 20
234.0182950191573
 30
0.0
 40
8.0
100
AcDbArc
 50
1.00000000000017
 51
90.0
  0
LINE
  5
12F
330
1F
100
AcDbEntity
  8
GR1_01
  6
Continuous
 62
     3
370
    50
100
AcDbLine
 10
299.4203895616527
 20
242.0182950191573
 30
0.0
 11
280.8672382044405
 21
242.0182950191573
 31
0.0
  0
LINE
  5
130
330
1F
100
AcDbEntity
  8
GR1_01
  6
Continuous
 62
     3
370
    50
100
AcDbLine
 10
273.3184813509998
 20
234.1315436732092
 30
0.0
 11
276.5832242290197
 21
234.1315436732092
 31
0.0
  0
LINE
  5
131
330
1F
100
AcDbEntity
  8
GR1_01
  6
Continuous
 62
     3
370
    50
100
AcDbLine
 10
280.8658215132048
 20
232.0182950191573
 30
0.0
 11
296.9636464038634
 21
232.0182950191573
 31
0.0
  0
ARC
  5
132
330
1F
100
AcDbEntity
  8
GR1_01
  6
Continuous
 62
     3
370
    50
100
AcDbCircle
 10
296.9636464038634
 20
231.5182950191572
 30
0.0
 40
0.5
100
AcDbArc
 50
0.9999999999984511
 51
90.0
  0
LINE
  5
133
330
1F
100
AcDbEntity
  8
GR1_01
  6
Continuous
 62
     3
370
    50
100
AcDbLine
 10
297.4635702514417
 20
231.5270212223759
 30
0.0
 11
297.6210310156217
 21
222.5061000841528
 31
0.0
  0
ARC
  5
134
330
1F
100
AcDbEntity
  8
GR1_01
  6
Continuous
 62
     3
370
    50
100
AcDbCircle
 10
302.6202694914037
 20
222.5933621163392
 30
0.0
 40
5.0
100
AcDbArc
 50
181.0000000000001
 51
270.0
  0
LINE
  5
135
330
1F
100
AcDbEntity
  8
GR1_01
  6
Continuous
 62
     3
370
    50
100
AcDbLine
 10
442.9559182324572
 20
219.4433621163392
 30
0.0
 11
455.7559182324572
 21
219.4433621163394
 31
0.0
  0
ARC
  5
136
330
1F
100
AcDbEntity
  8
GR1_01
  6
Continuous
 62
     3
370
    50
100
AcDbCircle
 10
449.5159182324572
 20
222.5933621163393
 30
0.0
 40
6.990000000000068
100
AcDbArc
 50
333.2150044924975
 51
26.78499550750156
  0
LINE
  5
137
330
1F
100
AcDbEntity
  8
GR1_01
  6
Continuous
 62
     3
370
    50
100
AcDbLine
 10
455.7559182324572
 20
225.7433621163393
 30
0.0
 11
442.9559182324572
 21
225.7433621163393
 31
0.0
  0
ARC
  5
138
330
1F
100
AcDbEntity
  8
GR1_01
  6
Continuous
 62
     3
370
    50
100
AcDbCircle
 10
449.1959182324575
 20
222.5933621163392
 30
0.0
 40
6.990000000000232
100
AcDbArc
 50
153.2150044924988
 51
206.7849955075013
  0
ARC
  5
139
330
1F
100
AcDbEntity
  8
GR1_01
  6
Continuous
 62
     3
370
    50
100
AcDbCircle
 10
449.3559182324573
 20
222.5933621163392
 30
0.0
 40
5.0
100
AcDbArc
 50
219.050122536153
 51
320.9498774638468
  0
LINE
  5
13A
330
1F
100
AcDbEntity
  8
GR1_01
  6
Continuous
 62
     3
370
    50
100
AcDbLine
 10
450.1811562617606
 20
217.661934108653
 30
0.0
 11
536.3811562617607
 21
232.0868670114712
 31
0.0
  0
ARC
  5
13B
330
1F
100
AcDbEntity
  8
GR1_01
  6
Continuous
 62
     3
370
    50
100
AcDbCircle
 10
535.5559182324573
 20
237.0182950191573
 30
0.0
 40
5.0
100
AcDbArc
 50
279.4999999999997
 51
99.50000000000043
  0
LINE
  5
13C
330
1F
100
AcDbEntity
  8
GR1_01
  6
Continuous
 62
     3
370
    50
100
AcDbLine
 10
534.730680203154
 20
241.9497230268435
 30
0.0
 11
448.5306802031539
 21
227.5247901240254
 31
0.0
  0
ARC
  5
13D
330
1F
100
AcDbEntity
  8
GR1_01
  6
Continuous
 62
     3
370
    50
100
AcDbCircle
 10
449.3559182324573
 20
222.5933621163392
 30
0.0
 40
5.0
100
AcDbArc
 50
39.05012253615394
 51
140.9498774638461
  0
ARC
  5
13E
330
1F
100
AcDbEntity
  8
GR1_01
  6
Continuous
 62
     3
370
    50
100
AcDbCircle
 10
536.7059182324573
 20
229.4552268586816
 30
0.0
 40
0.5
100
AcDbArc
 50
278.6458654137552
 51
0.0
  0
LINE
  5
13F
330
1F
100
AcDbEntity
  8
GR1_01
  6
Continuous
 62
     3
370
    50
100
AcDbLine
 10
537.2059182324573
 20
229.4552268586816
 30
0.0
 11
537.2059182324573
 21
231.9816790917711
 31
0.0
  0
ARC
  5
140
330
1F
100
AcDbEntity
  8
GR1_01
  6
Continuous
 62
     3
370
    50
100
AcDbCircle
 10
535.5559182324573
 20
237.0182950191572
 30
0.0
 40
5.3
100
AcDbArc
 50
288.1388433355622
 51
323.2975502687298
  0
LINE
  5
141
330
1F
100
AcDbEntity
  8
GR1_01
  6
Continuous
 62
     3
370
    50
100
AcDbLine
 10
538.3466362131404
 20
232.8695731494374
 30
0.0
 11
542.6559182324572
 21
235.7682950191573
 31
0.0
  0
LINE
  5
142
330
1F
100
AcDbEntity
  8
GR1_01
  6
Continuous
 62
     3
370
    50
100
AcDbLine
 10
542.6559182324572
 20
235.7682950191573
 30
0.0
 11
542.6559182324572
 21
238.2682950191573
 31
0.0
  0
LINE
  5
143
330
1F
100
AcDbEntity
  8
GR1_01
  6
Continuous
 62
     3
370
    50
100
AcDbLine
 10
542.6559182324572
 20
238.2682950191573
 30
0.0
 11
538.3466362131404
 21
241.1670168888771
 31
0.0
  0
LINE
  5
144
330
1F
100
AcDbEntity
  8
GR1_01
  6
Continuous
 62
     3
370
    50
100
AcDbLine
 10
533.9059182324573
 20
242.0549109465434
 30
0.0
 11
533.9059182324573
 21
244.5813631796328
 31
0.0
  0
ARC
  5
145
330
1F
100
AcDbEntity
  8
GR1_01
  6
Continuous
 62
     3
370
    50
100
AcDbCircle
 10
534.4059182324573
 20
244.5813631796328
 30
0.0
 40
0.5
100
AcDbArc
 50
98.64586541375526
 51
180.0
  0
ARC
  5
146
330
1F
100
AcDbEntity
  8
GR1_01
  6
Continuous
 62
     3
370
    50
100
AcDbCircle
 10
535.5559182324573
 20
237.0182950191572
 30
0.0
 40
5.3
100
AcDbArc
 50
108.1388433355611
 51
118.8700382455383
  0
ARC
  5
147
330
1F
100
AcDbEntity
  8
GR1_01
  6
Continuous
 62
     3
370
    50
100
AcDbCircle
 10
535.5559182324573
 20
237.0182950191572
 30
0.0
 40
8.15
100
AcDbArc
 50
227.3427857358878
 51
278.645865413752
  0
LINE
  5
148
330
1F
100
AcDbEntity
  8
GR1_01
  6
Continuous
 62
     3
370
    50
100
AcDbLine
 10
542.0612724246848
 20
235.3682950191572
 30
0.0
 11
543.1189863929329
 21
235.3682950191572
 31
0.0
  0
ARC
  5
149
330
1F
100
AcDbEntity
  8
GR1_01
  6
Continuous
 62
     3
370
    50
100
AcDbCircle
 10
543.1189863929329
 20
235.8682950191572
 30
0.0
 40
0.5
100
AcDbArc
 50
270.0
 51
351.3541345862479
  0
ARC
  5
14A
330
1F
100
AcDbEntity
  8
GR1_01
  6
Continuous
 62
     3
370
    50
100
AcDbCircle
 10
535.5559182324573
 20
237.0182950191572
 30
0.0
 40
8.15
100
AcDbArc
 50
351.3541345862473
 51
98.64586541375245
  0
LINE
  5
14B
330
1F
100
AcDbEntity
  8
GR1_01
  6
Continuous
 62
     3
370
    50
100
AcDbLine
 10
553.4145827028649
 20
225.793295019157
 30
0.0
 11
510.8942953063549
 21
145.8242651984088
 31
0.0
  0
CIRCLE
  5
14C
330
1F
100
AcDbEntity
  8
GR1_01
  6
Continuous
 62
     3
370
    50
100
AcDbCircle
 10
489.5559182324573
 20
157.0182950191572
 30
0.0
 40
13.0
  0
ARC
  5
14D
330
1F
100
AcDbEntity
  8
GR1_01
  6
Continuous
 62
     3
370
    50
100
AcDbCircle
 10
489.0559182324572
 20
157.993295019157
 30
0.0
 40
25.0
100
AcDbArc
 50
167.0897652975888
 51
330.8720744562946
  0
LINE
  5
14E
330
1F
100
AcDbEntity
  8
GR1_01
  6
Continuous
 62
     3
370
    50
100
AcDbLine
 10
464.6878857415075
 20
163.5789008520119
 30
0.0
 11
479.3910297616583
 21
222.549990551064
 31
0.0
  0
ARC
  5
14F
330
1F
100
AcDbEntity
  8
GR1_01
  6
Continuous
 62
     3
370
    50
100
AcDbCircle
 10
477.9200938342375
 20
237.2812327874378
 30
0.0
 40
5.0
100
AcDbArc
 50
342.5718580999601
 51
70.90321472895612
  0
LINE
  5
150
330
1F
100
AcDbEntity
  8
GR1_01
  6
Continuous
 62
     3
370
    50
100
AcDbLine
 10
479.5559182324571
 20
241.993295019157
 30
0.0
 11
479.5559182324571
 21
245.3364407696646
 31
0.0
  0
LINE
  5
151
330
1F
100
AcDbEntity
  8
GR1_01
  6
Continuous
 62
     3
370
    50
100
AcDbLine
 10
480.727491107711
 20
248.1648678944108
 30
0.0
 11
483.0914521383899
 21
250.5288289250897
 31
0.0
  0
ARC
  5
152
330
1F
100
AcDbEntity
  8
GR1_01
  6
Continuous
 62
     3
370
    50
100
AcDbCircle
 10
483.5559182324572
 20
245.3364407696646
 30
0.0
 40
4.0
100
AcDbArc
 50
135.0
 51
180.0
  0
LINE
  5
153
330
1F
100
AcDbEntity
  8
GR1_01
  6
Continuous
 62
     3
370
    50
100
AcDbLine
 10
486.6269860443226
 20
251.993295019157
 30
0.0
 11
495.0559182324571
 21
251.993295019157
 31
0.0
  0
LINE
  5
154
330
1F
100
AcDbEntity
  8
GR1_01
  6
Continuous
 62
     3
370
    50
100
AcDbLine
 10
495.0559182324572
 20
251.993295019157
 30
0.0
 11
499.8931115126604
 21
256.6692485233534
 31
0.0
  0
ARC
  5
155
330
1F
100
AcDbEntity
  8
GR1_01
  6
Continuous
 62
     3
370
    50
100
AcDbCircle
 10
502.6731999000503
 20
253.793295019157
 30
0.0
 40
4.0
100
AcDbArc
 50
90.0
 51
134.0289780689208
  0
LINE
  5
156
330
1F
100
AcDbEntity
  8
GR1_01
  6
Continuous
 62
     3
370
    50
100
AcDbLine
 10
495.8068272439958
 20
257.793295019157
 30
0.0
 11
573.3050092209185
 21
257.793295019157
 31
0.0
  0
ARC
  5
157
330
1F
100
AcDbEntity
  8
GR1_01
  6
Continuous
 62
     3
370
    50
100
AcDbCircle
 10
573.3050092209184
 20
262.9932950191569
 30
0.0
 40
5.2
100
AcDbArc
 50
270.0
 51
357.188626405473
  0
LINE
  5
158
330
1F
100
AcDbEntity
  8
GR1_01
  6
Continuous
 62
     3
370
    50
100
AcDbLine
 10
578.4987506083364
 20
262.738245218882
 30
0.0
 11
578.8059182324571
 21
268.993295019157
 31
0.0
  0
LINE
  5
159
330
1F
100
AcDbEntity
  8
GR1_01
  6
Continuous
 62
     3
370
    50
100
AcDbLine
 10
578.8059182324571
 20
268.993295019157
 30
0.0
 11
490.3059182324571
 21
268.993295019157
 31
0.0
  0
LINE
  5
15A
330
1F
100
AcDbEntity
  8
GR1_01
  6
Continuous
 62
     3
370
    50
100
AcDbLine
 10
490.3059182324571
 20
268.993295019157
 30
0.0
 11
490.6130858565778
 21
262.738245218882
 31
0.0
  0
ARC
  5
15B
330
1F
100
AcDbEntity
  8
GR1_01
  6
Continuous
 62
     3
370
    50
100
AcDbCircle
 10
495.8068272439959
 20
262.9932950191569
 30
0.0
 40
5.2
100
AcDbArc
 50
182.8113735945269
 51
270.0
  0
ARC
  5
15C
330
1F
100
AcDbEntity
  8
GR1_01
  6
Continuous
 62
     3
370
    50
100
AcDbCircle
 10
486.6269860443226
 20
246.993295019157
 30
0.0
 40
5.0
100
AcDbArc
 50
90.0
 51
135.0
  0
LINE
  5
15D
330
1F
100
AcDbEntity
  8
GR1_01
  6
Continuous
 62
     3
370
    50
100
AcDbLine
 10
495.5559182324573
 20
239.9050463651055
 30
0.0
 11
500.5559182324573
 21
242.7917977110536
 31
0.0
  0
LINE
  5
15E
330
1F
100
AcDbEntity
  8
GR1_01
  6
Continuous
 62
     3
370
    50
100
AcDbLine
 10
500.5559182324573
 20
242.7917977110536
 30
0.0
 11
505.5559182324572
 21
239.9050463651054
 31
0.0
  0
LINE
  5
15F
330
1F
100
AcDbEntity
  8
GR1_01
  6
Continuous
 62
     3
370
    50
100
AcDbLine
 10
505.5559182324572
 20
239.9050463651054
 30
0.0
 11
505.5559182324572
 21
237.0675422393378
 31
0.0
  0
LINE
  5
160
330
1F
100
AcDbEntity
  8
GR1_01
  6
Continuous
 62
     3
370
    50
100
AcDbLine
 10
495.5559182324572
 20
235.3941161485237
 30
0.0
 11
495.5559182324573
 21
239.9050463651055
 31
0.0
  0
LINE
  5
161
330
1F
100
AcDbEntity
  8
GR1_01
  6
Continuous
 62
     3
370
    50
100
AcDbLine
 10
570.8559182324572
 20
247.593295019157
 30
0.0
 11
574.0559182324572
 21
247.593295019157
 31
0.0
  0
LINE
  5
162
330
1F
100
AcDbEntity
  8
GR1_01
  6
Continuous
 62
     3
370
    50
100
AcDbLine
 10
574.0559182324572
 20
247.593295019157
 30
0.0
 11
574.0559182324572
 21
250.793295019157
 31
0.0
  0
ARC
  5
163
330
1F
100
AcDbEntity
  8
GR1_01
  6
Continuous
 62
     3
370
    50
100
AcDbCircle
 10
567.0559182324571
 20
250.793295019157
 30
0.0
 40
7.0
100
AcDbArc
 50
0.0
 51
90.0
  0
ARC
  5
164
330
1F
100
AcDbEntity
  8
GR1_01
  6
Continuous
 62
     3
370
    50
100
AcDbCircle
 10
626.1611052574665
 20
185.4686887825536
 30
0.0
 40
83.17529928965865
100
AcDbArc
 50
131.676434570614
 51
150.9996684377456
  0
ARC
  5
165
330
1F
100
AcDbEntity
  8
GR1_01
  6
Continuous
 62
     3
370
    50
100
AcDbCircle
 10
576.0175295692969
 20
277.5181897548325
 30
0.0
 40
7.0
100
AcDbArc
 50
270.3142170579309
 51
339.0760900045366
  0
ARC
  5
166
330
1F
100
AcDbEntity
  8
GR1_01
  6
Continuous
 62
     3
370
    50
100
AcDbCircle
 10
583.5559182324571
 20
275.0182950191568
 30
0.0
 40
1.0
100
AcDbArc
 50
90.0
 51
180.0
  0
LINE
  5
167
330
1F
100
AcDbEntity
  8
GR1_01
  6
Continuous
 62
     3
370
    50
100
AcDbLine
 10
576.0559182324571
 20
270.5182950191568
 30
0.0
 11
493.0559182324573
 21
270.5182950191568
 31
0.0
  0
ARC
  5
168
330
1F
100
AcDbEntity
  8
GR1_01
  6
Continuous
 62
     3
370
    50
100
AcDbCircle
 10
493.0943068956174
 20
277.5181897548325
 30
0.0
 40
7.0
100
AcDbArc
 50
200.9239099954633
 51
269.6857829420691
  0
ARC
  5
169
330
1F
100
AcDbEntity
  8
GR1_01
  6
Continuous
 62
     3
370
    50
100
AcDbCircle
 10
485.5559182324571
 20
275.0182950191568
 30
0.0
 40
1.0
100
AcDbArc
 50
0.0
 51
90.0
  0
LINE
  5
16A
330
1F
100
AcDbEntity
  8
GR1_01
  6
Continuous
 62
     3
370
    50
100
AcDbLine
 10
474.5559182324573
 20
276.0182950191569
 30
0.0
 11
594.5559182324571
 21
276.0182950191569
 31
0.0
  0
LINE
  5
16B
330
1F
100
AcDbEntity
  8
GR1_01
  6
Continuous
 62
     3
370
    50
100
AcDbLine
 10
594.5559182324571
 20
276.0182950191569
 30
0.0
 11
594.5559182324571
 21
280.0182950191569
 31
0.0
  0
LINE
  5
16C
330
1F
100
AcDbEntity
  8
GR1_01
  6
Continuous
 62
     3
370
    50
100
AcDbLine
 10
594.5559182324571
 20
280.0182950191569
 30
0.0
 11
474.5559182324572
 21
280.0182950191569
 31
0.0
  0
LINE
  5
16D
330
1F
100
AcDbEntity
  8
GR1_01
  6
Continuous
 62
     3
370
    50
100
AcDbLine
 10
474.5559182324572
 20
280.0182950191569
 30
0.0
 11
474.5559182324572
 21
276.0182950191569
 31
0.0
  0
LINE
  5
16E
330
1F
100
AcDbEntity
  8
GR1_01
  6
Continuous
 62
     3
370
    50
100
AcDbLine
 10
456.5059182324572
 20
349.5321839080458
 30
0.0
 11
456.5059182324572
 21
367.1872262810721
 31
0.0
  0
ARC
  5
16F
330
1F
100
AcDbEntity
  8
GR1_01
  6
Continuous
 62
     3
370
    50
100
AcDbCircle
 10
446.5059182324572
 20
367.1872262810721
 30
0.0
 40
10.0
100
AcDbArc
 50
0.0
 51
30.04585112215691
  0
ARC
  5
170
330
1F
100
AcDbEntity
  8
GR1_01
  6
Continuous
 62
     3
370
    50
100
AcDbCircle
 10
458.337840978972
 20
374.6704768242794
 30
0.0
 40
4.027259955977974
100
AcDbArc
 50
188.6053484394429
 51
218.3829729239019
  0
LINE
  5
171
330
1F
100
AcDbEntity
  8
GR1_01
  6
Continuous
 62
     6
370
    25
100
AcDbLine
 10
454.3559965710614
 20
375.0515235572682
 30
0.0
 11
454.3559182324575
 21
375.0821839080457
 31
0.0
  0
ARC
  5
172
330
1F
100
AcDbEntity
  8
GR1_01
  6
Continuous
 62
     3
370
    50
100
AcDbCircle
 10
460.3559182324573
 20
374.067887416961
 30
0.0
 40
6.0
100
AcDbArc
 50
90.9999999999999
 51
180.0
  0
LINE
  5
173
330
1F
100
AcDbEntity
  8
GR1_01
  6
Continuous
 62
     3
370
    50
100
AcDbLine
 10
460.2512037938336
 20
380.0669735878994
 30
0.0
 11
520.9049663612029
 21
381.1256889516533
 31
0.0
  0
ARC
  5
174
330
1F
100
AcDbEntity
  8
GR1_01
  6
Continuous
 62
     3
370
    50
100
AcDbCircle
 10
520.5559182324573
 20
401.1226428547811
 30
0.0
 40
20.0
100
AcDbArc
 50
270.9999999999998
 51
314.6002528500182
  0
LINE
  5
175
330
1F
100
AcDbEntity
  8
GR1_01
  6
Continuous
 62
     3
370
    50
100
AcDbLine
 10
574.1668309359311
 20
399.4930966115198
 30
0.0
 11
577.166830935931
 21
396.4930966115198
 31
0.0
  0
ARC
  5
176
330
1F
100
AcDbEntity
  8
GR1_01
  6
Continuous
 62
     3
370
    50
100
AcDbCircle
 10
581.0559182324571
 20
400.3821839080458
 30
0.0
 40
5.5
100
AcDbArc
 50
224.9999999999994
 51
44.99999999999949
  0
LINE
  5
177
330
1F
100
AcDbEntity
  8
GR1_01
  6
Continuous
 62
     3
370
    50
100
AcDbLine
 10
584.9450055289831
 20
404.2712712045718
 30
0.0
 11
581.9450055289832
 21
407.2712712045718
 31
0.0
  0
ARC
  5
178
330
1F
100
AcDbEntity
  8
GR1_01
  6
Continuous
 62
     3
370
    50
100
AcDbCircle
 10
578.0559182324571
 20
403.3821839080458
 30
0.0
 40
5.5
100
AcDbArc
 50
44.99999999999949
 51
224.9999999999994
  0
ARC
  5
179
330
1F
100
AcDbEntity
  8
GR1_01
  6
Continuous
 62
     3
370
    50
100
AcDbCircle
 10
580.0559182324572
 20
401.3821839080458
 30
0.0
 40
14.5
100
AcDbArc
 50
270.0
 51
0.0
  0
LINE
  5
17A
330
1F
100
AcDbEntity
  8
GR1_01
  6
Continuous
 62
     3
370
    50
100
AcDbLine
 10
594.5559182324571
 20
401.3821839080458
 30
0.0
 11
594.5559182324571
 21
492.3821839080458
 31
0.0
  0
ARC
  5
17B
330
1F
100
AcDbEntity
  8
GR1_01
  6
Continuous
 62
     3
370
    50
100
AcDbCircle
 10
580.0559182324572
 20
492.3821839080458
 30
0.0
 40
14.5
100
AcDbArc
 50
0.0
 51
90.0
  0
LINE
  5
17C
330
1F
100
AcDbEntity
  8
GR1_01
  6
Continuous
 62
     3
370
    50
100
AcDbLine
 10
580.0559182324572
 20
506.8821839080458
 30
0.0
 11
489.0559182324571
 21
506.8821839080458
 31
0.0
  0
ARC
  5
17D
330
1F
100
AcDbEntity
  8
GR1_01
  6
Continuous
 62
     3
370
    50
100
AcDbCircle
 10
489.0559182324571
 20
492.3821839080458
 30
0.0
 40
14.5
100
AcDbArc
 50
90.0
 51
180.0
  0
LINE
  5
17E
330
1F
100
AcDbEntity
  8
GR1_01
  6
Continuous
 62
     3
370
    50
100
AcDbLine
 10
474.5559182324571
 20
492.3821839080458
 30
0.0
 11
474.5559182324571
 21
401.3821839080458
 31
0.0
  0
ARC
  5
17F
330
1F
100
AcDbEntity
  8
GR1_01
  6
Continuous
 62
     3
370
    50
100
AcDbCircle
 10
489.0559182324571
 20
401.3821839080458
 30
0.0
 40
14.5
100
AcDbArc
 50
180.0
 51
270.0
  0
LINE
  5
180
330
1F
100
AcDbEntity
  8
GR1_01
  6
Continuous
 62
     3
370
    50
100
AcDbLine
 10
489.0559182324571
 20
386.8821839080458
 30
0.0
 11
580.0559182324572
 21
386.8821839080458
 31
0.0
  0
CIRCLE
  5
181
330
1F
100
AcDbEntity
  8
GR1_01
  6
Continuous
 62
     3
370
    50
100
AcDbCircle
 10
534.5559182324571
 20
446.8821839080458
 30
0.0
 40
19.19999999999993
  0
CIRCLE
  5
182
330
1F
100
AcDbEntity
  8
GR1_01
  6
Continuous
 62
     3
370
    50
100
AcDbCircle
 10
534.5559182324571
 20
446.8821839080458
 30
0.0
 40
12.75
  0
LINE
  5
183
330
1F
100
AcDbEntity
  8
GR1_01
  6
Continuous
 62
     3
370
    50
100
AcDbLine
 10
581.9450055289832
 20
486.4930966115198
 30
0.0
 11
584.9450055289831
 21
489.4930966115198
 31
0.0
  0
ARC
  5
184
330
1F
100
AcDbEntity
  8
GR1_01
  6
Continuous
 62
     3
370
    50
100
AcDbCircle
 10
581.0559182324571
 20
493.3821839080458
 30
0.0
 40
5.5
100
AcDbArc
 50
315.0
 51
135.0000000000014
  0
LINE
  5
185
330
1F
100
AcDbEntity
  8
GR1_01
  6
Continuous
 62
     3
370
    50
100
AcDbLine
 10
577.166830935931
 20
497.2712712045717
 30
0.0
 11
574.1668309359311
 21
494.2712712045717
 31
0.0
  0
ARC
  5
186
330
1F
100
AcDbEntity
  8
GR1_01
  6
Continuous
 62
     3
370
    50
100
AcDbCircle
 10
578.0559182324571
 20
490.3821839080458
 30
0.0
 40
5.5
100
AcDbArc
 50
135.0000000000004
 51
315.0000000000004
  0
ARC
  5
187
330
1F
100
AcDbEntity
  8
GR1_01
  6
Continuous
 62
     3
370
    50
100
AcDbCircle
 10
488.0559182324572
 20
493.3821839080458
 30
0.0
 40
5.5
100
AcDbArc
 50
44.99999999999875
 51
224.9999999999998
  0
LINE
  5
188
330
1F
100
AcDbEntity
  8
GR1_01
  6
Continuous
 62
     3
370
    50
100
AcDbLine
 10
484.1668309359312
 20
489.4930966115198
 30
0.0
 11
487.1668309359311
 21
486.4930966115198
 31
0.0
  0
ARC
  5
189
330
1F
100
AcDbEntity
  8
GR1_01
  6
Continuous
 62
     3
370
    50
100
AcDbCircle
 10
491.0559182324571
 20
490.3821839080458
 30
0.0
 40
5.5
100
AcDbArc
 50
224.9999999999996
 51
44.99999999999959
  0
LINE
  5
18A
330
1F
100
AcDbEntity
  8
GR1_01
  6
Continuous
 62
     3
370
    50
100
AcDbLine
 10
494.9450055289832
 20
494.2712712045717
 30
0.0
 11
491.9450055289833
 21
497.2712712045717
 31
0.0
  0
LINE
  5
18B
330
1F
100
AcDbEntity
  8
GR1_01
  6
Continuous
 62
     3
370
    50
100
AcDbLine
 10
474.5559182324571
 20
478.3321839080457
 30
0.0
 11
464.0749379674636
 21
478.3321839080457
 31
0.0
  0
LINE
  5
18C
330
1F
100
AcDbEntity
  8
GR1_01
  6
Continuous
 62
     3
370
    50
100
AcDbLine
 10
464.0749379674636
 20
478.3321839080457
 30
0.0
 11
464.0749379674636
 21
475.1321839080458
 31
0.0
  0
LINE
  5
18D
330
1F
100
AcDbEntity
  8
GR1_01
  6
Continuous
 62
     3
370
    50
100
AcDbLine
 10
464.0749379674636
 20
475.1321839080458
 30
0.0
 11
474.5559182324571
 21
475.1321839080458
 31
0.0
  0
LINE
  5
18E
330
1F
100
AcDbEntity
  8
GR1_01
  6
Continuous
 62
     3
370
    50
100
AcDbLine
 10
464.0749379674636
 20
418.6321839080458
 30
0.0
 11
464.0749379674636
 21
415.4321839080458
 31
0.0
  0
LINE
  5
18F
330
1F
100
AcDbEntity
  8
GR1_01
  6
Continuous
 62
     3
370
    50
100
AcDbLine
 10
464.0749379674636
 20
415.4321839080458
 30
0.0
 11
474.5559182324571
 21
415.4321839080458
 31
0.0
  0
LINE
  5
190
330
1F
100
AcDbEntity
  8
GR1_01
  6
Continuous
 62
     3
370
    50
100
AcDbLine
 10
474.5559182324571
 20
418.6321839080458
 30
0.0
 11
464.0749379674636
 21
418.6321839080458
 31
0.0
  0
LINE
  5
191
330
1F
100
AcDbEntity
  8
GR1_01
  6
Continuous
 62
     3
370
    50
100
AcDbLine
 10
484.1668309359312
 20
404.2712712045718
 30
0.0
 11
487.1668309359311
 21
407.2712712045718
 31
0.0
  0
ARC
  5
192
330
1F
100
AcDbEntity
  8
GR1_01
  6
Continuous
 62
     3
370
    50
100
AcDbCircle
 10
488.0559182324572
 20
400.3821839080458
 30
0.0
 40
5.5
100
AcDbArc
 50
135.0000000000005
 51
315.0000000000009
  0
LINE
  5
193
330
1F
100
AcDbEntity
  8
GR1_01
  6
Continuous
 62
     3
370
    50
100
AcDbLine
 10
491.9450055289833
 20
396.4930966115198
 30
0.0
 11
494.9450055289832
 21
399.4930966115198
 31
0.0
  0
ARC
  5
194
330
1F
100
AcDbEntity
  8
GR1_01
  6
Continuous
 62
     3
370
    50
100
AcDbCircle
 10
491.0559182324571
 20
403.3821839080458
 30
0.0
 40
5.5
100
AcDbArc
 50
315.0000000000005
 51
135.0000000000006
  0
LINE
  5
195
330
1F
100
AcDbEntity
  8
GR1_01
  6
Continuous
 62
     3
370
    50
100
AcDbLine
 10
479.5811494952683
 20
390.4059023256159
 30
0.0
 11
460.047592121099
 21
390.0649428133708
 31
0.0
  0
ARC
  5
196
330
1F
100
AcDbEntity
  8
GR1_01
  6
Continuous
 62
     3
370
    50
100
AcDbCircle
 10
460.3268306240955
 20
374.0673796908686
 30
0.0
 40
16.0
100
AcDbArc
 50
90.99999999999976
 51
177.0533526774943
  0
LINE
  5
197
330
1F
100
AcDbEntity
  8
GR1_01
  6
Continuous
 62
     3
370
    50
100
AcDbLine
 10
444.3558398938536
 20
375.0515235572682
 30
0.0
 11
444.3559182324575
 21
375.0821839080457
 31
0.0
  0
ARC
  5
198
330
1F
100
AcDbEntity
  8
GR1_01
  6
Continuous
 62
     3
370
    50
100
AcDbCircle
 10
438.3559182324573
 20
375.1983123497646
 30
0.0
 40
6.0
100
AcDbArc
 50
329.9541488778428
 51
357.0533526774943
  0
ARC
  5
199
330
1F
100
AcDbEntity
  8
GR1_01
  6
Continuous
 62
     3
370
    50
100
AcDbCircle
 10
452.2059182324572
 20
367.1872262810721
 30
0.0
 40
10.0
100
AcDbArc
 50
149.9541488778429
 51
180.0
  0
LINE
  5
19A
330
1F
100
AcDbEntity
  8
GR1_01
  6
Continuous
 62
     3
370
    50
100
AcDbLine
 10
442.2059182324572
 20
367.1872262810721
 30
0.0
 11
442.2059182324572
 21
349.5321839080458
 31
0.0
  0
ARC
  5
19B
330
1F
100
AcDbEntity
  8
GR1_01
  6
Continuous
 62
     3
370
    50
100
AcDbCircle
 10
449.3559182324573
 20
349.5321839080458
 30
0.0
 40
7.15
100
AcDbArc
 50
180.0
 51
0.0
  0
TEXT
  5
19C
330
1F
100
AcDbEntity
  8
GR1_01
  6
Continuous
 62
     7
370
    25
100
AcDbText
 10
485.6234130859375
 20
221.2128753662109
 30
0.0
 40
9.70110034942627
  1
Ｊ－１５０
 50
256.0
 41
0.7956980075203179
  7
FX_VECTOR
 72
     5
 11
477.8869153596258
 21
190.1834777931766
 31
0.0
100
AcDbText
  0
ARC
  5
19D
330
1F
100
AcDbEntity
  8
GR1_01
  6
Continuous
 62
     7
370
    25
100
AcDbCircle
 10
534.5559182324571
 20
446.8821839080458
 30
0.0
 40
136.5178806146179
100
AcDbArc
 50
210.6545797468602
 51
231.3842744109589
  0
LINE
  5
19E
330
1F
100
AcDbEntity
  8
GR1_01
  6
Continuous
 62
     6
370
    25
100
AcDbLine
 10
276.3184813509998
 20
144.0164862108705
 30
0.0
 11
276.3184813509998
 21
170.0164862108705
 31
0.0
  0
LINE
  5
19F
330
1F
100
AcDbEntity
  8
GR1_01
  6
DASHDOT
 62
     6
370
    25
100
AcDbLine
 10
283.2507631592661
 20
157.0182950191572
 30
0.0
 11
193.1111394184879
 21
157.0182950191572
 31
0.0
  0
LINE
  5
1A0
330
1F
100
AcDbEntity
  8
GR1_01
  6
Continuous
 62
     6
370
    25
100
AcDbLine
 10
197.3082901592864
 20
163.2062950191572
 30
0.0
 11
198.9184813509996
 21
163.2062950191572
 31
0.0
  0
LINE
  5
1A1
330
1F
100
AcDbEntity
  8
GR1_01
  6
Continuous
 62
     6
370
    25
100
AcDbLine
 10
198.1184813509998
 20
164.0164862108705
 30
0.0
 11
198.1184813509998
 21
150.0164862108705
 31
0.0
  0
LINE
  5
1A2
330
1F
100
AcDbEntity
  8
GR1_01
  6
Continuous
 62
     6
370
    25
100
AcDbLine
 10
198.9184813509996
 20
150.8302950191572
 30
0.0
 11
197.3082901592864
 21
150.8302950191572
 31
0.0
  0
LINE
  5
1A3
330
1F
100
AcDbEntity
  8
GR1_01
  6
DASHDOT
 62
     6
370
    25
100
AcDbLine
 10
241.8684813509998
 20
78.01255140999741
 30
0.0
 11
241.8684813509998
 21
285.5105625095
 31
0.0
  0
LINE
  5
1A4
330
1F
100
AcDbEntity
  8
GR1_01
  6
Continuous
 62
     6
370
    25
100
AcDbLine
 10
280.8670965353168
 20
241.0182950191573
 30
0.0
 11
284.1184813509998
 21
241.0182950191573
 31
0.0
  0
LINE
  5
1A5
330
1F
100
AcDbEntity
  8
GR1_01
  6
Continuous
 62
     6
370
    25
100
AcDbLine
 10
284.1184813509998
 20
241.0182950191573
 30
0.0
 11
283.3684813509998
 21
238.2182950191573
 31
0.0
  0
LINE
  5
1A6
330
1F
100
AcDbEntity
  8
GR1_01
  6
Continuous
 62
     6
370
    25
100
AcDbLine
 10
283.3684813509998
 20
238.2182950191573
 30
0.0
 11
280.8666998617709
 21
238.2182950191573
 31
0.0
  0
LINE
  5
1A7
330
1F
100
AcDbEntity
  8
GR1_01
  6
Continuous
 62
     6
370
    25
100
AcDbLine
 10
280.8663598558744
 20
235.8182950191573
 30
0.0
 11
283.3684813509998
 21
235.8182950191573
 31
0.0
  0
LINE
  5
1A8
330
1F
100
AcDbEntity
  8
GR1_01
  6
Continuous
 62
     6
370
    25
100
AcDbLine
 10
283.3684813509998
 20
235.8182950191573
 30
0.0
 11
284.1184813509998
 21
233.0182950191573
 31
0.0
  0
LINE
  5
1A9
330
1F
100
AcDbEntity
  8
GR1_01
  6
Continuous
 62
     6
370
    25
100
AcDbLine
 10
284.1184813509998
 20
233.0182950191573
 30
0.0
 11
280.8659631823283
 21
233.0182950191573
 31
0.0
  0
LINE
  5
1AA
330
1F
100
AcDbEntity
  8
GR1_01
  6
DASHDOT
 62
     6
370
    25
100
AcDbLine
 10
299.4203895616527
 20
237.0182950191573
 30
0.0
 11
187.8598319278538
 21
237.0182950191573
 31
0.0
  0
LINE
  5
1AB
330
1F
100
AcDbEntity
  8
GR1_01
  6
Continuous
 62
     6
370
    25
100
AcDbLine
 10
196.3684813509998
 20
234.6792081257719
 30
0.0
 11
197.7704328431769
 21
234.6792081257719
 31
0.0
  0
LINE
  5
1AC
330
1F
100
AcDbEntity
  8
GR1_01
  6
Continuous
 62
     6
370
    25
100
AcDbLine
 10
196.8684813509998
 20
234.137708125772
 30
0.0
 11
196.8684813509998
 21
240.137708125772
 31
0.0
  0
LINE
  5
1AD
330
1F
100
AcDbEntity
  8
GR1_01
  6
Continuous
 62
     6
370
    25
100
AcDbLine
 10
196.3684813509998
 20
239.5962081257719
 30
0.0
 11
197.7704328431769
 21
239.5962081257719
 31
0.0
  0
LINE
  5
1AE
330
1F
100
AcDbEntity
  8
GR1_01
  6
Continuous
 62
     3
370
    50
100
AcDbLine
 10
199.2704328431768
 20
242.0182950191573
 30
0.0
 11
199.2704328431768
 21
232.0182950191573
 31
0.0
  0
LINE
  5
1AF
330
1F
100
AcDbEntity
  8
GR1_01
  6
Continuous
 62
     6
370
    25
100
AcDbLine
 10
203.3184813509998
 20
234.5597950191573
 30
0.0
 11
205.3184813509997
 21
234.5597950191573
 31
0.0
  0
LINE
  5
1B0
330
1F
100
AcDbEntity
  8
GR1_01
  6
Continuous
 62
     6
370
    25
100
AcDbLine
 10
203.8184813509998
 20
234.0182950191573
 30
0.0
 11
203.8184813509998
 21
240.0182950191573
 31
0.0
  0
LINE
  5
1B1
330
1F
100
AcDbEntity
  8
GR1_01
  6
Continuous
 62
     6
370
    25
100
AcDbLine
 10
203.3184813509998
 20
239.4767950191573
 30
0.0
 11
205.3184813509997
 21
239.4767950191573
 31
0.0
  0
LINE
  5
1B2
330
1F
100
AcDbEntity
  8
GR1_01
  6
Continuous
 62
     3
370
    50
100
AcDbLine
 10
206.8184813509997
 20
242.0182950191573
 30
0.0
 11
206.8184813509997
 21
232.0182950191573
 31
0.0
  0
ARC
  5
1B3
330
1F
100
AcDbEntity
  8
GR1_01
  6
DASHDOT
 62
     6
370
    25
100
AcDbCircle
 10
299.4203895616527
 20
234.0182950191573
 30
0.0
 40
3.0
100
AcDbArc
 50
1.000000000000142
 51
90.0
  0
LINE
  5
1B4
330
1F
100
AcDbEntity
  8
GR1_01
  6
DASHDOT
 62
     6
370
    25
100
AcDbLine
 10
302.4199326471219
 20
234.0706522384692
 30
0.0
 11
302.5773934113019
 21
225.049731100246
 31
0.0
  0
ARC
  5
1B5
330
1F
100
AcDbEntity
  8
GR1_01
  6
DASHDOT
 62
     6
370
    25
100
AcDbCircle
 10
305.0770126491929
 20
225.0933621163392
 30
0.0
 40
2.5
100
AcDbArc
 50
180.9999999999998
 51
270.0
  0
LINE
  5
1B6
330
1F
100
AcDbEntity
  8
GR1_01
  6
DASHDOT
 62
     6
370
    25
100
AcDbLine
 10
305.0770126491929
 20
222.5933621163392
 30
0.0
 11
348.2570550345328
 21
222.5933621163392
 31
0.0
  0
LINE
  5
1B7
330
1F
100
AcDbEntity
  8
GR1_01
  6
DASHDOT
 62
     6
370
    25
100
AcDbLine
 10
440.3647761579816
 20
222.5933621163392
 30
0.0
 11
449.3559182324573
 21
222.5933621163392
 31
0.0
  0
LINE
  5
1B8
330
1F
100
AcDbEntity
  8
GR1_01
  6
DASHDOT
 62
     6
370
    25
100
AcDbLine
 10
449.3559182324573
 20
222.5933621163392
 30
0.0
 11
535.5559182324573
 21
237.0182950191573
 31
0.0
  0
LINE
  5
1B9
330
1F
100
AcDbEntity
  8
GR1_01
  6
DASHDOT
 62
     6
370
    25
100
AcDbLine
 10
535.5559182324573
 20
237.0182950191573
 30
0.0
 11
546.4994810428169
 21
237.0182950191573
 31
0.0
  0
LINE
  5
1BA
330
1F
100
AcDbEntity
  8
GR1_01
  6
DASHDOT
 62
     6
370
    25
100
AcDbLine
 10
568.4002951554603
 20
157.0182950191572
 30
0.0
 11
409.7061640893138
 21
157.0182950191572
 31
0.0
  0
LINE
  5
1BB
330
1F
100
AcDbEntity
  8
GR1_01
  6
DASHDOT
 62
     6
370
    25
100
AcDbLine
 10
449.3559182324573
 20
214.7877809789245
 30
0.0
 11
449.3559182324573
 21
230.3630792576164
 31
0.0
  0
LINE
  5
1BC
330
1F
100
AcDbEntity
  8
GR1_01
  6
DASHDOT
 62
     6
370
    25
100
AcDbLine
 10
534.5559182324572
 20
181.1055073474645
 30
0.0
 11
534.5559182324572
 21
282.913092752103
 31
0.0
  0
LINE
  5
1BD
330
1F
100
AcDbEntity
  8
GR1_01
  6
DASHDOT
 62
     6
370
    25
100
AcDbLine
 10
535.5559182324572
 20
248.9116113549795
 30
0.0
 11
535.5559182324572
 21
224.8963135950087
 31
0.0
  0
LINE
  5
1BE
330
1F
100
AcDbEntity
  8
GR1_01
  6
Continuous
 62
     6
370
    25
100
AcDbLine
 10
510.5559182324572
 20
237.9042552847449
 30
0.0
 11
510.5559182324572
 21
246.793295019157
 31
0.0
  0
LINE
  5
1BF
330
1F
100
AcDbEntity
  8
GR1_01
  6
DASHDOT
 62
     6
370
    25
100
AcDbLine
 10
500.5559182324572
 20
245.0059111182285
 30
0.0
 11
500.5559182324572
 21
228.5516174894196
 31
0.0
  0
ARC
  5
1C0
330
1F
100
AcDbEntity
  8
GR1_01
  6
Continuous
 62
     6
370
    25
100
AcDbCircle
 10
500.5559182324572
 20
237.0182950191573
 30
0.0
 40
4.5
100
AcDbArc
 50
359.5614137553158
 51
199.4385862446838
  0
LINE
  5
1C1
330
1F
100
AcDbEntity
  8
GR1_01
  6
DASHDOT
 62
     6
370
    25
100
AcDbLine
 10
493.4854440594085
 20
237.0182950191573
 30
0.0
 11
507.6167785876796
 21
237.0182950191573
 31
0.0
  0
LINE
  5
1C2
330
1F
100
AcDbEntity
  8
GR1_01
  6
Continuous
 62
     6
370
    25
100
AcDbLine
 10
510.5559182324572
 20
227.7652042994989
 30
0.0
 11
510.5559182324572
 21
152.3507076273484
 31
0.0
  0
CIRCLE
  5
1C3
330
1F
100
AcDbEntity
  8
GR1_01
  6
Continuous
 62
     6
370
    25
100
AcDbCircle
 10
489.5559182324571
 20
157.0182950191572
 30
0.0
 40
10.0
  0
LINE
  5
1C4
330
1F
100
AcDbEntity
  8
GR1_01
  6
DASHDOT
 62
     6
370
    25
100
AcDbLine
 10
489.5559182324572
 20
178.6397499837401
 30
0.0
 11
489.5559182324572
 21
78.64070849000393
 31
0.0
  0
LINE
  5
1C5
330
1F
100
AcDbEntity
  8
GR1_01
  6
DASHDOT
 62
     6
370
    25
100
AcDbLine
 10
449.3559182324573
 20
340.4399506843017
 30
0.0
 11
449.3559182324573
 21
390.0988949855027
 31
0.0
  0
ARC
  5
1C6
330
1F
100
AcDbEntity
  8
GR1_01
  6
DASHDOT
 62
     6
370
    25
100
AcDbCircle
 10
460.3559182324573
 20
374.0678874169611
 30
0.0
 40
11.0
100
AcDbArc
 50
90.99999999999972
 51
180.0
  0
LINE
  5
1C7
330
1F
100
AcDbEntity
  8
GR1_01
  6
Continuous
 62
     6
370
    25
100
AcDbLine
 10
448.4032902882943
 20
372.3821839080458
 30
0.0
 11
449.3559182324573
 21
370.7321839080456
 31
0.0
  0
LINE
  5
1C8
330
1F
100
AcDbEntity
  8
GR1_01
  6
Continuous
 62
     6
370
    25
100
AcDbLine
 10
449.3559182324573
 20
370.7321839080456
 30
0.0
 11
450.3085461766202
 21
372.3821839080457
 31
0.0
  0
LINE
  5
1C9
330
1F
100
AcDbEntity
  8
GR1_01
  6
Continuous
 62
     6
370
    25
100
AcDbLine
 10
451.2034390938641
 20
371.9321839080456
 30
0.0
 11
452.4736096860812
 21
369.7321839080457
 31
0.0
  0
LINE
  5
1CA
330
1F
100
AcDbEntity
  8
GR1_01
  6
Continuous
 62
     6
370
    25
100
AcDbLine
 10
452.4736096860812
 20
369.7321839080457
 30
0.0
 11
451.2034390938641
 21
367.5321839080456
 31
0.0
  0
LINE
  5
1CB
330
1F
100
AcDbEntity
  8
GR1_01
  6
Continuous
 62
     6
370
    25
100
AcDbLine
 10
451.2034390938641
 20
367.5321839080456
 30
0.0
 11
449.9332685016469
 21
369.7321839080456
 31
0.0
  0
LINE
  5
1CC
330
1F
100
AcDbEntity
  8
GR1_01
  6
Continuous
 62
     6
370
    25
100
AcDbLine
 10
449.9332685016469
 20
369.7321839080456
 30
0.0
 11
451.2034390938641
 21
371.9321839080456
 31
0.0
  0
LINE
  5
1CD
330
1F
100
AcDbEntity
  8
GR1_01
  6
Continuous
 62
     6
370
    25
100
AcDbLine
 10
452.0983320111079
 20
372.3821839080458
 30
0.0
 11
453.0509599552709
 21
370.7321839080457
 31
0.0
  0
LINE
  5
1CE
330
1F
100
AcDbEntity
  8
GR1_01
  6
Continuous
 62
     6
370
    25
100
AcDbLine
 10
453.0509599552709
 20
370.7321839080457
 30
0.0
 11
454.0559182324573
 21
372.3821839080458
 31
0.0
  0
LINE
  5
1CF
330
1F
100
AcDbEntity
  8
GR1_01
  6
Continuous
 62
     6
370
    25
100
AcDbLine
 10
454.0559182324573
 20
372.3821839080458
 30
0.0
 11
444.6559182324573
 21
372.3821839080458
 31
0.0
  0
LINE
  5
1D0
330
1F
100
AcDbEntity
  8
GR1_01
  6
Continuous
 62
     6
370
    25
100
AcDbLine
 10
444.6559182324573
 20
372.3821839080458
 30
0.0
 11
445.6608765096437
 21
370.7321839080457
 31
0.0
  0
LINE
  5
1D1
330
1F
100
AcDbEntity
  8
GR1_01
  6
Continuous
 62
     6
370
    25
100
AcDbLine
 10
445.6608765096437
 20
370.7321839080457
 30
0.0
 11
446.6135044538066
 21
372.3821839080458
 31
0.0
  0
LINE
  5
1D2
330
1F
100
AcDbEntity
  8
GR1_01
  6
Continuous
 62
     6
370
    25
100
AcDbLine
 10
447.5083973710505
 20
371.9321839080456
 30
0.0
 11
446.2382267788333
 21
369.7321839080457
 31
0.0
  0
LINE
  5
1D3
330
1F
100
AcDbEntity
  8
GR1_01
  6
Continuous
 62
     6
370
    25
100
AcDbLine
 10
446.2382267788333
 20
369.7321839080457
 30
0.0
 11
447.5083973710505
 21
367.5321839080456
 31
0.0
  0
LINE
  5
1D4
330
1F
100
AcDbEntity
  8
GR1_01
  6
Continuous
 62
     6
370
    25
100
AcDbLine
 10
447.5083973710505
 20
367.5321839080456
 30
0.0
 11
448.7785679632676
 21
369.7321839080456
 31
0.0
  0
LINE
  5
1D5
330
1F
100
AcDbEntity
  8
GR1_01
  6
Continuous
 62
     6
370
    25
100
AcDbLine
 10
448.7785679632676
 20
369.7321839080456
 30
0.0
 11
447.5083973710505
 21
371.9321839080456
 31
0.0
  0
ARC
  5
1D6
330
1F
100
AcDbEntity
  8
GR1_01
  6
Continuous
 62
     6
370
    25
100
AcDbCircle
 10
462.9559182324572
 20
364.313107133098
 30
0.0
 40
20.0
100
AcDbArc
 50
156.2057270494633
 51
180.0
  0
LINE
  5
1D7
330
1F
100
AcDbEntity
  8
GR1_01
  6
Continuous
 62
     6
370
    25
100
AcDbLine
 10
442.9559182324572
 20
364.313107133098
 30
0.0
 11
442.9559182324572
 21
349.5321839080458
 31
0.0
  0
ARC
  5
1D8
330
1F
100
AcDbEntity
  8
GR1_01
  6
Continuous
 62
     6
370
    25
100
AcDbCircle
 10
449.3559182324573
 20
349.5321839080458
 30
0.0
 40
6.4
100
AcDbArc
 50
180.0
 51
0.0
  0
LINE
  5
1D9
330
1F
100
AcDbEntity
  8
GR1_01
  6
Continuous
 62
     6
370
    25
100
AcDbLine
 10
455.7559182324572
 20
349.5321839080458
 30
0.0
 11
455.7559182324572
 21
364.313107133098
 31
0.0
  0
LINE
  5
1DA
330
1F
100
AcDbEntity
  8
GR1_01
  6
Continuous
 62
     6
370
    25
100
AcDbLine
 10
455.7559182324572
 20
364.313107133098
 30
0.0
 11
454.8984808166777
 21
365.5321839080457
 31
0.0
  0
LINE
  5
1DB
330
1F
100
AcDbEntity
  8
GR1_01
  6
Continuous
 62
     6
370
    25
100
AcDbLine
 10
454.8984808166777
 20
365.5321839080457
 30
0.0
 11
453.6283102244605
 21
363.3321839080456
 31
0.0
  0
LINE
  5
1DC
330
1F
100
AcDbEntity
  8
GR1_01
  6
Continuous
 62
     6
370
    25
100
AcDbLine
 10
453.6283102244605
 20
363.3321839080456
 30
0.0
 11
454.8984808166776
 21
361.1321839080457
 31
0.0
  0
LINE
  5
1DD
330
1F
100
AcDbEntity
  8
GR1_01
  6
Continuous
 62
     6
370
    25
100
AcDbLine
 10
454.8984808166776
 20
361.1321839080457
 30
0.0
 11
455.7559182324572
 21
362.6173090764864
 31
0.0
  0
ARC
  5
1DE
330
1F
100
AcDbEntity
  8
GR1_01
  6
Continuous
 62
     6
370
    25
100
AcDbCircle
 10
435.7559182324572
 20
364.313107133098
 30
0.0
 40
20.0
100
AcDbArc
 50
0.0
 51
23.79427295053676
  0
ARC
  5
1DF
330
1F
100
AcDbEntity
  8
GR1_01
  6
Continuous
 62
     6
370
    25
100
AcDbCircle
 10
449.3559182324573
 20
361.837183908046
 30
0.0
 40
11.54499999999987
100
AcDbArc
 50
65.97704322726892
 51
114.022956772731
  0
LINE
  5
1E0
330
1F
100
AcDbEntity
  8
GR1_01
  6
Continuous
 62
     6
370
    25
100
AcDbLine
 10
444.2012744011932
 20
371.2602889187165
 30
0.0
 11
445.083526240454
 21
369.7321839080457
 31
0.0
  0
LINE
  5
1E1
330
1F
100
AcDbEntity
  8
GR1_01
  6
Continuous
 62
     6
370
    25
100
AcDbLine
 10
445.083526240454
 20
369.7321839080457
 30
0.0
 11
443.8133556482368
 21
367.5321839080456
 31
0.0
  0
LINE
  5
1E2
330
1F
100
AcDbEntity
  8
GR1_01
  6
Continuous
 62
     6
370
    25
100
AcDbLine
 10
443.8133556482368
 20
367.5321839080456
 30
0.0
 11
443.3606506581634
 21
368.3162919516928
 31
0.0
  0
LINE
  5
1E3
330
1F
100
AcDbEntity
  8
GR1_01
  6
Continuous
 62
     6
370
    25
100
AcDbLine
 10
443.105867651038
 20
366.7575890649392
 30
0.0
 11
443.2360053790472
 21
366.5321839080456
 31
0.0
  0
LINE
  5
1E4
330
1F
100
AcDbEntity
  8
GR1_01
  6
Continuous
 62
     6
370
    25
100
AcDbLine
 10
443.2360053790472
 20
366.5321839080456
 30
0.0
 11
443.0453045981377
 21
366.2018804664672
 31
0.0
  0
LINE
  5
1E5
330
1F
100
AcDbEntity
  8
GR1_01
  6
Continuous
 62
     6
370
    25
100
AcDbLine
 10
443.8133556482368
 20
365.5321839080457
 30
0.0
 11
445.083526240454
 21
363.3321839080456
 31
0.0
  0
LINE
  5
1E6
330
1F
100
AcDbEntity
  8
GR1_01
  6
Continuous
 62
     6
370
    25
100
AcDbLine
 10
445.083526240454
 20
363.3321839080456
 30
0.0
 11
443.8133556482369
 21
361.1321839080457
 31
0.0
  0
LINE
  5
1E7
330
1F
100
AcDbEntity
  8
GR1_01
  6
Continuous
 62
     6
370
    25
100
AcDbLine
 10
443.8133556482369
 20
361.1321839080457
 30
0.0
 11
442.9559182324573
 21
362.6173090764864
 31
0.0
  0
LINE
  5
1E8
330
1F
100
AcDbEntity
  8
GR1_01
  6
Continuous
 62
     6
370
    25
100
AcDbLine
 10
442.9559182324573
 20
364.313107133098
 30
0.0
 11
443.8133556482368
 21
365.5321839080457
 31
0.0
  0
LINE
  5
1E9
330
1F
100
AcDbEntity
  8
GR1_01
  6
Continuous
 62
     6
370
    25
100
AcDbLine
 10
444.3907059174265
 20
366.5321839080456
 30
0.0
 11
445.6608765096437
 21
364.3321839080456
 31
0.0
  0
LINE
  5
1EA
330
1F
100
AcDbEntity
  8
GR1_01
  6
Continuous
 62
     6
370
    25
100
AcDbLine
 10
445.6608765096437
 20
364.3321839080456
 30
0.0
 11
446.9310471018609
 21
366.5321839080456
 31
0.0
  0
LINE
  5
1EB
330
1F
100
AcDbEntity
  8
GR1_01
  6
Continuous
 62
     6
370
    25
100
AcDbLine
 10
446.9310471018609
 20
366.5321839080456
 30
0.0
 11
445.6608765096437
 21
368.7321839080457
 31
0.0
  0
LINE
  5
1EC
330
1F
100
AcDbEntity
  8
GR1_01
  6
Continuous
 62
     6
370
    25
100
AcDbLine
 10
445.6608765096437
 20
368.7321839080457
 30
0.0
 11
444.3907059174265
 21
366.5321839080456
 31
0.0
  0
LINE
  5
1ED
330
1F
100
AcDbEntity
  8
GR1_01
  6
Continuous
 62
     6
370
    25
100
AcDbLine
 10
447.5083973710505
 20
365.5321839080457
 30
0.0
 11
448.7785679632677
 21
363.3321839080456
 31
0.0
  0
LINE
  5
1EE
330
1F
100
AcDbEntity
  8
GR1_01
  6
Continuous
 62
     6
370
    25
100
AcDbLine
 10
448.7785679632677
 20
363.3321839080456
 30
0.0
 11
447.5083973710505
 21
361.1321839080457
 31
0.0
  0
LINE
  5
1EF
330
1F
100
AcDbEntity
  8
GR1_01
  6
Continuous
 62
     6
370
    25
100
AcDbLine
 10
447.5083973710505
 20
361.1321839080457
 30
0.0
 11
446.2382267788333
 21
363.3321839080456
 31
0.0
  0
LINE
  5
1F0
330
1F
100
AcDbEntity
  8
GR1_01
  6
Continuous
 62
     6
370
    25
100
AcDbLine
 10
446.2382267788333
 20
363.3321839080456
 30
0.0
 11
447.5083973710505
 21
365.5321839080457
 31
0.0
  0
LINE
  5
1F1
330
1F
100
AcDbEntity
  8
GR1_01
  6
Continuous
 62
     6
370
    25
100
AcDbLine
 10
448.0857476402401
 20
366.5321839080456
 30
0.0
 11
449.3559182324573
 21
368.7321839080456
 31
0.0
  0
LINE
  5
1F2
330
1F
100
AcDbEntity
  8
GR1_01
  6
Continuous
 62
     6
370
    25
100
AcDbLine
 10
449.3559182324573
 20
368.7321839080456
 30
0.0
 11
450.6260888246744
 21
366.5321839080456
 31
0.0
  0
LINE
  5
1F3
330
1F
100
AcDbEntity
  8
GR1_01
  6
Continuous
 62
     6
370
    25
100
AcDbLine
 10
450.6260888246744
 20
366.5321839080456
 30
0.0
 11
449.3559182324573
 21
364.3321839080457
 31
0.0
  0
LINE
  5
1F4
330
1F
100
AcDbEntity
  8
GR1_01
  6
Continuous
 62
     6
370
    25
100
AcDbLine
 10
449.3559182324573
 20
364.3321839080457
 30
0.0
 11
448.0857476402401
 21
366.5321839080456
 31
0.0
  0
LINE
  5
1F5
330
1F
100
AcDbEntity
  8
GR1_01
  6
Continuous
 62
     6
370
    25
100
AcDbLine
 10
451.2034390938641
 20
365.5321839080457
 30
0.0
 11
449.9332685016469
 21
363.3321839080456
 31
0.0
  0
LINE
  5
1F6
330
1F
100
AcDbEntity
  8
GR1_01
  6
Continuous
 62
     6
370
    25
100
AcDbLine
 10
449.9332685016469
 20
363.3321839080456
 30
0.0
 11
451.2034390938641
 21
361.1321839080457
 31
0.0
  0
LINE
  5
1F7
330
1F
100
AcDbEntity
  8
GR1_01
  6
Continuous
 62
     6
370
    25
100
AcDbLine
 10
451.2034390938641
 20
361.1321839080457
 30
0.0
 11
452.4736096860813
 21
363.3321839080456
 31
0.0
  0
LINE
  5
1F8
330
1F
100
AcDbEntity
  8
GR1_01
  6
Continuous
 62
     6
370
    25
100
AcDbLine
 10
452.4736096860813
 20
363.3321839080456
 30
0.0
 11
451.2034390938641
 21
365.5321839080457
 31
0.0
  0
LINE
  5
1F9
330
1F
100
AcDbEntity
  8
GR1_01
  6
Continuous
 62
     6
370
    25
100
AcDbLine
 10
451.7807893630537
 20
366.5321839080456
 30
0.0
 11
453.0509599552709
 21
368.7321839080457
 31
0.0
  0
LINE
  5
1FA
330
1F
100
AcDbEntity
  8
GR1_01
  6
Continuous
 62
     6
370
    25
100
AcDbLine
 10
453.0509599552709
 20
368.7321839080457
 30
0.0
 11
454.3211305474881
 21
366.5321839080456
 31
0.0
  0
LINE
  5
1FB
330
1F
100
AcDbEntity
  8
GR1_01
  6
Continuous
 62
     6
370
    25
100
AcDbLine
 10
454.3211305474881
 20
366.5321839080456
 30
0.0
 11
453.0509599552709
 21
364.3321839080456
 31
0.0
  0
LINE
  5
1FC
330
1F
100
AcDbEntity
  8
GR1_01
  6
Continuous
 62
     6
370
    25
100
AcDbLine
 10
453.0509599552709
 20
364.3321839080456
 30
0.0
 11
451.7807893630537
 21
366.5321839080456
 31
0.0
  0
LINE
  5
1FD
330
1F
100
AcDbEntity
  8
GR1_01
  6
Continuous
 62
     6
370
    25
100
AcDbLine
 10
454.8984808166777
 20
367.5321839080456
 30
0.0
 11
453.6283102244605
 21
369.7321839080457
 31
0.0
  0
LINE
  5
1FE
330
1F
100
AcDbEntity
  8
GR1_01
  6
Continuous
 62
     6
370
    25
100
AcDbLine
 10
453.6283102244604
 20
369.7321839080456
 30
0.0
 11
454.5105620637213
 21
371.2602889187165
 31
0.0
  0
LINE
  5
1FF
330
1F
100
AcDbEntity
  8
GR1_01
  6
Continuous
 62
     6
370
    25
100
AcDbLine
 10
455.3511858067511
 20
368.3162919516928
 30
0.0
 11
454.8984808166777
 21
367.5321839080456
 31
0.0
  0
LINE
  5
200
330
1F
100
AcDbEntity
  8
GR1_01
  6
Continuous
 62
     6
370
    25
100
AcDbLine
 10
455.6059688138765
 20
366.7575890649392
 30
0.0
 11
455.4758310858673
 21
366.5321839080456
 31
0.0
  0
LINE
  5
201
330
1F
100
AcDbEntity
  8
GR1_01
  6
Continuous
 62
     6
370
    25
100
AcDbLine
 10
455.4758310858673
 20
366.5321839080456
 30
0.0
 11
455.6665318667768
 21
366.2018804664672
 31
0.0
  0
LINE
  5
202
330
1F
100
AcDbEntity
  8
GR1_01
  6
Continuous
 62
     6
370
    25
100
AcDbLine
 10
453.0509599552709
 20
362.3321839080456
 30
0.0
 11
454.3211305474881
 21
360.1321839080457
 31
0.0
  0
LINE
  5
203
330
1F
100
AcDbEntity
  8
GR1_01
  6
Continuous
 62
     6
370
    25
100
AcDbLine
 10
454.3211305474881
 20
360.1321839080457
 30
0.0
 11
453.0509599552709
 21
357.9321839080457
 31
0.0
  0
LINE
  5
204
330
1F
100
AcDbEntity
  8
GR1_01
  6
Continuous
 62
     6
370
    25
100
AcDbLine
 10
453.0509599552709
 20
357.9321839080457
 30
0.0
 11
451.7807893630537
 21
360.1321839080457
 31
0.0
  0
LINE
  5
205
330
1F
100
AcDbEntity
  8
GR1_01
  6
Continuous
 62
     6
370
    25
100
AcDbLine
 10
451.7807893630537
 20
360.1321839080457
 30
0.0
 11
453.0509599552709
 21
362.3321839080456
 31
0.0
  0
LINE
  5
206
330
1F
100
AcDbEntity
  8
GR1_01
  6
Continuous
 62
     6
370
    25
100
AcDbLine
 10
455.7559182324572
 20
360.6173090764864
 30
0.0
 11
455.4758310858673
 21
360.1321839080457
 31
0.0
  0
LINE
  5
207
330
1F
100
AcDbEntity
  8
GR1_01
  6
Continuous
 62
     6
370
    25
100
AcDbLine
 10
455.4758310858673
 20
360.1321839080457
 30
0.0
 11
455.7559182324572
 21
359.6470587396049
 31
0.0
  0
LINE
  5
208
330
1F
100
AcDbEntity
  8
GR1_01
  6
Continuous
 62
     6
370
    25
100
AcDbLine
 10
454.8984808166776
 20
359.1321839080457
 30
0.0
 11
453.6283102244605
 21
356.9321839080457
 31
0.0
  0
LINE
  5
209
330
1F
100
AcDbEntity
  8
GR1_01
  6
Continuous
 62
     6
370
    25
100
AcDbLine
 10
453.6283102244605
 20
356.9321839080457
 30
0.0
 11
454.8984808166776
 21
354.7321839080457
 31
0.0
  0
LINE
  5
20A
330
1F
100
AcDbEntity
  8
GR1_01
  6
Continuous
 62
     6
370
    25
100
AcDbLine
 10
454.8984808166776
 20
354.7321839080457
 30
0.0
 11
455.7559182324572
 21
356.2173090764865
 31
0.0
  0
LINE
  5
20B
330
1F
100
AcDbEntity
  8
GR1_01
  6
Continuous
 62
     6
370
    25
100
AcDbLine
 10
455.7559182324572
 20
357.6470587396049
 30
0.0
 11
454.8984808166776
 21
359.1321839080457
 31
0.0
  0
LINE
  5
20C
330
1F
100
AcDbEntity
  8
GR1_01
  6
Continuous
 62
     6
370
    25
100
AcDbLine
 10
452.4736096860812
 20
356.9321839080457
 30
0.0
 11
451.2034390938641
 21
359.1321839080457
 31
0.0
  0
LINE
  5
20D
330
1F
100
AcDbEntity
  8
GR1_01
  6
Continuous
 62
     6
370
    25
100
AcDbLine
 10
451.2034390938641
 20
359.1321839080457
 30
0.0
 11
449.9332685016469
 21
356.9321839080457
 31
0.0
  0
LINE
  5
20E
330
1F
100
AcDbEntity
  8
GR1_01
  6
Continuous
 62
     6
370
    25
100
AcDbLine
 10
449.9332685016469
 20
356.9321839080457
 30
0.0
 11
451.2034390938641
 21
354.7321839080457
 31
0.0
  0
LINE
  5
20F
330
1F
100
AcDbEntity
  8
GR1_01
  6
Continuous
 62
     6
370
    25
100
AcDbLine
 10
451.2034390938641
 20
354.7321839080457
 30
0.0
 11
452.4736096860812
 21
356.9321839080457
 31
0.0
  0
LINE
  5
210
330
1F
100
AcDbEntity
  8
GR1_01
  6
Continuous
 62
     6
370
    25
100
AcDbLine
 10
453.0509599552709
 20
355.9321839080457
 30
0.0
 11
451.7807893630537
 21
353.7321839080457
 31
0.0
  0
LINE
  5
211
330
1F
100
AcDbEntity
  8
GR1_01
  6
Continuous
 62
     6
370
    25
100
AcDbLine
 10
451.7807893630537
 20
353.7321839080457
 30
0.0
 11
453.0509599552709
 21
351.5321839080457
 31
0.0
  0
LINE
  5
212
330
1F
100
AcDbEntity
  8
GR1_01
  6
Continuous
 62
     6
370
    25
100
AcDbLine
 10
453.0509599552709
 20
351.5321839080457
 30
0.0
 11
454.3211305474881
 21
353.7321839080457
 31
0.0
  0
LINE
  5
213
330
1F
100
AcDbEntity
  8
GR1_01
  6
Continuous
 62
     6
370
    25
100
AcDbLine
 10
454.3211305474881
 20
353.7321839080457
 30
0.0
 11
453.0509599552709
 21
355.9321839080457
 31
0.0
  0
LINE
  5
214
330
1F
100
AcDbEntity
  8
GR1_01
  6
Continuous
 62
     6
370
    25
100
AcDbLine
 10
455.7559182324572
 20
354.2173090764865
 30
0.0
 11
455.4758310858673
 21
353.7321839080457
 31
0.0
  0
LINE
  5
215
330
1F
100
AcDbEntity
  8
GR1_01
  6
Continuous
 62
     6
370
    25
100
AcDbLine
 10
455.4758310858673
 20
353.7321839080457
 30
0.0
 11
455.7559182324572
 21
353.2470587396049
 31
0.0
  0
LINE
  5
216
330
1F
100
AcDbEntity
  8
GR1_01
  6
Continuous
 62
     6
370
    25
100
AcDbLine
 10
454.8984808166776
 20
352.7321839080457
 30
0.0
 11
453.6283102244605
 21
350.5321839080457
 31
0.0
  0
LINE
  5
217
330
1F
100
AcDbEntity
  8
GR1_01
  6
Continuous
 62
     6
370
    25
100
AcDbLine
 10
453.6283102244605
 20
350.5321839080457
 30
0.0
 11
454.8984808166776
 21
348.3321839080457
 31
0.0
  0
LINE
  5
218
330
1F
100
AcDbEntity
  8
GR1_01
  6
Continuous
 62
     6
370
    25
100
AcDbLine
 10
454.8984808166776
 20
348.3321839080457
 30
0.0
 11
455.7559182324572
 21
349.8173090764865
 31
0.0
  0
LINE
  5
219
330
1F
100
AcDbEntity
  8
GR1_01
  6
Continuous
 62
     6
370
    25
100
AcDbLine
 10
455.7559182324572
 20
351.2470587396049
 30
0.0
 11
454.8984808166776
 21
352.7321839080457
 31
0.0
  0
LINE
  5
21A
330
1F
100
AcDbEntity
  8
GR1_01
  6
Continuous
 62
     6
370
    25
100
AcDbLine
 10
452.4736096860812
 20
350.5321839080457
 30
0.0
 11
451.2034390938641
 21
352.7321839080457
 31
0.0
  0
LINE
  5
21B
330
1F
100
AcDbEntity
  8
GR1_01
  6
Continuous
 62
     6
370
    25
100
AcDbLine
 10
451.2034390938641
 20
352.7321839080457
 30
0.0
 11
449.9332685016469
 21
350.5321839080457
 31
0.0
  0
LINE
  5
21C
330
1F
100
AcDbEntity
  8
GR1_01
  6
Continuous
 62
     6
370
    25
100
AcDbLine
 10
449.9332685016469
 20
350.5321839080457
 30
0.0
 11
451.2034390938641
 21
348.3321839080457
 31
0.0
  0
LINE
  5
21D
330
1F
100
AcDbEntity
  8
GR1_01
  6
Continuous
 62
     6
370
    25
100
AcDbLine
 10
451.2034390938641
 20
348.3321839080457
 30
0.0
 11
452.4736096860812
 21
350.5321839080457
 31
0.0
  0
LINE
  5
21E
330
1F
100
AcDbEntity
  8
GR1_01
  6
Continuous
 62
     6
370
    25
100
AcDbLine
 10
453.0509599552709
 20
349.5321839080457
 30
0.0
 11
451.7807893630537
 21
347.3321839080457
 31
0.0
  0
LINE
  5
21F
330
1F
100
AcDbEntity
  8
GR1_01
  6
Continuous
 62
     6
370
    25
100
AcDbLine
 10
451.7807893630537
 20
347.3321839080457
 30
0.0
 11
453.0509599552709
 21
345.1321839080457
 31
0.0
  0
LINE
  5
220
330
1F
100
AcDbEntity
  8
GR1_01
  6
Continuous
 62
     6
370
    25
100
AcDbLine
 10
453.0509599552709
 20
345.1321839080457
 30
0.0
 11
454.3211305474881
 21
347.3321839080457
 31
0.0
  0
LINE
  5
221
330
1F
100
AcDbEntity
  8
GR1_01
  6
Continuous
 62
     6
370
    25
100
AcDbLine
 10
454.3211305474881
 20
347.3321839080457
 30
0.0
 11
453.0509599552709
 21
349.5321839080457
 31
0.0
  0
LINE
  5
222
330
1F
100
AcDbEntity
  8
GR1_01
  6
Continuous
 62
     6
370
    25
100
AcDbLine
 10
450.6260888246744
 20
347.3321839080457
 30
0.0
 11
449.3559182324573
 21
349.5321839080457
 31
0.0
  0
LINE
  5
223
330
1F
100
AcDbEntity
  8
GR1_01
  6
Continuous
 62
     6
370
    25
100
AcDbLine
 10
449.3559182324573
 20
349.5321839080457
 30
0.0
 11
448.0857476402401
 21
347.3321839080457
 31
0.0
  0
LINE
  5
224
330
1F
100
AcDbEntity
  8
GR1_01
  6
Continuous
 62
     6
370
    25
100
AcDbLine
 10
448.0857476402401
 20
347.3321839080457
 30
0.0
 11
449.3559182324573
 21
345.1321839080457
 31
0.0
  0
LINE
  5
225
330
1F
100
AcDbEntity
  8
GR1_01
  6
Continuous
 62
     6
370
    25
100
AcDbLine
 10
449.3559182324573
 20
345.1321839080457
 30
0.0
 11
450.6260888246744
 21
347.3321839080457
 31
0.0
  0
LINE
  5
226
330
1F
100
AcDbEntity
  8
GR1_01
  6
Continuous
 62
     6
370
    25
100
AcDbLine
 10
451.2034390938641
 20
346.3321839080457
 30
0.0
 11
449.9332685016469
 21
344.1321839080457
 31
0.0
  0
LINE
  5
227
330
1F
100
AcDbEntity
  8
GR1_01
  6
Continuous
 62
     6
370
    25
100
AcDbLine
 10
449.9332685016469
 20
344.1321839080457
 30
0.0
 11
450.4556581843948
 21
343.2273784361765
 31
0.0
  0
LINE
  5
228
330
1F
100
AcDbEntity
  8
GR1_01
  6
Continuous
 62
     6
370
    25
100
AcDbLine
 10
448.7785679632677
 20
344.1321839080457
 30
0.0
 11
447.5083973710505
 21
346.3321839080457
 31
0.0
  0
LINE
  5
229
330
1F
100
AcDbEntity
  8
GR1_01
  6
Continuous
 62
     6
370
    25
100
AcDbLine
 10
447.5083973710505
 20
346.3321839080457
 30
0.0
 11
446.2382267788333
 21
344.1321839080457
 31
0.0
  0
LINE
  5
22A
330
1F
100
AcDbEntity
  8
GR1_01
  6
Continuous
 62
     6
370
    25
100
AcDbLine
 10
445.6608765096437
 20
345.1321839080457
 30
0.0
 11
446.9310471018608
 21
347.3321839080457
 31
0.0
  0
LINE
  5
22B
330
1F
100
AcDbEntity
  8
GR1_01
  6
Continuous
 62
     6
370
    25
100
AcDbLine
 10
446.9310471018608
 20
347.3321839080457
 30
0.0
 11
445.6608765096437
 21
349.5321839080457
 31
0.0
  0
LINE
  5
22C
330
1F
100
AcDbEntity
  8
GR1_01
  6
Continuous
 62
     6
370
    25
100
AcDbLine
 10
445.6608765096437
 20
349.5321839080457
 30
0.0
 11
444.3907059174265
 21
347.3321839080457
 31
0.0
  0
LINE
  5
22D
330
1F
100
AcDbEntity
  8
GR1_01
  6
Continuous
 62
     6
370
    25
100
AcDbLine
 10
444.3907059174265
 20
347.3321839080457
 30
0.0
 11
445.6608765096437
 21
345.1321839080457
 31
0.0
  0
LINE
  5
22E
330
1F
100
AcDbEntity
  8
GR1_01
  6
Continuous
 62
     6
370
    25
100
AcDbLine
 10
448.2561782805197
 20
343.2273784361765
 30
0.0
 11
448.7785679632677
 21
344.1321839080457
 31
0.0
  0
LINE
  5
22F
330
1F
100
AcDbEntity
  8
GR1_01
  6
Continuous
 62
     6
370
    25
100
AcDbLine
 10
451.2034390938641
 20
346.3321839080457
 30
0.0
 11
452.4736096860812
 21
344.1321839080457
 31
0.0
  0
LINE
  5
230
330
1F
100
AcDbEntity
  8
GR1_01
  6
Continuous
 62
     6
370
    25
100
AcDbLine
 10
447.5083973710505
 20
348.3321839080457
 30
0.0
 11
448.7785679632677
 21
350.5321839080457
 31
0.0
  0
LINE
  5
231
330
1F
100
AcDbEntity
  8
GR1_01
  6
Continuous
 62
     6
370
    25
100
AcDbLine
 10
448.7785679632677
 20
350.5321839080457
 30
0.0
 11
447.5083973710505
 21
352.7321839080457
 31
0.0
  0
LINE
  5
232
330
1F
100
AcDbEntity
  8
GR1_01
  6
Continuous
 62
     6
370
    25
100
AcDbLine
 10
447.5083973710505
 20
352.7321839080457
 30
0.0
 11
446.2382267788333
 21
350.5321839080457
 31
0.0
  0
LINE
  5
233
330
1F
100
AcDbEntity
  8
GR1_01
  6
Continuous
 62
     6
370
    25
100
AcDbLine
 10
446.2382267788333
 20
350.5321839080457
 30
0.0
 11
447.5083973710505
 21
348.3321839080457
 31
0.0
  0
LINE
  5
234
330
1F
100
AcDbEntity
  8
GR1_01
  6
Continuous
 62
     6
370
    25
100
AcDbLine
 10
445.083526240454
 20
350.5321839080457
 30
0.0
 11
443.8133556482369
 21
348.3321839080457
 31
0.0
  0
LINE
  5
235
330
1F
100
AcDbEntity
  8
GR1_01
  6
Continuous
 62
     6
370
    25
100
AcDbLine
 10
443.8133556482369
 20
348.3321839080457
 30
0.0
 11
442.9559182324573
 21
349.8173090764865
 31
0.0
  0
LINE
  5
236
330
1F
100
AcDbEntity
  8
GR1_01
  6
Continuous
 62
     6
370
    25
100
AcDbLine
 10
442.9559182324573
 20
351.2470587396049
 30
0.0
 11
443.8133556482369
 21
352.7321839080457
 31
0.0
  0
LINE
  5
237
330
1F
100
AcDbEntity
  8
GR1_01
  6
Continuous
 62
     6
370
    25
100
AcDbLine
 10
443.8133556482369
 20
352.7321839080457
 30
0.0
 11
445.083526240454
 21
350.5321839080457
 31
0.0
  0
LINE
  5
238
330
1F
100
AcDbEntity
  8
GR1_01
  6
Continuous
 62
     6
370
    25
100
AcDbLine
 10
445.6608765096437
 20
351.5321839080457
 30
0.0
 11
446.9310471018608
 21
353.7321839080457
 31
0.0
  0
LINE
  5
239
330
1F
100
AcDbEntity
  8
GR1_01
  6
Continuous
 62
     6
370
    25
100
AcDbLine
 10
446.9310471018608
 20
353.7321839080457
 30
0.0
 11
445.6608765096437
 21
355.9321839080457
 31
0.0
  0
LINE
  5
23A
330
1F
100
AcDbEntity
  8
GR1_01
  6
Continuous
 62
     6
370
    25
100
AcDbLine
 10
445.6608765096437
 20
355.9321839080457
 30
0.0
 11
444.3907059174265
 21
353.7321839080457
 31
0.0
  0
LINE
  5
23B
330
1F
100
AcDbEntity
  8
GR1_01
  6
Continuous
 62
     6
370
    25
100
AcDbLine
 10
444.3907059174265
 20
353.7321839080457
 30
0.0
 11
445.6608765096437
 21
351.5321839080457
 31
0.0
  0
LINE
  5
23C
330
1F
100
AcDbEntity
  8
GR1_01
  6
Continuous
 62
     6
370
    25
100
AcDbLine
 10
442.9559182324573
 20
353.2470587396049
 30
0.0
 11
443.2360053790472
 21
353.7321839080457
 31
0.0
  0
LINE
  5
23D
330
1F
100
AcDbEntity
  8
GR1_01
  6
Continuous
 62
     6
370
    25
100
AcDbLine
 10
443.2360053790472
 20
353.7321839080457
 30
0.0
 11
442.9559182324573
 21
354.2173090764865
 31
0.0
  0
LINE
  5
23E
330
1F
100
AcDbEntity
  8
GR1_01
  6
Continuous
 62
     6
370
    25
100
AcDbLine
 10
443.8133556482369
 20
354.7321839080457
 30
0.0
 11
445.083526240454
 21
356.9321839080457
 31
0.0
  0
LINE
  5
23F
330
1F
100
AcDbEntity
  8
GR1_01
  6
Continuous
 62
     6
370
    25
100
AcDbLine
 10
445.083526240454
 20
356.9321839080457
 30
0.0
 11
443.8133556482369
 21
359.1321839080457
 31
0.0
  0
LINE
  5
240
330
1F
100
AcDbEntity
  8
GR1_01
  6
Continuous
 62
     6
370
    25
100
AcDbLine
 10
443.8133556482369
 20
359.1321839080457
 30
0.0
 11
442.9559182324573
 21
357.6470587396049
 31
0.0
  0
LINE
  5
241
330
1F
100
AcDbEntity
  8
GR1_01
  6
Continuous
 62
     6
370
    25
100
AcDbLine
 10
442.9559182324573
 20
356.2173090764865
 30
0.0
 11
443.8133556482369
 21
354.7321839080457
 31
0.0
  0
LINE
  5
242
330
1F
100
AcDbEntity
  8
GR1_01
  6
Continuous
 62
     6
370
    25
100
AcDbLine
 10
446.2382267788333
 20
356.9321839080457
 30
0.0
 11
447.5083973710505
 21
359.1321839080457
 31
0.0
  0
LINE
  5
243
330
1F
100
AcDbEntity
  8
GR1_01
  6
Continuous
 62
     6
370
    25
100
AcDbLine
 10
447.5083973710505
 20
359.1321839080457
 30
0.0
 11
448.7785679632676
 21
356.9321839080457
 31
0.0
  0
LINE
  5
244
330
1F
100
AcDbEntity
  8
GR1_01
  6
Continuous
 62
     6
370
    25
100
AcDbLine
 10
448.7785679632676
 20
356.9321839080457
 30
0.0
 11
447.5083973710505
 21
354.7321839080457
 31
0.0
  0
LINE
  5
245
330
1F
100
AcDbEntity
  8
GR1_01
  6
Continuous
 62
     6
370
    25
100
AcDbLine
 10
447.5083973710505
 20
354.7321839080457
 30
0.0
 11
446.2382267788333
 21
356.9321839080457
 31
0.0
  0
LINE
  5
246
330
1F
100
AcDbEntity
  8
GR1_01
  6
Continuous
 62
     6
370
    25
100
AcDbLine
 10
445.6608765096437
 20
357.9321839080457
 30
0.0
 11
444.3907059174264
 21
360.1321839080457
 31
0.0
  0
LINE
  5
247
330
1F
100
AcDbEntity
  8
GR1_01
  6
Continuous
 62
     6
370
    25
100
AcDbLine
 10
444.3907059174264
 20
360.1321839080457
 30
0.0
 11
445.6608765096437
 21
362.3321839080456
 31
0.0
  0
LINE
  5
248
330
1F
100
AcDbEntity
  8
GR1_01
  6
Continuous
 62
     6
370
    25
100
AcDbLine
 10
445.6608765096437
 20
362.3321839080456
 30
0.0
 11
446.9310471018608
 21
360.1321839080457
 31
0.0
  0
LINE
  5
249
330
1F
100
AcDbEntity
  8
GR1_01
  6
Continuous
 62
     6
370
    25
100
AcDbLine
 10
446.9310471018608
 20
360.1321839080457
 30
0.0
 11
445.6608765096437
 21
357.9321839080457
 31
0.0
  0
LINE
  5
24A
330
1F
100
AcDbEntity
  8
GR1_01
  6
Continuous
 62
     6
370
    25
100
AcDbLine
 10
442.9559182324573
 20
359.6470587396049
 30
0.0
 11
443.2360053790472
 21
360.1321839080457
 31
0.0
  0
LINE
  5
24B
330
1F
100
AcDbEntity
  8
GR1_01
  6
Continuous
 62
     6
370
    25
100
AcDbLine
 10
443.2360053790472
 20
360.1321839080457
 30
0.0
 11
442.9559182324573
 21
360.6173090764864
 31
0.0
  0
LINE
  5
24C
330
1F
100
AcDbEntity
  8
GR1_01
  6
Continuous
 62
     6
370
    25
100
AcDbLine
 10
448.0857476402401
 20
360.1321839080457
 30
0.0
 11
449.3559182324573
 21
362.3321839080456
 31
0.0
  0
LINE
  5
24D
330
1F
100
AcDbEntity
  8
GR1_01
  6
Continuous
 62
     6
370
    25
100
AcDbLine
 10
449.3559182324573
 20
362.3321839080456
 30
0.0
 11
450.6260888246744
 21
360.1321839080457
 31
0.0
  0
LINE
  5
24E
330
1F
100
AcDbEntity
  8
GR1_01
  6
Continuous
 62
     6
370
    25
100
AcDbLine
 10
450.6260888246744
 20
360.1321839080457
 30
0.0
 11
449.3559182324573
 21
357.9321839080457
 31
0.0
  0
LINE
  5
24F
330
1F
100
AcDbEntity
  8
GR1_01
  6
Continuous
 62
     6
370
    25
100
AcDbLine
 10
449.3559182324573
 20
357.9321839080457
 30
0.0
 11
448.0857476402401
 21
360.1321839080457
 31
0.0
  0
LINE
  5
250
330
1F
100
AcDbEntity
  8
GR1_01
  6
Continuous
 62
     6
370
    25
100
AcDbLine
 10
449.3559182324573
 20
355.9321839080457
 30
0.0
 11
450.6260888246744
 21
353.7321839080457
 31
0.0
  0
LINE
  5
251
330
1F
100
AcDbEntity
  8
GR1_01
  6
Continuous
 62
     6
370
    25
100
AcDbLine
 10
450.6260888246744
 20
353.7321839080457
 30
0.0
 11
449.3559182324573
 21
351.5321839080457
 31
0.0
  0
LINE
  5
252
330
1F
100
AcDbEntity
  8
GR1_01
  6
Continuous
 62
     6
370
    25
100
AcDbLine
 10
449.3559182324573
 20
351.5321839080457
 30
0.0
 11
448.0857476402401
 21
353.7321839080457
 31
0.0
  0
LINE
  5
253
330
1F
100
AcDbEntity
  8
GR1_01
  6
Continuous
 62
     6
370
    25
100
AcDbLine
 10
448.0857476402401
 20
353.7321839080457
 30
0.0
 11
449.3559182324573
 21
355.9321839080457
 31
0.0
  0
LINE
  5
254
330
1F
100
AcDbEntity
  8
GR1_01
  6
DASHDOT
 62
     6
370
    25
100
AcDbLine
 10
460.1639417616473
 20
385.0662120636814
 30
0.0
 11
520.8177043290166
 21
386.1249274274353
 31
0.0
  0
ARC
  5
255
330
1F
100
AcDbEntity
  8
GR1_01
  6
DASHDOT
 62
     6
370
    25
100
AcDbCircle
 10
520.5559182324573
 20
401.1226428547812
 30
0.0
 40
15.0
100
AcDbArc
 50
270.9999999999998
 51
288.3112276206166
  0
LINE
  5
256
330
1F
100
AcDbEntity
  8
GR1_01
  6
DASHDOT
 62
     6
370
    25
100
AcDbLine
 10
534.5559182324571
 20
383.4363634746093
 30
0.0
 11
534.5559182324571
 21
512.1670136294081
 31
0.0
  0
CIRCLE
  5
257
330
1F
100
AcDbEntity
  8
GR1_01
  6
Continuous
 62
     6
370
    25
100
AcDbCircle
 10
534.5559182324571
 20
446.8821839080458
 30
0.0
 40
29.5
  0
CIRCLE
  5
258
330
1F
100
AcDbEntity
  8
GR1_01
  6
Continuous
 62
     6
370
    25
100
AcDbCircle
 10
534.5559182324571
 20
446.8821839080458
 30
0.0
 40
30.75
  0
CIRCLE
  5
259
330
1F
100
AcDbEntity
  8
GR1_01
  6
Continuous
 62
     6
370
    25
100
AcDbCircle
 10
534.5559182324571
 20
446.8821839080458
 30
0.0
 40
44.0
  0
LINE
  5
25A
330
1F
100
AcDbEntity
  8
GR1_01
  6
DASHDOT
 62
     6
370
    25
100
AcDbLine
 10
599.1441535265748
 20
446.8821839080458
 30
0.0
 11
409.3941703004344
 21
446.8821839080458
 31
0.0
  0
ARC
  5
25B
330
1F
100
AcDbEntity
  8
GR1_01
  6
Continuous
 62
     3
370
    50
100
AcDbCircle
 10
534.5559182324571
 20
265.7557950191568
 30
0.0
 40
4.7625
100
AcDbArc
 50
42.82723713232252
 51
137.1727628676777
  0
ARC
  5
25C
330
1F
100
AcDbEntity
  8
GR1_01
  6
Continuous
 62
     3
370
    50
100
AcDbCircle
 10
543.9957821262004
 20
265.7557950191568
 30
0.0
 40
4.7625
100
AcDbArc
 50
42.82723713232252
 51
137.1727628676775
  0
ARC
  5
25D
330
1F
100
AcDbEntity
  8
GR1_01
  6
Continuous
 62
     3
370
    50
100
AcDbCircle
 10
552.7636614993318
 20
265.7557950191568
 30
0.0
 40
4.7625
100
AcDbArc
 50
42.82723713232252
 51
137.1727628676775
  0
ARC
  5
25E
330
1F
100
AcDbEntity
  8
GR1_01
  6
Continuous
 62
     3
370
    50
100
AcDbCircle
 10
560.2354076052529
 20
265.7557950191568
 30
0.0
 40
4.7625
100
AcDbArc
 50
42.82723713232252
 51
137.1727628676775
  0
ARC
  5
25F
330
1F
100
AcDbEntity
  8
GR1_01
  6
Continuous
 62
     3
370
    50
100
AcDbCircle
 10
565.8791380162468
 20
265.7557950191568
 30
0.0
 40
4.7625
100
AcDbArc
 50
42.82723713232252
 51
126.33587103985
  0
ARC
  5
260
330
1F
100
AcDbEntity
  8
GR1_01
  6
Continuous
 62
     3
370
    50
100
AcDbCircle
 10
569.2930991141063
 20
265.7557950191568
 30
0.0
 40
4.7625
100
AcDbArc
 50
42.82723713232252
 51
111.0032627655209
  0
ARC
  5
261
330
1F
100
AcDbEntity
  8
GR1_01
  6
Continuous
 62
     3
370
    50
100
AcDbCircle
 10
570.2342652538057
 20
265.7557950191568
 30
0.0
 40
4.7625
100
AcDbArc
 50
42.82723713232252
 51
95.67065449119342
  0
ARC
  5
262
330
1F
100
AcDbEntity
  8
GR1_01
  6
Continuous
 62
     3
370
    50
100
AcDbCircle
 10
525.116054338714
 20
265.7557950191568
 30
0.0
 40
4.7625
100
AcDbArc
 50
42.8272371323223
 51
137.1727628676777
  0
ARC
  5
263
330
1F
100
AcDbEntity
  8
GR1_01
  6
Continuous
 62
     3
370
    50
100
AcDbCircle
 10
516.3481749655826
 20
265.7557950191568
 30
0.0
 40
4.7625
100
AcDbArc
 50
42.8272371323223
 51
137.1727628676777
  0
ARC
  5
264
330
1F
100
AcDbEntity
  8
GR1_01
  6
Continuous
 62
     3
370
    50
100
AcDbCircle
 10
508.8764288596615
 20
265.7557950191568
 30
0.0
 40
4.7625
100
AcDbArc
 50
42.8272371323223
 51
137.1727628676777
  0
ARC
  5
265
330
1F
100
AcDbEntity
  8
GR1_01
  6
Continuous
 62
     3
370
    50
100
AcDbCircle
 10
503.2326984486676
 20
265.7557950191568
 30
0.0
 40
4.7625
100
AcDbArc
 50
53.66412896014997
 51
137.1727628676777
  0
ARC
  5
266
330
1F
100
AcDbEntity
  8
GR1_01
  6
Continuous
 62
     3
370
    50
100
AcDbCircle
 10
499.8187373508081
 20
265.7557950191568
 30
0.0
 40
4.7625
100
AcDbArc
 50
68.9967372344791
 51
137.1727628676777
  0
ARC
  5
267
330
1F
100
AcDbEntity
  8
GR1_01
  6
Continuous
 62
     3
370
    50
100
AcDbCircle
 10
498.8775712111088
 20
265.7557950191568
 30
0.0
 40
4.7625
100
AcDbArc
 50
84.32934550880654
 51
137.1727628676777
  0
ARC
  5
268
330
1F
100
AcDbEntity
  8
GR1_01
  6
Continuous
 62
     3
370
    50
100
AcDbCircle
 10
241.8684813509997
 20
265.7557950191569
 30
0.0
 40
4.7625
100
AcDbArc
 50
42.82723713232252
 51
137.1727628676777
  0
ARC
  5
269
330
1F
100
AcDbEntity
  8
GR1_01
  6
Continuous
 62
     3
370
    50
100
AcDbCircle
 10
232.4286174572566
 20
265.7557950191569
 30
0.0
 40
4.7625
100
AcDbArc
 50
42.8272371323223
 51
137.1727628676777
  0
ARC
  5
26A
330
1F
100
AcDbEntity
  8
GR1_01
  6
Continuous
 62
     3
370
    50
100
AcDbCircle
 10
223.6607380841252
 20
265.7557950191569
 30
0.0
 40
4.7625
100
AcDbArc
 50
42.8272371323223
 51
137.1727628676777
  0
ARC
  5
26B
330
1F
100
AcDbEntity
  8
GR1_01
  6
Continuous
 62
     3
370
    50
100
AcDbCircle
 10
216.1889919782041
 20
265.7557950191569
 30
0.0
 40
4.7625
100
AcDbArc
 50
42.8272371323223
 51
137.1727628676777
  0
ARC
  5
26C
330
1F
100
AcDbEntity
  8
GR1_01
  6
Continuous
 62
     3
370
    50
100
AcDbCircle
 10
210.5452615672101
 20
265.7557950191569
 30
0.0
 40
4.7625
100
AcDbArc
 50
53.66412896014997
 51
137.1727628676777
  0
ARC
  5
26D
330
1F
100
AcDbEntity
  8
GR1_01
  6
Continuous
 62
     3
370
    50
100
AcDbCircle
 10
207.1313004693507
 20
265.7557950191569
 30
0.0
 40
4.7625
100
AcDbArc
 50
68.9967372344791
 51
137.1727628676777
  0
ARC
  5
26E
330
1F
100
AcDbEntity
  8
GR1_01
  6
Continuous
 62
     3
370
    50
100
AcDbCircle
 10
206.1901343296513
 20
265.7557950191569
 30
0.0
 40
4.7625
100
AcDbArc
 50
84.32934550880654
 51
137.1727628676777
  0
LINE
  5
270
330
1F
100
AcDbEntity
  8
基準ﾚｲﾔｸﾞﾙｰﾌﾟ_01
  6
Continuous
 62
     6
370
    25
100
AcDbLine
 10
213.6184813509998
 20
239.4767950191573
 30
0.0
 11
216.3684813509999
 21
239.4767950191573
 31
0.0
  0
LINE
  5
271
330
1F
100
AcDbEntity
  8
基準ﾚｲﾔｸﾞﾙｰﾌﾟ_01
  6
Continuous
 62
     6
370
    25
100
AcDbLine
 10
213.6184813509998
 20
234.5597950191573
 30
0.0
 11
216.3684813509999
 21
234.5597950191573
 31
0.0
  0
LINE
  5
272
330
1F
100
AcDbEntity
  8
基準ﾚｲﾔｸﾞﾙｰﾌﾟ_01
  6
Continuous
 62
     3
370
    50
100
AcDbLine
 10
277.3184813509999
 20
232.6881680002351
 30
0.0
 11
277.3184813509999
 21
241.3484220380794
 31
0.0
  0
LINE
  5
273
330
1F
100
AcDbEntity
  8
GR1_01
  6
Continuous
 62
     3
370
    50
100
AcDbLine
 10
273.3184813509998
 20
132.9932950191569
 30
0.0
 11
273.3184813509998
 21
245.3364407696646
 31
0.0
  0
LINE
  5
274
330
1F
100
AcDbEntity
  8
GR1_01
  6
Continuous
 62
     3
370
    50
100
AcDbLine
 10
280.8684813509998
 20
250.793295019157
 30
0.0
 11
280.8584298993925
 21
179.8431023846217
 31
0.0
  0
ARC
  5
275
330
1F
100
AcDbEntity
  8
GR1_01
  6
Continuous
 62
     3
370
    50
100
AcDbCircle
 10
265.3184813509998
 20
244.4105844220156
 30
0.0
 40
8.0
100
AcDbArc
 50
0.0
 51
71.41265297908153
  0
ARC
  5
276
330
1F
100
AcDbEntity
  8
GR1_01
  6
Continuous
 62
     3
370
    50
100
AcDbCircle
 10
273.8684813509998
 20
250.793295019157
 30
0.0
 40
7.0
100
AcDbArc
 50
0.0
 51
90.0
  0
ARC
  5
277
330
1F
100
AcDbEntity
  8
GR1_01
  6
Continuous
 62
     3
370
    50
100
AcDbCircle
 10
280.617572339461
 20
262.9932950191569
 30
0.0
 40
5.2
100
AcDbArc
 50
270.0
 51
357.188626405473
  0
LINE
  5
278
330
1F
100
AcDbEntity
  8
GR1_01
  6
Continuous
 62
     3
370
    50
100
AcDbLine
 10
285.8113137268791
 20
262.7382452188819
 30
0.0
 11
286.1184813509997
 21
268.9932950191569
 31
0.0
  0
ARC
  5
279
330
1F
100
AcDbEntity
  8
GR1_01
  6
Continuous
 62
     3
370
    50
100
AcDbCircle
 10
283.3300926878394
 20
277.5181897548325
 30
0.0
 40
7.0
100
AcDbArc
 50
270.3142170579307
 51
339.0760900045365
  0
ARC
  5
27A
330
1F
100
AcDbEntity
  8
GR1_01
  6
Continuous
 62
     3
370
    50
100
AcDbCircle
 10
290.8684813509996
 20
275.0182950191568
 30
0.0
 40
1.0
100
AcDbArc
 50
90.0
 51
180.0
  0
LINE
  5
27B
330
1F
100
AcDbEntity
  8
GR1_01
  6
Continuous
 62
     3
370
    50
100
AcDbLine
 10
301.8684813509996
 20
280.0182950191569
 30
0.0
 11
301.8684813509996
 21
276.0182950191569
 31
0.0
  0
ARC
  5
27C
330
1F
100
AcDbEntity
  8
GR1_01
  6
Continuous
 62
     3
370
    50
100
AcDbCircle
 10
251.308345244743
 20
265.7557950191569
 30
0.0
 40
4.7625
100
AcDbArc
 50
42.82723713232252
 51
137.1727628676775
  0
ARC
  5
27D
330
1F
100
AcDbEntity
  8
GR1_01
  6
Continuous
 62
     3
370
    50
100
AcDbCircle
 10
260.0762246178743
 20
265.7557950191569
 30
0.0
 40
4.7625
100
AcDbArc
 50
42.82723713232252
 51
137.1727628676775
  0
ARC
  5
27E
330
1F
100
AcDbEntity
  8
GR1_01
  6
Continuous
 62
     3
370
    50
100
AcDbCircle
 10
267.5479707237954
 20
265.7557950191569
 30
0.0
 40
4.7625
100
AcDbArc
 50
42.82723713232252
 51
137.1727628676775
  0
ARC
  5
27F
330
1F
100
AcDbEntity
  8
GR1_01
  6
Continuous
 62
     3
370
    50
100
AcDbCircle
 10
273.1917011347894
 20
265.7557950191569
 30
0.0
 40
4.7625
100
AcDbArc
 50
42.82723713232252
 51
126.33587103985
  0
ARC
  5
280
330
1F
100
AcDbEntity
  8
GR1_01
  6
Continuous
 62
     3
370
    50
100
AcDbCircle
 10
276.6056622326488
 20
265.7557950191569
 30
0.0
 40
4.7625
100
AcDbArc
 50
42.82723713232252
 51
111.0032627655209
  0
ARC
  5
281
330
1F
100
AcDbEntity
  8
GR1_01
  6
Continuous
 62
     3
370
    50
100
AcDbCircle
 10
277.5468283723482
 20
265.7557950191569
 30
0.0
 40
4.7625
100
AcDbArc
 50
42.82723713232252
 51
95.67065449119346
  0
TEXT
  5
282
330
1F
100
AcDbEntity
  8
図面枠ﾚｲﾔ_01
  6
Continuous
 62
     7
370
    25
100
AcDbText
 10
666.2833862304688
 20
21.92035484313965
 30
0.0
 40
6.0
  1
Ｗ４０Ａ２ＡＬＡ－Ｃ０２
 41
0.7887323943661974
  7
FX_VECTOR
 72
     5
 11
714.2833862304688
 21
21.92035484313965
 31
0.0
100
AcDbText
  0
LINE
  5
283
330
1F
100
AcDbEntity
  8
GR1_01
  6
DASHDOT
 62
     6
370
    25
100
AcDbLine
 10
578.0559182324571
 20
483.3896965576458
 30
0.0
 11
578.0559182324571
 21
499.1706628754386
 31
0.0
  0
LINE
  5
284
330
1F
100
AcDbEntity
  8
GR1_01
  6
DASHDOT
 62
     6
370
    25
100
AcDbLine
 10
571.0672852404866
 20
490.3821839080458
 30
0.0
 11
586.5807775528931
 21
490.3821839080458
 31
0.0
  0
LINE
  5
285
330
1F
100
AcDbEntity
  8
GR1_01
  6
DASHDOT
 62
     6
370
    25
100
AcDbLine
 10
587.6841078251116
 20
493.3821839080458
 30
0.0
 11
572.4046552674182
 21
493.3821839080458
 31
0.0
  0
LINE
  5
286
330
1F
100
AcDbEntity
  8
GR1_01
  6
DASHDOT
 62
     6
370
    25
100
AcDbLine
 10
581.0559182324571
 20
499.9730848915974
 30
0.0
 11
581.0559182324571
 21
484.3927240778444
 31
0.0
  0
LINE
  5
287
330
1F
100
AcDbEntity
  8
図面枠ﾚｲﾔ_01
  6
DASHDOT
 62
     6
370
    25
100
AcDbLine
 10
488.0559182324573
 20
284.5166736961073
 30
0.0
 11
488.0559182324573
 21
269.1014189425649
 31
0.0
  0
LINE
  5
288
330
1F
100
AcDbEntity
  8
図面枠ﾚｲﾔ_01
  6
DASHDOT
 62
     6
370
    25
100
AcDbLine
 10
491.0559182324573
 20
284.5166736961073
 30
0.0
 11
491.0559182324573
 21
269.1014189425649
 31
0.0
  0
LINE
  5
289
330
1F
100
AcDbEntity
  8
GR1_01
  6
DASHDOT
 62
     6
370
    25
100
AcDbLine
 10
491.0559182324571
 20
483.3896965576458
 30
0.0
 11
491.0559182324571
 21
499.1706628754386
 31
0.0
  0
LINE
  5
28A
330
1F
100
AcDbEntity
  8
GR1_01
  6
DASHDOT
 62
     6
370
    25
100
AcDbLine
 10
498.0445512244276
 20
490.3821839080458
 30
0.0
 11
482.5310589120211
 21
490.3821839080458
 31
0.0
  0
LINE
  5
28B
330
1F
100
AcDbEntity
  8
GR1_01
  6
DASHDOT
 62
     6
370
    25
100
AcDbLine
 10
481.4277286398026
 20
493.3821839080458
 30
0.0
 11
496.707181197496
 21
493.3821839080458
 31
0.0
  0
LINE
  5
28C
330
1F
100
AcDbEntity
  8
GR1_01
  6
DASHDOT
 62
     6
370
    25
100
AcDbLine
 10
488.0559182324571
 20
499.9730848915974
 30
0.0
 11
488.0559182324571
 21
484.3927240778444
 31
0.0
  0
LINE
  5
28D
330
1F
100
AcDbEntity
  8
GR1_01
  6
DASHDOT
 62
     6
370
    25
100
AcDbLine
 10
578.0559182324571
 20
410.3746712584459
 30
0.0
 11
578.0559182324571
 21
394.5937049406531
 31
0.0
  0
LINE
  5
28E
330
1F
100
AcDbEntity
  8
GR1_01
  6
DASHDOT
 62
     6
370
    25
100
AcDbLine
 10
571.0672852404866
 20
403.3821839080459
 30
0.0
 11
586.5807775528931
 21
403.3821839080459
 31
0.0
  0
LINE
  5
28F
330
1F
100
AcDbEntity
  8
GR1_01
  6
DASHDOT
 62
     6
370
    25
100
AcDbLine
 10
587.6841078251116
 20
400.3821839080459
 30
0.0
 11
572.4046552674182
 21
400.3821839080459
 31
0.0
  0
LINE
  5
290
330
1F
100
AcDbEntity
  8
GR1_01
  6
DASHDOT
 62
     6
370
    25
100
AcDbLine
 10
581.0559182324571
 20
393.7912829244942
 30
0.0
 11
581.0559182324571
 21
409.3716437382472
 31
0.0
  0
LINE
  5
291
330
1F
100
AcDbEntity
  8
GR1_01
  6
DASHDOT
 62
     6
370
    25
100
AcDbLine
 10
491.0559182324571
 20
410.3746712584459
 30
0.0
 11
491.0559182324571
 21
394.5937049406531
 31
0.0
  0
LINE
  5
292
330
1F
100
AcDbEntity
  8
GR1_01
  6
DASHDOT
 62
     6
370
    25
100
AcDbLine
 10
498.0445512244276
 20
403.3821839080459
 30
0.0
 11
482.5310589120211
 21
403.3821839080459
 31
0.0
  0
LINE
  5
293
330
1F
100
AcDbEntity
  8
GR1_01
  6
DASHDOT
 62
     6
370
    25
100
AcDbLine
 10
481.4277286398026
 20
400.3821839080459
 30
0.0
 11
496.707181197496
 21
400.3821839080459
 31
0.0
  0
LINE
  5
294
330
1F
100
AcDbEntity
  8
GR1_01
  6
DASHDOT
 62
     6
370
    25
100
AcDbLine
 10
488.0559182324571
 20
393.7912829244942
 30
0.0
 11
488.0559182324571
 21
409.3716437382472
 31
0.0
  0
LINE
  5
295
330
1F
100
AcDbEntity
  8
図面枠ﾚｲﾔ_01
  6
DASHDOT
 62
     6
370
    25
100
AcDbLine
 10
581.0559182324571
 20
284.5166736961073
 30
0.0
 11
581.0559182324571
 21
269.1014189425649
 31
0.0
  0
LINE
  5
296
330
1F
100
AcDbEntity
  8
図面枠ﾚｲﾔ_01
  6
DASHDOT
 62
     6
370
    25
100
AcDbLine
 10
578.0559182324571
 20
284.5166736961073
 30
0.0
 11
578.0559182324571
 21
269.1014189425649
 31
0.0
  0
LINE
  5
297
330
1F
100
AcDbEntity
  8
図面枠ﾚｲﾔ_01
  6
DASHDOT
 62
     6
370
    25
100
AcDbLine
 10
195.3684813509999
 20
284.5166736961073
 30
0.0
 11
195.3684813509999
 21
269.1014189425649
 31
0.0
  0
LINE
  5
298
330
1F
100
AcDbEntity
  8
図面枠ﾚｲﾔ_01
  6
DASHDOT
 62
     6
370
    25
100
AcDbLine
 10
198.3684813509999
 20
284.5166736961073
 30
0.0
 11
198.3684813509999
 21
269.1014189425649
 31
0.0
  0
LINE
  5
299
330
1F
100
AcDbEntity
  8
図面枠ﾚｲﾔ_01
  6
DASHDOT
 62
     6
370
    25
100
AcDbLine
 10
288.3684813509997
 20
284.5166736961073
 30
0.0
 11
288.3684813509997
 21
269.1014189425649
 31
0.0
  0
LINE
  5
29A
330
1F
100
AcDbEntity
  8
図面枠ﾚｲﾔ_01
  6
DASHDOT
 62
     6
370
    25
100
AcDbLine
 10
285.3684813509997
 20
284.5166736961073
 30
0.0
 11
285.3684813509997
 21
269.1014189425649
 31
0.0
  0
LINE
  5
29B
330
1F
100
AcDbEntity
  8
GR1_01
  6
Continuous
 62
     3
370
    50
100
AcDbLine
 10
482.0290455509933
 20
233.1304939812954
 30
0.0
 11
482.6905605037744
 21
235.7836855411588
 31
0.0
  0
TEXT
  5
29C
330
1F
100
AcDbEntity
  8
GR1_01
  6
Continuous
 62
     7
370
    25
100
AcDbText
 10
184.7498474121094
 20
151.0182952880859
 30
0.0
 40
4.0
  1
φ１５０
 50
90.0
 41
0.9130434782608696
  7
FX_VECTOR
 72
     5
 11
184.7498474121094
 21
163.0182952880859
 31
0.0
100
AcDbText
  0
LINE
  5
29D
330
1F
100
AcDbEntity
  8
GR1_01
  6
Continuous
 62
     7
370
    25
100
AcDbLine
 10
240.8684813509998
 20
82.0182950191572
 30
0.0
 11
184.7498566157871
 21
82.0182950191572
 31
0.0
  0
LINE
  5
29E
330
1F
100
AcDbEntity
  8
GR1_01
  6
Continuous
 62
     7
370
    25
100
AcDbLine
 10
240.8684813509998
 20
232.0182950191572
 30
0.0
 11
184.7498566157871
 21
232.0182950191572
 31
0.0
  0
LINE
  5
29F
330
1F
100
AcDbEntity
  8
GR1_01
  6
Continuous
 62
     7
370
    25
100
AcDbLine
 10
185.7498566157871
 20
82.0182950191572
 30
0.0
 11
185.7498566157871
 21
232.0182950191572
 31
0.0
  0
INSERT
  5
2A0
330
1F
100
AcDbEntity
  8
GR1_01
  6
Continuous
 62
     7
370
    25
100
AcDbBlockReference
  2
FXTIP_ARROW_S
 10
185.7498566157871
 20
82.0182950191572
 30
0.0
 41
4.0
 42
4.0
 50
270.0
  0
INSERT
  5
2A1
330
1F
100
AcDbEntity
  8
GR1_01
  6
Continuous
 62
     7
370
    25
100
AcDbBlockReference
  2
FXTIP_ARROW_E
 10
185.7498566157871
 20
232.0182950191572
 30
0.0
 41
4.0
 42
4.0
 50
90.0
  0
TEXT
  5
2A2
330
1F
100
AcDbEntity
  8
GR1_01
  6
Continuous
 62
     7
370
    25
100
AcDbText
 10
530.055908203125
 20
357.6969909667969
 30
0.0
 40
4.0
  1
１２０
 41
0.9264705882352942
  7
FX_VECTOR
 72
     5
 11
539.055908203125
 21
357.6969909667969
 31
0.0
100
AcDbText
  0
LINE
  5
2A3
330
1F
100
AcDbEntity
  8
GR1_01
  6
Continuous
 62
     7
370
    25
100
AcDbLine
 10
474.5559182324571
 20
402.3821839080458
 30
0.0
 11
474.5559182324571
 21
355.6970181683652
 31
0.0
  0
LINE
  5
2A4
330
1F
100
AcDbEntity
  8
GR1_01
  6
Continuous
 62
     7
370
    25
100
AcDbLine
 10
594.5559182324571
 20
402.3821839080458
 30
0.0
 11
594.5559182324571
 21
355.6970181683652
 31
0.0
  0
LINE
  5
2A5
330
1F
100
AcDbEntity
  8
GR1_01
  6
Continuous
 62
     7
370
    25
100
AcDbLine
 10
474.5559182324571
 20
356.6970181683652
 30
0.0
 11
594.5559182324571
 21
356.6970181683652
 31
0.0
  0
INSERT
  5
2A6
330
1F
100
AcDbEntity
  8
GR1_01
  6
Continuous
 62
     7
370
    25
100
AcDbBlockReference
  2
FXTIP_ARROW_S
 10
474.5559182324571
 20
356.6970181683652
 30
0.0
 41
4.0
 42
4.0
 50
180.0
  0
INSERT
  5
2A7
330
1F
100
AcDbEntity
  8
GR1_01
  6
Continuous
 62
     7
370
    25
100
AcDbBlockReference
  2
FXTIP_ARROW_E
 10
594.5559182324571
 20
356.6970181683652
 30
0.0
 41
4.0
 42
4.0
 50
360.0
  0
TEXT
  5
2A8
330
1F
100
AcDbEntity
  8
GR1_01
  6
Continuous
 62
     7
370
    25
100
AcDbText
 10
531.555908203125
 20
367.697021484375
 30
0.0
 40
4.0
  1
９３
 41
0.9545454545454547
  7
FX_VECTOR
 72
     5
 11
537.555908203125
 21
367.697021484375
 31
0.0
100
AcDbText
  0
LINE
  5
2A9
330
1F
100
AcDbEntity
  8
GR1_01
  6
Continuous
 62
     7
370
    25
100
AcDbLine
 10
488.0559182324571
 20
390.8821839080458
 30
0.0
 11
488.0559182324571
 21
365.6970181683652
 31
0.0
  0
LINE
  5
2AA
330
1F
100
AcDbEntity
  8
GR1_01
  6
Continuous
 62
     7
370
    25
100
AcDbLine
 10
581.0559182324571
 20
390.8821839080458
 30
0.0
 11
581.0559182324571
 21
365.6970181683652
 31
0.0
  0
LINE
  5
2AB
330
1F
100
AcDbEntity
  8
GR1_01
  6
Continuous
 62
     7
370
    25
100
AcDbLine
 10
488.0559182324571
 20
366.6970181683652
 30
0.0
 11
581.0559182324571
 21
366.6970181683652
 31
0.0
  0
INSERT
  5
2AC
330
1F
100
AcDbEntity
  8
GR1_01
  6
Continuous
 62
     7
370
    25
100
AcDbBlockReference
  2
FXTIP_ARROW_S
 10
488.0559182324571
 20
366.6970181683652
 30
0.0
 41
4.0
 42
4.0
 50
180.0
  0
INSERT
  5
2AD
330
1F
100
AcDbEntity
  8
GR1_01
  6
Continuous
 62
     7
370
    25
100
AcDbBlockReference
  2
FXTIP_ARROW_E
 10
581.0559182324571
 20
366.6970181683652
 30
0.0
 41
4.0
 42
4.0
 50
360.0
  0
TEXT
  5
2AE
330
1F
100
AcDbEntity
  8
GR1_01
  6
Continuous
 62
     7
370
    25
100
AcDbText
 10
531.555908203125
 20
377.697021484375
 30
0.0
 40
4.0
  1
８７
 41
0.9545454545454547
  7
FX_VECTOR
 72
     5
 11
537.555908203125
 21
377.697021484375
 31
0.0
100
AcDbText
  0
LINE
  5
2AF
330
1F
100
AcDbEntity
  8
GR1_01
  6
Continuous
 62
     7
370
    25
100
AcDbLine
 10
491.0559182324571
 20
393.8821839080458
 30
0.0
 11
491.0559182324571
 21
375.6970181683652
 31
0.0
  0
LINE
  5
2B0
330
1F
100
AcDbEntity
  8
GR1_01
  6
Continuous
 62
     7
370
    25
100
AcDbLine
 10
578.0559182324571
 20
393.8821839080458
 30
0.0
 11
578.0559182324571
 21
375.6970181683652
 31
0.0
  0
LINE
  5
2B1
330
1F
100
AcDbEntity
  8
GR1_01
  6
Continuous
 62
     7
370
    25
100
AcDbLine
 10
491.0559182324571
 20
376.6970181683652
 30
0.0
 11
578.0559182324571
 21
376.6970181683652
 31
0.0
  0
INSERT
  5
2B2
330
1F
100
AcDbEntity
  8
GR1_01
  6
Continuous
 62
     7
370
    25
100
AcDbBlockReference
  2
FXTIP_ARROW_S
 10
491.0559182324571
 20
376.6970181683652
 30
0.0
 41
4.0
 42
4.0
 50
180.0
  0
INSERT
  5
2B3
330
1F
100
AcDbEntity
  8
GR1_01
  6
Continuous
 62
     7
370
    25
100
AcDbBlockReference
  2
FXTIP_ARROW_E
 10
578.0559182324571
 20
376.6970181683652
 30
0.0
 41
4.0
 42
4.0
 50
360.0
  0
TEXT
  5
2B4
330
1F
100
AcDbEntity
  8
GR1_01
  6
Continuous
 62
     7
370
    25
100
AcDbText
 10
623.5501098632812
 20
442.3821716308594
 30
0.0
 40
4.0
  1
１２０
 50
90.0
 41
0.9264705882352942
  7
FX_VECTOR
 72
     5
 11
623.5501098632812
 21
451.3821716308594
 31
0.0
100
AcDbText
  0
LINE
  5
2B5
330
1F
100
AcDbEntity
  8
GR1_01
  6
Continuous
 62
     7
370
    25
100
AcDbLine
 10
579.0559182324571
 20
386.8821839080458
 30
0.0
 11
625.5501576098115
 21
386.8821839080458
 31
0.0
  0
LINE
  5
2B6
330
1F
100
AcDbEntity
  8
GR1_01
  6
Continuous
 62
     7
370
    25
100
AcDbLine
 10
579.0559182324571
 20
506.8821839080458
 30
0.0
 11
625.5501576098115
 21
506.8821839080458
 31
0.0
  0
LINE
  5
2B7
330
1F
100
AcDbEntity
  8
GR1_01
  6
Continuous
 62
     7
370
    25
100
AcDbLine
 10
624.5501576098115
 20
386.8821839080458
 30
0.0
 11
624.5501576098115
 21
506.8821839080458
 31
0.0
  0
INSERT
  5
2B8
330
1F
100
AcDbEntity
  8
GR1_01
  6
Continuous
 62
     7
370
    25
100
AcDbBlockReference
  2
FXTIP_ARROW_S
 10
624.5501576098115
 20
386.8821839080458
 30
0.0
 41
4.0
 42
4.0
 50
270.0
  0
INSERT
  5
2B9
330
1F
100
AcDbEntity
  8
GR1_01
  6
Continuous
 62
     7
370
    25
100
AcDbBlockReference
  2
FXTIP_ARROW_E
 10
624.5501576098115
 20
506.8821839080458
 30
0.0
 41
4.0
 42
4.0
 50
90.0
  0
TEXT
  5
2BA
330
1F
100
AcDbEntity
  8
GR1_01
  6
Continuous
 62
     7
370
    25
100
AcDbText
 10
613.5501098632812
 20
443.8821716308594
 30
0.0
 40
4.0
  1
９３
 50
90.0
 41
0.9545454545454547
  7
FX_VECTOR
 72
     5
 11
613.5501098632812
 21
449.8821716308594
 31
0.0
100
AcDbText
  0
LINE
  5
2BB
330
1F
100
AcDbEntity
  8
GR1_01
  6
Continuous
 62
     7
370
    25
100
AcDbLine
 10
590.5559182324571
 20
400.3821839080458
 30
0.0
 11
615.5501576098115
 21
400.3821839080458
 31
0.0
  0
LINE
  5
2BC
330
1F
100
AcDbEntity
  8
GR1_01
  6
Continuous
 62
     7
370
    25
100
AcDbLine
 10
590.5559182324571
 20
493.3821839080458
 30
0.0
 11
615.5501576098115
 21
493.3821839080458
 31
0.0
  0
LINE
  5
2BD
330
1F
100
AcDbEntity
  8
GR1_01
  6
Continuous
 62
     7
370
    25
100
AcDbLine
 10
614.5501576098115
 20
400.3821839080458
 30
0.0
 11
614.5501576098115
 21
493.3821839080458
 31
0.0
  0
INSERT
  5
2BE
330
1F
100
AcDbEntity
  8
GR1_01
  6
Continuous
 62
     7
370
    25
100
AcDbBlockReference
  2
FXTIP_ARROW_S
 10
614.5501576098115
 20
400.3821839080458
 30
0.0
 41
4.0
 42
4.0
 50
270.0
  0
INSERT
  5
2BF
330
1F
100
AcDbEntity
  8
GR1_01
  6
Continuous
 62
     7
370
    25
100
AcDbBlockReference
  2
FXTIP_ARROW_E
 10
614.5501576098115
 20
493.3821839080458
 30
0.0
 41
4.0
 42
4.0
 50
90.0
  0
TEXT
  5
2C0
330
1F
100
AcDbEntity
  8
GR1_01
  6
Continuous
 62
     7
370
    25
100
AcDbText
 10
603.5501098632812
 20
443.8821716308594
 30
0.0
 40
4.0
  1
８７
 50
90.0
 41
0.9545454545454547
  7
FX_VECTOR
 72
     5
 11
603.5501098632812
 21
449.8821716308594
 31
0.0
100
AcDbText
  0
LINE
  5
2C1
330
1F
100
AcDbEntity
  8
GR1_01
  6
Continuous
 62
     7
370
    25
100
AcDbLine
 10
587.5559182324571
 20
403.3821839080458
 30
0.0
 11
605.5501576098115
 21
403.3821839080458
 31
0.0
  0
LINE
  5
2C2
330
1F
100
AcDbEntity
  8
GR1_01
  6
Continuous
 62
     7
370
    25
100
AcDbLine
 10
587.5559182324571
 20
490.3821839080458
 30
0.0
 11
605.5501576098115
 21
490.3821839080458
 31
0.0
  0
LINE
  5
2C3
330
1F
100
AcDbEntity
  8
GR1_01
  6
Continuous
 62
     7
370
    25
100
AcDbLine
 10
604.5501576098115
 20
403.3821839080458
 30
0.0
 11
604.5501576098115
 21
490.3821839080458
 31
0.0
  0
INSERT
  5
2C4
330
1F
100
AcDbEntity
  8
GR1_01
  6
Continuous
 62
     7
370
    25
100
AcDbBlockReference
  2
FXTIP_ARROW_S
 10
604.5501576098115
 20
403.3821839080458
 30
0.0
 41
4.0
 42
4.0
 50
270.0
  0
INSERT
  5
2C5
330
1F
100
AcDbEntity
  8
GR1_01
  6
Continuous
 62
     7
370
    25
100
AcDbBlockReference
  2
FXTIP_ARROW_E
 10
604.5501576098115
 20
490.3821839080458
 30
0.0
 41
4.0
 42
4.0
 50
90.0
  0
TEXT
  5
2C6
330
1F
100
AcDbEntity
  8
GR1_01
  6
Continuous
 62
     7
370
    25
100
AcDbText
 10
613.6317749023438
 20
176.5182952880859
 30
0.0
 40
4.0
  1
１９８
 50
90.0
 41
0.9264705882352942
  7
FX_VECTOR
 72
     5
 11
613.6317749023438
 21
185.5182952880859
 31
0.0
100
AcDbText
  0
LINE
  5
2C7
330
1F
100
AcDbEntity
  8
GR1_01
  6
Continuous
 62
     7
370
    25
100
AcDbLine
 10
595.5559182324571
 20
280.0182950191572
 30
0.0
 11
615.6318319285532
 21
280.0182950191572
 31
0.0
  0
LINE
  5
2C8
330
1F
100
AcDbEntity
  8
GR1_01
  6
Continuous
 62
     7
370
    25
100
AcDbLine
 10
490.5559182324572
 20
82.01829514833804
 30
0.0
 11
615.6318319285532
 21
82.01829514833804
 31
0.0
  0
LINE
  5
2C9
330
1F
100
AcDbEntity
  8
GR1_01
  6
Continuous
 62
     7
370
    25
100
AcDbLine
 10
614.6318319285532
 20
280.0182950191572
 30
0.0
 11
614.6318319285532
 21
82.01829514833804
 31
0.0
  0
INSERT
  5
2CA
330
1F
100
AcDbEntity
  8
GR1_01
  6
Continuous
 62
     7
370
    25
100
AcDbBlockReference
  2
FXTIP_ARROW_S
 10
614.6318319285532
 20
280.0182950191572
 30
0.0
 41
4.0
 42
4.0
 50
90.0
  0
INSERT
  5
2CB
330
1F
100
AcDbEntity
  8
GR1_01
  6
Continuous
 62
     7
370
    25
100
AcDbBlockReference
  2
FXTIP_ARROW_E
 10
614.6318319285532
 20
82.01829514833804
 30
0.0
 41
4.0
 42
4.0
 50
270.0
  0
TEXT
  5
2CC
330
1F
100
AcDbEntity
  8
GR1_01
  6
Continuous
 62
     7
370
    25
100
AcDbText
 10
603.6317749023438
 20
214.0182952880859
 30
0.0
 40
4.0
  1
１２３
 50
90.0
 41
0.9264705882352942
  7
FX_VECTOR
 72
     5
 11
603.6317749023438
 21
223.0182952880859
 31
0.0
100
AcDbText
  0
LINE
  5
2CD
330
1F
100
AcDbEntity
  8
GR1_01
  6
Continuous
 62
     7
370
    25
100
AcDbLine
 10
569.4002951554603
 20
157.0182950191572
 30
0.0
 11
605.6318319285532
 21
157.0182950191572
 31
0.0
  0
LINE
  5
2CE
330
1F
100
AcDbEntity
  8
GR1_01
  6
Continuous
 62
     7
370
    25
100
AcDbLine
 10
604.6318319285532
 20
157.0182950191572
 30
0.0
 11
604.6318319285532
 21
280.0182950191572
 31
0.0
  0
INSERT
  5
2CF
330
1F
100
AcDbEntity
  8
GR1_01
  6
Continuous
 62
     7
370
    25
100
AcDbBlockReference
  2
FXTIP_ARROW_S
 10
604.6318319285532
 20
157.0182950191572
 30
0.0
 41
4.0
 42
4.0
 50
270.0
  0
INSERT
  5
2D0
330
1F
100
AcDbEntity
  8
GR1_01
  6
Continuous
 62
     7
370
    25
100
AcDbBlockReference
  2
FXTIP_ARROW_E
 10
604.6318319285532
 20
280.0182950191572
 30
0.0
 41
4.0
 42
4.0
 50
90.0
  0
TEXT
  5
2D1
330
1F
100
AcDbEntity
  8
GR1_01
  6
Continuous
 62
     7
370
    25
100
AcDbText
 10
509.055908203125
 20
72.93989562988281
 30
0.0
 40
4.0
  1
４５
 41
0.9545454545454547
  7
FX_VECTOR
 72
     5
 11
515.055908203125
 21
72.93989562988281
 31
0.0
100
AcDbText
  0
LINE
  5
2D2
330
1F
100
AcDbEntity
  8
GR1_01
  6
Continuous
 62
     7
370
    25
100
AcDbLine
 10
489.5559182324572
 20
77.64070849000393
 30
0.0
 11
489.5559182324572
 21
70.93988705013582
 31
0.0
  0
LINE
  5
2D3
330
1F
100
AcDbEntity
  8
GR1_01
  6
Continuous
 62
     7
370
    25
100
AcDbLine
 10
534.5559182324572
 20
180.1055073474645
 30
0.0
 11
534.5559182324572
 21
70.93988705013582
 31
0.0
  0
LINE
  5
2D4
330
1F
100
AcDbEntity
  8
GR1_01
  6
Continuous
 62
     7
370
    25
100
AcDbLine
 10
489.5559182324572
 20
71.93988705013582
 30
0.0
 11
534.5559182324572
 21
71.93988705013582
 31
0.0
  0
INSERT
  5
2D5
330
1F
100
AcDbEntity
  8
GR1_01
  6
Continuous
 62
     7
370
    25
100
AcDbBlockReference
  2
FXTIP_ARROW_S
 10
489.5559182324572
 20
71.93988705013582
 30
0.0
 41
4.0
 42
4.0
 50
180.0
  0
INSERT
  5
2D6
330
1F
100
AcDbEntity
  8
GR1_01
  6
Continuous
 62
     7
370
    25
100
AcDbBlockReference
  2
FXTIP_ARROW_E
 10
534.5559182324572
 20
71.93988705013582
 30
0.0
 41
4.0
 42
4.0
 50
360.0
  0
TEXT
  5
2D7
330
1F
100
AcDbEntity
  8
GR1_01
  6
Continuous
 62
     7
370
    25
100
AcDbText
 10
425.7478755206608
 20
378.0004906247683
 30
0.0
 40
4.0
  1
１３６．５
 50
32.70262145996082
 41
0.9051724137931026
  7
FX_VECTOR
 72
     5
 11
438.3701664715267
 21
386.1046729494504
 31
0.0
100
AcDbText
  0
LINE
  5
2D8
330
1F
100
AcDbEntity
  8
GR1_01
  6
Continuous
 62
     7
370
    25
100
AcDbLine
 10
419.6780244877858
 20
373.1244639304388
 30
0.0
 11
534.5559182324571
 21
446.8821839080458
 31
0.0
  0
INSERT
  5
2D9
330
1F
100
AcDbEntity
  8
GR1_01
  6
Continuous
 62
     7
370
    25
100
AcDbBlockReference
  2
FXTIP_ARROW_S
 10
419.6780244877858
 20
373.1244639304388
 30
0.0
 41
4.0
 42
4.0
 50
212.7026216123816
  0
TEXT
  5
2DA
330
1F
100
AcDbEntity
  8
GR1_01
  6
Continuous
 62
     7
370
    25
100
AcDbText
 10
469.6140487660057
 20
503.338719176162
 30
0.0
 40
4.0
  1
４－１１
 50
45.0
 41
0.9130434782608648
  7
FX_VECTOR
 72
     5
 11
478.0993301402443
 21
511.8240005504005
 31
0.0
100
AcDbText
  0
LINE
  5
2DB
330
1F
100
AcDbEntity
  8
GR1_01
  6
Continuous
 62
     7
370
    25
100
AcDbLine
 10
483.4597241547446
 20
490.2002033927064
 30
0.0
 11
469.9675982837022
 21
503.6923292637491
 31
0.0
  0
LINE
  5
2DC
330
1F
100
AcDbEntity
  8
GR1_01
  6
Continuous
 62
     7
370
    25
100
AcDbLine
 10
491.2378987477967
 20
497.9783779857584
 30
0.0
 11
477.7457728767544
 21
511.4705038568011
 31
0.0
  0
LINE
  5
2DD
330
1F
100
AcDbEntity
  8
GR1_01
  6
Continuous
 62
     7
370
    25
100
AcDbLine
 10
470.6747050648888
 20
502.9852224825627
 30
0.0
 11
478.4528796579409
 21
510.7633970756145
 31
0.0
  0
INSERT
  5
2DE
330
1F
100
AcDbEntity
  8
GR1_01
  6
Continuous
 62
     7
370
    25
100
AcDbBlockReference
  2
FXTIP_ARROW_S
 10
470.6747050648888
 20
502.9852224825627
 30
0.0
 41
4.0
 42
4.0
 50
224.9999999999989
  0
INSERT
  5
2DF
330
1F
100
AcDbEntity
  8
GR1_01
  6
Continuous
 62
     7
370
    25
100
AcDbBlockReference
  2
FXTIP_ARROW_E
 10
478.4528796579409
 20
510.7633970756145
 30
0.0
 41
4.0
 42
4.0
 50
44.99999999999893
  0
TEXT
  5
2E0
330
1F
100
AcDbEntity
  8
GR1_01
  6
Continuous
 62
     7
370
    25
100
AcDbText
 10
286.6184692382812
 20
301.0214233398438
 30
0.0
 40
4.0
  1
１０４．５
 41
0.9051724137931035
  7
FX_VECTOR
 72
     5
 11
301.6184692382812
 21
301.0214233398438
 31
0.0
100
AcDbText
  0
LINE
  5
2E1
330
1F
100
AcDbEntity
  8
GR1_01
  6
Continuous
 62
     7
370
    25
100
AcDbLine
 10
241.8684813509998
 20
281.0182950191572
 30
0.0
 11
241.8684813509998
 21
301.0214367630632
 31
0.0
  0
LINE
  5
2E2
330
1F
100
AcDbEntity
  8
GR1_01
  6
Continuous
 62
     7
370
    25
100
AcDbLine
 10
346.3684813509998
 20
223.5933621163392
 30
0.0
 11
346.3684813509998
 21
301.0214367630632
 31
0.0
  0
LINE
  5
2E3
330
1F
100
AcDbEntity
  8
GR1_01
  6
Continuous
 62
     7
370
    25
100
AcDbLine
 10
241.8684813509998
 20
300.0214367630632
 30
0.0
 11
346.3684813509998
 21
300.0214367630632
 31
0.0
  0
INSERT
  5
2E4
330
1F
100
AcDbEntity
  8
GR1_01
  6
Continuous
 62
     7
370
    25
100
AcDbBlockReference
  2
FXTIP_ARROW_S
 10
241.8684813509998
 20
300.0214367630632
 30
0.0
 41
4.0
 42
4.0
 50
180.0
  0
INSERT
  5
2E5
330
1F
100
AcDbEntity
  8
GR1_01
  6
Continuous
 62
     7
370
    25
100
AcDbBlockReference
  2
FXTIP_ARROW_E
 10
346.3684813509998
 20
300.0214367630632
 30
0.0
 41
4.0
 42
4.0
 50
360.0
  0
TEXT
  5
2E6
330
1F
100
AcDbEntity
  8
GR1_01
  6
Continuous
 62
     7
370
    25
100
AcDbText
 10
238.8684692382812
 20
62.81494903564453
 30
0.0
 40
4.0
  1
５３
 41
0.9545454545454547
  7
FX_VECTOR
 72
     5
 11
244.8684692382812
 21
62.81494903564453
 31
0.0
100
AcDbText
  0
LINE
  5
2E7
330
1F
100
AcDbEntity
  8
GR1_01
  6
Continuous
 62
     7
370
    25
100
AcDbLine
 10
215.3684813509998
 20
142.8182950191572
 30
0.0
 11
215.3684813509998
 21
60.81494575864453
 31
0.0
  0
LINE
  5
2E8
330
1F
100
AcDbEntity
  8
GR1_01
  6
Continuous
 62
     7
370
    25
100
AcDbLine
 10
268.3684813509998
 20
142.8182950191572
 30
0.0
 11
268.3684813509998
 21
60.81494575864453
 31
0.0
  0
LINE
  5
2E9
330
1F
100
AcDbEntity
  8
GR1_01
  6
Continuous
 62
     7
370
    25
100
AcDbLine
 10
215.3684813509998
 20
61.81494575864453
 30
0.0
 11
268.3684813509998
 21
61.81494575864453
 31
0.0
  0
INSERT
  5
2EA
330
1F
100
AcDbEntity
  8
GR1_01
  6
Continuous
 62
     7
370
    25
100
AcDbBlockReference
  2
FXTIP_ARROW_S
 10
215.3684813509998
 20
61.81494575864453
 30
0.0
 41
4.0
 42
4.0
 50
180.0
  0
INSERT
  5
2EB
330
1F
100
AcDbEntity
  8
GR1_01
  6
Continuous
 62
     7
370
    25
100
AcDbBlockReference
  2
FXTIP_ARROW_E
 10
268.3684813509998
 20
61.81494575864453
 30
0.0
 41
4.0
 42
4.0
 50
360.0
  0
TEXT
  5
2EC
330
1F
100
AcDbEntity
  8
GR1_01
  6
Continuous
 62
     7
370
    25
100
AcDbText
 10
238.8684692382812
 20
72.81494903564453
 30
0.0
 40
4.0
  1
４５
 41
0.9545454545454547
  7
FX_VECTOR
 72
     5
 11
244.8684692382812
 21
72.81494903564453
 31
0.0
100
AcDbText
  0
LINE
  5
2ED
330
1F
100
AcDbEntity
  8
GR1_01
  6
Continuous
 62
     7
370
    25
100
AcDbLine
 10
219.3684813509997
 20
94.51829501915722
 30
0.0
 11
219.3684813509997
 21
70.81494575864453
 31
0.0
  0
LINE
  5
2EE
330
1F
100
AcDbEntity
  8
GR1_01
  6
Continuous
 62
     7
370
    25
100
AcDbLine
 10
264.3684813509998
 20
94.51829501915722
 30
0.0
 11
264.3684813509998
 21
70.81494575864453
 31
0.0
  0
LINE
  5
2EF
330
1F
100
AcDbEntity
  8
GR1_01
  6
Continuous
 62
     7
370
    25
100
AcDbLine
 10
219.3684813509997
 20
71.81494575864453
 30
0.0
 11
264.3684813509998
 21
71.81494575864453
 31
0.0
  0
INSERT
  5
2F0
330
1F
100
AcDbEntity
  8
GR1_01
  6
Continuous
 62
     7
370
    25
100
AcDbBlockReference
  2
FXTIP_ARROW_S
 10
219.3684813509997
 20
71.81494575864453
 30
0.0
 41
4.0
 42
4.0
 50
180.0
  0
INSERT
  5
2F1
330
1F
100
AcDbEntity
  8
GR1_01
  6
Continuous
 62
     7
370
    25
100
AcDbBlockReference
  2
FXTIP_ARROW_E
 10
264.3684813509998
 20
71.81494575864453
 30
0.0
 41
4.0
 42
4.0
 50
360.0
  0
TEXT
  5
2F2
330
1F
100
AcDbEntity
  8
GR1_01
  6
Continuous
 62
     7
370
    25
100
AcDbText
 10
547.9547729492188
 20
181.3131561279297
 30
0.0
 40
7.0
  1
１
 50
289.9999999999999
 41
1.200000000000002
  7
FX_VECTOR
 72
     5
 11
550.0068938091728
 21
175.6750004032142
 31
0.0
100
AcDbText
  0
TEXT
  5
2F3
330
1F
100
AcDbEntity
  8
GR1_01
  6
Continuous
 62
     7
370
    25
100
AcDbText
 10
550.861083984375
 20
172.7879486083984
 30
0.0
 40
7.0
  1
５
 50
281.9999999999996
 41
1.199999999999998
  7
FX_VECTOR
 72
     5
 11
552.1085541292815
 21
166.9190630039956
 31
0.0
100
AcDbText
  0
TEXT
  5
2F4
330
1F
100
AcDbEntity
  8
GR1_01
  6
Continuous
 62
     7
370
    25
100
AcDbText
 10
552.4111328125
 20
164.2627410888672
 30
0.0
 40
7.0
  1
０
 50
273.9999999999998
 41
1.200000000000001
  7
FX_VECTOR
 72
     5
 11
552.8296716549647
 21
158.2773567873082
 31
0.0
100
AcDbText
  0
TEXT
  5
2F5
330
1F
100
AcDbEntity
  8
GR1_01
  6
Continuous
 62
     7
370
    25
100
AcDbText
 10
552.7986450195312
 20
155.1562957763672
 30
0.0
 40
7.0
  1
Ｘ
 50
266.0000000000002
 41
1.200000000000001
  7
FX_VECTOR
 72
     5
 11
552.3801061770665
 21
149.1709114748082
 31
0.0
100
AcDbText
  0
TEXT
  5
2F6
330
1F
100
AcDbEntity
  8
GR1_01
  6
Continuous
 62
     7
370
    25
100
AcDbText
 10
552.0236206054688
 20
146.8248748779297
 30
0.0
 40
7.0
  1
４
 50
258.0000000000004
 41
1.199999999999998
  7
FX_VECTOR
 72
     5
 11
550.7761504605622
 21
140.9559892735269
 31
0.0
100
AcDbText
  0
TEXT
  5
2F7
330
1F
100
AcDbEntity
  8
GR1_01
  6
Continuous
 62
     7
370
    25
100
AcDbText
 10
549.8922729492188
 20
137.9121551513672
 30
0.0
 40
7.0
  1
５
 50
250.0
 41
1.200000000000002
  7
FX_VECTOR
 72
     5
 11
547.8401520892647
 21
132.2739994266517
 31
0.0
100
AcDbText
  0
TEXT
  5
2F8
330
1F
100
AcDbEntity
  8
GR1_01
  6
Continuous
 62
     7
370
    25
100
AcDbText
 10
434.8219299316406
 20
124.8064498901367
 30
0.0
 40
7.0
  1
Ｇ
 50
114.9999999999998
 41
1.199999999999995
  7
FX_VECTOR
 72
     5
 11
432.2862203611965
 21
130.2442966123566
 31
0.0
100
AcDbText
  0
TEXT
  5
2F9
330
1F
100
AcDbEntity
  8
GR1_01
  6
Continuous
 62
     7
370
    25
100
AcDbText
 10
431.3727111816406
 20
131.8180389404297
 30
0.0
 40
7.0
  1
Ｏ
 50
108.0
 41
1.2
  7
FX_VECTOR
 72
     5
 11
429.5186092153909
 21
137.5243780382006
 31
0.0
100
AcDbText
  0
TEXT
  5
2FA
330
1F
100
AcDbEntity
  8
GR1_01
  6
Continuous
 62
     7
370
    25
100
AcDbText
 10
428.7150573730469
 20
139.1688690185547
 30
0.0
 40
7.0
  1
Ｌ
 50
101.0000000000001
 41
1.200000000000003
  7
FX_VECTOR
 72
     5
 11
427.5702034007876
 21
145.0586321192407
 31
0.0
100
AcDbText
  0
TEXT
  5
2FB
330
1F
100
AcDbEntity
  8
GR1_01
  6
Continuous
 62
     7
370
    25
100
AcDbText
 10
427.0187072753906
 20
146.7459564208984
 30
0.0
 40
7.0
  1
Ｄ
 50
93.99999999999977
 41
1.200000000000001
  7
FX_VECTOR
 72
     5
 11
426.6001684329259
 21
152.7313407224574
 31
0.0
100
AcDbText
  0
TEXT
  5
2FC
330
1F
100
AcDbEntity
  8
GR1_01
  6
Continuous
 62
     7
370
    25
100
AcDbText
 10
426.4070739746094
 20
162.1529388427734
 30
0.0
 40
7.0
  1
Ｃ
 50
79.99999999999983
 41
1.200000000000003
  7
FX_VECTOR
 72
     5
 11
427.448963040611
 21
168.0617853608467
 31
0.0
100
AcDbText
  0
TEXT
  5
2FD
330
1F
100
AcDbEntity
  8
GR1_01
  6
Continuous
 62
     7
370
    25
100
AcDbText
 10
427.5797424316406
 20
169.3566131591797
 30
0.0
 40
7.0
  1
Ａ
 50
72.99999999999984
 41
1.200000000000002
  7
FX_VECTOR
 72
     5
 11
429.3339726599771
 21
175.0944416949579
 31
0.0
100
AcDbText
  0
TEXT
  5
2FE
330
1F
100
AcDbEntity
  8
GR1_01
  6
Continuous
 62
     7
370
    25
100
AcDbText
 10
429.2550354003906
 20
176.8953094482422
 30
0.0
 40
7.0
  1
Ｓ
 50
66.00000000000017
 41
1.200000000000002
  7
FX_VECTOR
 72
     5
 11
431.6954552588454
 21
182.3765821940978
 31
0.0
100
AcDbText
  0
TEXT
  5
2FF
330
1F
100
AcDbEntity
  8
GR1_01
  6
Continuous
 62
     7
370
    25
100
AcDbText
 10
432.1029968261719
 20
183.7639617919922
 30
0.0
 40
7.0
  1
Ｔ
 50
59.00000000000008
 41
1.199999999999998
  7
FX_VECTOR
 72
     5
 11
435.1932252756322
 21
188.9069655962049
 31
0.0
100
AcDbText
  0
TEXT
  5
300
330
1F
100
AcDbEntity
  8
GR1_01
  6
Continuous
 62
     7
370
    25
100
AcDbText
 10
435.9561462402344
 20
190.8000946044922
 30
0.0
 40
7.0
  1
Ｅ
 50
51.99999999999986
 41
1.200000000000003
  7
FX_VECTOR
 72
     5
 11
439.6501150921883
 21
195.5281591261325
 31
0.0
100
AcDbText
  0
TEXT
  5
301
330
1F
100
AcDbEntity
  8
GR1_01
  6
Continuous
 62
     7
370
    25
100
AcDbText
 10
440.8144226074219
 20
197.5012054443359
 30
0.0
 40
7.0
  1
Ｒ
 50
45.0000000000002
 41
1.199999999999998
  7
FX_VECTOR
 72
     5
 11
445.0570632945411
 21
201.7438461314552
 31
0.0
100
AcDbText
  0
LINE
  5
302
330
1F
100
AcDbEntity
  8
GR1_01
  6
Continuous
 62
     7
370
    25
100
AcDbLine
 10
439.9147446461834
 20
108.2842834094391
 30
0.0
 11
435.8999610080303
 21
112.7431523623034
 31
0.0
  0
LINE
  5
303
330
1F
100
AcDbEntity
  8
GR1_01
  6
Continuous
 62
     7
370
    25
100
AcDbLine
 10
435.8999610080303
 20
112.7431523623034
 30
0.0
 11
440.3588299608947
 21
116.7579360004566
 31
0.0
  0
LINE
  5
304
330
1F
100
AcDbEntity
  8
GR1_01
  6
Continuous
 62
     7
370
    25
100
AcDbLine
 10
440.3588299608947
 20
116.7579360004566
 30
0.0
 11
444.3736135990479
 21
112.2990670475922
 31
0.0
  0
LINE
  5
305
330
1F
100
AcDbEntity
  8
GR1_01
  6
Continuous
 62
     7
370
    25
100
AcDbLine
 10
444.3736135990479
 20
112.2990670475922
 30
0.0
 11
439.9147446461834
 21
108.2842834094391
 31
0.0
  0
LINE
  5
306
330
1F
100
AcDbEntity
  8
GR1_01
  6
Continuous
 62
     7
370
    25
100
AcDbLine
 10
442.0293744605624
 20
110.4191787229527
 30
0.0
 11
438.034856321544
 21
110.6285225479245
 31
0.0
  0
LINE
  5
307
330
1F
100
AcDbEntity
  8
GR1_01
  6
Continuous
 62
     7
370
    25
100
AcDbLine
 10
438.034856321544
 20
110.6285225479245
 30
0.0
 11
438.2219958807802
 21
114.199358057392
 31
0.0
  0
LINE
  5
308
330
1F
100
AcDbEntity
  8
GR1_01
  6
Continuous
 62
     7
370
    25
100
AcDbLine
 10
438.2219958807802
 20
114.199358057392
 30
0.0
 11
439.1682894592919
 21
113.1483925663944
 31
0.0
  0
LINE
  5
309
330
1F
100
AcDbEntity
  8
GR1_01
  6
Continuous
 62
     7
370
    25
100
AcDbLine
 10
439.1682894592919
 20
113.1483925663944
 30
0.0
 11
439.0858218125416
 21
111.5748161264362
 31
0.0
  0
LINE
  5
30A
330
1F
100
AcDbEntity
  8
GR1_01
  6
Continuous
 62
     7
370
    25
100
AcDbLine
 10
439.0858218125416
 20
111.5748161264362
 30
0.0
 11
441.0830808820507
 21
111.4701442139503
 31
0.0
  0
LINE
  5
30B
330
1F
100
AcDbEntity
  8
GR1_01
  6
Continuous
 62
     7
370
    25
100
AcDbLine
 10
441.0830808820507
 20
111.4701442139503
 30
0.0
 11
441.1877527945366
 21
113.4674032834594
 31
0.0
  0
LINE
  5
30C
330
1F
100
AcDbEntity
  8
GR1_01
  6
Continuous
 62
     7
370
    25
100
AcDbLine
 10
441.1877527945366
 20
113.4674032834594
 30
0.0
 11
440.1377219376046
 21
113.5224330688499
 31
0.0
  0
ARC
  5
30D
330
1F
100
AcDbEntity
  8
GR1_01
  6
Continuous
 62
     7
370
    25
100
AcDbCircle
 10
440.1324883419804
 20
113.4225701153744
 30
0.0
 40
0.1
100
AcDbArc
 50
87.0
 51
222.0
  0
LINE
  5
30E
330
1F
100
AcDbEntity
  8
GR1_01
  6
Continuous
 62
     7
370
    25
100
AcDbLine
 10
440.0581738594326
 20
113.3556570547385
 30
0.0
 11
440.5083597162777
 21
112.8556750081272
 31
0.0
  0
LINE
  5
30F
330
1F
100
AcDbEntity
  8
GR1_01
  6
Continuous
 62
     7
370
    25
100
AcDbLine
 10
440.5083597162777
 20
112.8556750081272
 30
0.0
 11
440.1367873035391
 21
112.5211097049478
 31
0.0
  0
LINE
  5
310
330
1F
100
AcDbEntity
  8
GR1_01
  6
Continuous
 62
     7
370
    25
100
AcDbLine
 10
440.1367873035391
 20
112.5211097049478
 30
0.0
 11
438.2442001465158
 21
114.6230406869428
 31
0.0
  0
LINE
  5
311
330
1F
100
AcDbEntity
  8
GR1_01
  6
Continuous
 62
     7
370
    25
100
AcDbLine
 10
438.2442001465158
 20
114.6230406869428
 30
0.0
 11
439.7485635406854
 21
115.9775755711467
 31
0.0
  0
LINE
  5
312
330
1F
100
AcDbEntity
  8
GR1_01
  6
Continuous
 62
     7
370
    25
100
AcDbLine
 10
439.7485635406854
 20
115.9775755711467
 30
0.0
 11
440.4176941470442
 21
115.2344307456693
 31
0.0
  0
LINE
  5
313
330
1F
100
AcDbEntity
  8
GR1_01
  6
Continuous
 62
     7
370
    25
100
AcDbLine
 10
440.4176941470442
 20
115.2344307456693
 30
0.0
 11
439.8358866099995
 21
114.7105688863113
 31
0.0
  0
ARC
  5
314
330
1F
100
AcDbEntity
  8
GR1_01
  6
Continuous
 62
     7
370
    25
100
AcDbCircle
 10
439.9027996706354
 20
114.6362544037636
 30
0.0
 40
0.1
100
AcDbArc
 50
132.0
 51
267.0000000000028
  0
LINE
  5
315
330
1F
100
AcDbEntity
  8
GR1_01
  6
Continuous
 62
     7
370
    25
100
AcDbLine
 10
439.8975660750111
 20
114.536391450288
 30
0.0
 11
442.2387182855341
 21
114.413696861971
 31
0.0
  0
LINE
  5
316
330
1F
100
AcDbEntity
  8
GR1_01
  6
Continuous
 62
     7
370
    25
100
AcDbLine
 10
442.2387182855341
 20
114.413696861971
 30
0.0
 11
442.0293744605624
 21
110.4191787229527
 31
0.0
  0
LINE
  5
317
330
1F
100
AcDbEntity
  8
GR1_01
  6
Continuous
 62
     7
370
    25
100
AcDbLine
 10
440.548088676597
 20
116.5477429022571
 30
0.0
 11
440.1486368626952
 21
116.5686772847542
 31
0.0
  0
LINE
  5
318
330
1F
100
AcDbEntity
  8
GR1_01
  6
Continuous
 62
     7
370
    25
100
AcDbLine
 10
440.7373473922993
 20
116.3375498040576
 30
0.0
 11
439.9384437644957
 21
116.3794185690519
 31
0.0
  0
LINE
  5
319
330
1F
100
AcDbEntity
  8
GR1_01
  6
Continuous
 62
     7
370
    25
100
AcDbLine
 10
440.9266061080017
 20
116.1273567058579
 30
0.0
 11
439.7282506662962
 21
116.1901598533496
 31
0.0
  0
LINE
  5
31A
330
1F
100
AcDbEntity
  8
GR1_01
  6
Continuous
 62
     7
370
    25
100
AcDbLine
 10
441.115864823704
 20
115.9171636076586
 30
0.0
 11
439.5180575680967
 21
116.0009011376472
 31
0.0
  0
LINE
  5
31B
330
1F
100
AcDbEntity
  8
GR1_01
  6
Continuous
 62
     7
370
    25
100
AcDbLine
 10
441.3051235394063
 20
115.706970509459
 30
0.0
 11
439.9271955222711
 21
115.7791846568489
 31
0.0
  0
LINE
  5
31C
330
1F
100
AcDbEntity
  8
GR1_01
  6
Continuous
 62
     7
370
    25
100
AcDbLine
 10
439.5501726263877
 20
115.7989435895611
 30
0.0
 11
439.3078644698971
 21
115.811642421945
 31
0.0
  0
LINE
  5
31D
330
1F
100
AcDbEntity
  8
GR1_01
  6
Continuous
 62
     7
370
    25
100
AcDbLine
 10
441.4943822551086
 20
115.4967774112595
 30
0.0
 11
440.1164542379734
 21
115.5689915586495
 31
0.0
  0
LINE
  5
31E
330
1F
100
AcDbEntity
  8
GR1_01
  6
Continuous
 62
     7
370
    25
100
AcDbLine
 10
439.3399795281882
 20
115.6096848738587
 30
0.0
 11
439.0976713716976
 21
115.6223837062426
 31
0.0
  0
LINE
  5
31F
330
1F
100
AcDbEntity
  8
GR1_01
  6
Continuous
 62
     7
370
    25
100
AcDbLine
 10
441.683640970811
 20
115.28658431306
 30
0.0
 11
440.3057129536757
 21
115.3587984604499
 31
0.0
  0
LINE
  5
320
330
1F
100
AcDbEntity
  8
GR1_01
  6
Continuous
 62
     7
370
    25
100
AcDbLine
 10
439.1297864299887
 20
115.4204261581564
 30
0.0
 11
438.8874782734981
 21
115.4331249905403
 31
0.0
  0
LINE
  5
321
330
1F
100
AcDbEntity
  8
GR1_01
  6
Continuous
 62
     7
370
    25
100
AcDbLine
 10
441.8728996865133
 20
115.0763912148605
 30
0.0
 11
440.3318687636254
 21
115.1571532233356
 31
0.0
  0
LINE
  5
322
330
1F
100
AcDbEntity
  8
GR1_01
  6
Continuous
 62
     7
370
    25
100
AcDbLine
 10
438.9195933317892
 20
115.2311674424541
 30
0.0
 11
438.6772851752987
 21
115.243866274838
 31
0.0
  0
LINE
  5
323
330
1F
100
AcDbEntity
  8
GR1_01
  6
Continuous
 62
     7
370
    25
100
AcDbLine
 10
442.0621584022156
 20
114.866198116661
 30
0.0
 11
440.1216756654259
 21
114.9678945076333
 31
0.0
  0
LINE
  5
324
330
1F
100
AcDbEntity
  8
GR1_01
  6
Continuous
 62
     7
370
    25
100
AcDbLine
 10
438.7094002335897
 20
115.0419087267517
 30
0.0
 11
438.4670920770991
 21
115.0546075591356
 31
0.0
  0
LINE
  5
325
330
1F
100
AcDbEntity
  8
GR1_01
  6
Continuous
 62
     7
370
    25
100
AcDbLine
 10
442.251417117918
 20
114.6560050184615
 30
0.0
 11
439.9114825672264
 21
114.7786357919309
 31
0.0
  0
LINE
  5
326
330
1F
100
AcDbEntity
  8
GR1_01
  6
Continuous
 62
     7
370
    25
100
AcDbLine
 10
438.4992071353902
 20
114.8526500110494
 30
0.0
 11
438.2568989788997
 21
114.8653488434333
 31
0.0
  0
LINE
  5
327
330
1F
100
AcDbEntity
  8
GR1_01
  6
Continuous
 62
     7
370
    25
100
AcDbLine
 10
442.4406758336203
 20
114.4458119202621
 30
0.0
 11
439.8179959409001
 21
114.5832607492098
 31
0.0
  0
LINE
  5
328
330
1F
100
AcDbEntity
  8
GR1_01
  6
Continuous
 62
     7
370
    25
100
AcDbLine
 10
438.2890140371907
 20
114.6633912953471
 30
0.0
 11
438.0467058807002
 21
114.676090127731
 31
0.0
  0
LINE
  5
329
330
1F
100
AcDbEntity
  8
GR1_01
  6
Continuous
 62
     7
370
    25
100
AcDbLine
 10
442.6299345493226
 20
114.2356188220625
 30
0.0
 11
442.2304827354208
 21
114.2565532045597
 31
0.0
  0
LINE
  5
32A
330
1F
100
AcDbEntity
  8
GR1_01
  6
Continuous
 62
     7
370
    25
100
AcDbLine
 10
438.3931082538138
 20
114.4576614794181
 30
0.0
 11
437.8365127825007
 21
114.4868314120286
 31
0.0
  0
LINE
  5
32B
330
1F
100
AcDbEntity
  8
GR1_01
  6
Continuous
 62
     7
370
    25
100
AcDbLine
 10
442.8191932650249
 20
114.0254257238631
 30
0.0
 11
442.2200155441722
 21
114.0568272976088
 31
0.0
  0
LINE
  5
32C
330
1F
100
AcDbEntity
  8
GR1_01
  6
Continuous
 62
     7
370
    25
100
AcDbLine
 10
438.5823669695162
 20
114.2474683812187
 30
0.0
 11
437.6263196843012
 21
114.2975726963263
 31
0.0
  0
LINE
  5
32D
330
1F
100
AcDbEntity
  8
GR1_01
  6
Continuous
 62
     7
370
    25
100
AcDbLine
 10
443.0084519807273
 20
113.8152326256634
 30
0.0
 11
442.2095483529235
 21
113.8571013906579
 31
0.0
  0
LINE
  5
32E
330
1F
100
AcDbEntity
  8
GR1_01
  6
Continuous
 62
     7
370
    25
100
AcDbLine
 10
438.7716256852184
 20
114.0372752830191
 30
0.0
 11
438.3479430556677
 21
114.0594795487546
 31
0.0
  0
LINE
  5
32F
330
1F
100
AcDbEntity
  8
GR1_01
  6
Continuous
 62
     7
370
    25
100
AcDbLine
 10
438.2150302139054
 20
114.0664452156296
 30
0.0
 11
437.4161265861017
 21
114.108313980624
 31
0.0
  0
LINE
  5
330
330
1F
100
AcDbEntity
  8
GR1_01
  6
Continuous
 62
     7
370
    25
100
AcDbLine
 10
443.1977106964296
 20
113.605039527464
 30
0.0
 11
442.1990811616749
 21
113.657375483707
 31
0.0
  0
LINE
  5
331
330
1F
100
AcDbEntity
  8
GR1_01
  6
Continuous
 62
     7
370
    25
100
AcDbLine
 10
438.9608844009208
 20
113.8270821848196
 30
0.0
 11
438.53720177137
 21
113.8492864505552
 31
0.0
  0
LINE
  5
332
330
1F
100
AcDbEntity
  8
GR1_01
  6
Continuous
 62
     7
370
    25
100
AcDbLine
 10
438.2045630226568
 20
113.8667193086787
 30
0.0
 11
437.2059334879021
 21
113.9190552649216
 31
0.0
  0
LINE
  5
333
330
1F
100
AcDbEntity
  8
GR1_01
  6
Continuous
 62
     7
370
    25
100
AcDbLine
 10
443.3869694121319
 20
113.3948464292644
 30
0.0
 11
442.1886139704264
 21
113.4576495767561
 31
0.0
  0
LINE
  5
334
330
1F
100
AcDbEntity
  8
GR1_01
  6
Continuous
 62
     7
370
    25
100
AcDbLine
 10
439.1501431166231
 20
113.6168890866201
 30
0.0
 11
438.7264604870722
 21
113.6390933523556
 31
0.0
  0
LINE
  5
335
330
1F
100
AcDbEntity
  8
GR1_01
  6
Continuous
 62
     7
370
    25
100
AcDbLine
 10
438.1940958314082
 20
113.6669934017278
 30
0.0
 11
436.9957403897026
 21
113.7297965492193
 31
0.0
  0
LINE
  5
336
330
1F
100
AcDbEntity
  8
GR1_01
  6
Continuous
 62
     7
370
    25
100
AcDbLine
 10
443.5762281278342
 20
113.184653331065
 30
0.0
 11
442.1781467791778
 21
113.2579236698051
 31
0.0
  0
LINE
  5
337
330
1F
100
AcDbEntity
  8
GR1_01
  6
Continuous
 62
     7
370
    25
100
AcDbLine
 10
441.1795172444232
 20
113.3102596260481
 30
0.0
 11
440.047684612245
 21
113.3695764608206
 31
0.0
  0
LINE
  5
338
330
1F
100
AcDbEntity
  8
GR1_01
  6
Continuous
 62
     7
370
    25
100
AcDbLine
 10
439.3394018323255
 20
113.4066959884206
 30
0.0
 11
438.9157192027745
 21
113.4289002541562
 31
0.0
  0
LINE
  5
339
330
1F
100
AcDbEntity
  8
GR1_01
  6
Continuous
 62
     7
370
    25
100
AcDbLine
 10
438.1836286401596
 20
113.4672674947769
 30
0.0
 11
436.7855472915031
 21
113.540537833517
 31
0.0
  0
LINE
  5
33A
330
1F
100
AcDbEntity
  8
GR1_01
  6
Continuous
 62
     7
370
    25
100
AcDbLine
 10
443.7654868435366
 20
112.9744602328655
 30
0.0
 11
442.1676795879292
 21
113.0581977628543
 31
0.0
  0
LINE
  5
33B
330
1F
100
AcDbEntity
  8
GR1_01
  6
Continuous
 62
     7
370
    25
100
AcDbLine
 10
441.1690500531747
 20
113.1105337190971
 30
0.0
 11
440.2347982639459
 21
113.1594957806618
 31
0.0
  0
LINE
  5
33C
330
1F
100
AcDbEntity
  8
GR1_01
  6
Continuous
 62
     7
370
    25
100
AcDbLine
 10
439.5286605480278
 20
113.1965028902211
 30
0.0
 11
439.1049779184769
 21
113.2187071559566
 31
0.0
  0
LINE
  5
33D
330
1F
100
AcDbEntity
  8
GR1_01
  6
Continuous
 62
     7
370
    25
100
AcDbLine
 10
438.1731614489111
 20
113.267541587826
 30
0.0
 11
436.5753541933036
 21
113.3512791178147
 31
0.0
  0
LINE
  5
33E
330
1F
100
AcDbEntity
  8
GR1_01
  6
Continuous
 62
     7
370
    25
100
AcDbLine
 10
443.9547455592389
 20
112.764267134666
 30
0.0
 11
442.1572123966806
 21
112.8584718559032
 31
0.0
  0
LINE
  5
33F
330
1F
100
AcDbEntity
  8
GR1_01
  6
Continuous
 62
     7
370
    25
100
AcDbLine
 10
441.1585828619261
 20
112.9108078121463
 30
0.0
 11
440.4240569796482
 21
112.9493026824624
 31
0.0
  0
LINE
  5
340
330
1F
100
AcDbEntity
  8
GR1_01
  6
Continuous
 62
     7
370
    25
100
AcDbLine
 10
439.7179192637301
 20
112.9863097920216
 30
0.0
 11
439.161323792417
 21
113.0154797246321
 31
0.0
  0
LINE
  5
341
330
1F
100
AcDbEntity
  8
GR1_01
  6
Continuous
 62
     7
370
    25
100
AcDbLine
 10
438.1626942576625
 20
113.0678156808751
 30
0.0
 11
436.3651610951042
 21
113.1620204021123
 31
0.0
  0
LINE
  5
342
330
1F
100
AcDbEntity
  8
GR1_01
  6
Continuous
 62
     7
370
    25
100
AcDbLine
 10
444.1440042749412
 20
112.5540740364665
 30
0.0
 11
442.146745205432
 21
112.6587459489525
 31
0.0
  0
LINE
  5
343
330
1F
100
AcDbEntity
  8
GR1_01
  6
Continuous
 62
     7
370
    25
100
AcDbLine
 10
441.1481156706775
 20
112.7110819051953
 30
0.0
 11
440.3917942924134
 21
112.7507190290544
 31
0.0
  0
LINE
  5
344
330
1F
100
AcDbEntity
  8
GR1_01
  6
Continuous
 62
     7
370
    25
100
AcDbLine
 10
439.9071779794324
 20
112.7761166938222
 30
0.0
 11
439.1508566011684
 21
112.8157538176812
 31
0.0
  0
LINE
  5
345
330
1F
100
AcDbEntity
  8
GR1_01
  6
Continuous
 62
     7
370
    25
100
AcDbLine
 10
438.1522270664138
 20
112.8680897739242
 30
0.0
 11
436.1549679969046
 21
112.97276168641
 31
0.0
  0
LINE
  5
346
330
1F
100
AcDbEntity
  8
GR1_01
  6
Continuous
 62
     7
370
    25
100
AcDbLine
 10
444.3332629906436
 20
112.343880938267
 30
0.0
 11
442.1362780141835
 21
112.4590200420014
 31
0.0
  0
LINE
  5
347
330
1F
100
AcDbEntity
  8
GR1_01
  6
Continuous
 62
     7
370
    25
100
AcDbLine
 10
441.1376484794289
 20
112.5113559982444
 30
0.0
 11
440.1816011942138
 21
112.561460313352
 31
0.0
  0
LINE
  5
348
330
1F
100
AcDbEntity
  8
GR1_01
  6
Continuous
 62
     7
370
    25
100
AcDbLine
 10
440.0964366951348
 20
112.5659235956226
 30
0.0
 11
439.1403894099199
 21
112.6160279107303
 31
0.0
  0
LINE
  5
349
330
1F
100
AcDbEntity
  8
GR1_01
  6
Continuous
 62
     7
370
    25
100
AcDbLine
 10
438.1417598751652
 20
112.6683638669732
 30
0.0
 11
435.9447748987051
 21
112.7835029707077
 31
0.0
  0
LINE
  5
34A
330
1F
100
AcDbEntity
  8
GR1_01
  6
Continuous
 62
     7
370
    25
100
AcDbLine
 10
444.2082343915231
 20
112.1501589402941
 30
0.0
 11
442.1258108229349
 21
112.2592941350505
 31
0.0
  0
LINE
  5
34B
330
1F
100
AcDbEntity
  8
GR1_01
  6
Continuous
 62
     7
370
    25
100
AcDbLine
 10
441.1271812881803
 20
112.3116300912935
 30
0.0
 11
439.1299222186713
 21
112.4163020037793
 31
0.0
  0
LINE
  5
34C
330
1F
100
AcDbEntity
  8
GR1_01
  6
Continuous
 62
     7
370
    25
100
AcDbLine
 10
438.1312926839166
 20
112.4686379600224
 30
0.0
 11
436.0488691153283
 21
112.5777731547788
 31
0.0
  0
LINE
  5
34D
330
1F
100
AcDbEntity
  8
GR1_01
  6
Continuous
 62
     7
370
    25
100
AcDbLine
 10
443.9980412933236
 20
111.9609002245919
 30
0.0
 11
442.1153436316863
 21
112.0595682280996
 31
0.0
  0
LINE
  5
34E
330
1F
100
AcDbEntity
  8
GR1_01
  6
Continuous
 62
     7
370
    25
100
AcDbLine
 10
441.1167140969317
 20
112.1119041843426
 30
0.0
 11
439.1194550274225
 21
112.2165760968285
 31
0.0
  0
LINE
  5
34F
330
1F
100
AcDbEntity
  8
GR1_01
  6
Continuous
 62
     7
370
    25
100
AcDbLine
 10
438.120825492668
 20
112.2689120530713
 30
0.0
 11
436.2381278310306
 21
112.3675800565791
 31
0.0
  0
LINE
  5
350
330
1F
100
AcDbEntity
  8
GR1_01
  6
Continuous
 62
     7
370
    25
100
AcDbLine
 10
443.7878481951241
 20
111.7716415088894
 30
0.0
 11
442.1048764404377
 21
111.8598423211487
 31
0.0
  0
LINE
  5
351
330
1F
100
AcDbEntity
  8
GR1_01
  6
Continuous
 62
     7
370
    25
100
AcDbLine
 10
441.1062469056831
 20
111.9121782773917
 30
0.0
 11
439.1089878361739
 21
112.0168501898775
 31
0.0
  0
LINE
  5
352
330
1F
100
AcDbEntity
  8
GR1_01
  6
Continuous
 62
     7
370
    25
100
AcDbLine
 10
438.1103583014194
 20
112.0691861461206
 30
0.0
 11
436.427386546733
 21
112.1573869583797
 31
0.0
  0
LINE
  5
353
330
1F
100
AcDbEntity
  8
GR1_01
  6
Continuous
 62
     7
370
    25
100
AcDbLine
 10
443.5776550969246
 20
111.5823827931873
 30
0.0
 11
442.0944092491891
 21
111.6601164141978
 31
0.0
  0
LINE
  5
354
330
1F
100
AcDbEntity
  8
GR1_01
  6
Continuous
 62
     7
370
    25
100
AcDbLine
 10
441.0957797144346
 20
111.7124523704408
 30
0.0
 11
439.0985206449254
 21
111.8171242829266
 31
0.0
  0
LINE
  5
355
330
1F
100
AcDbEntity
  8
GR1_01
  6
Continuous
 62
     7
370
    25
100
AcDbLine
 10
438.0998911101708
 20
111.8694602391695
 30
0.0
 11
436.6166452624353
 21
111.9471938601801
 31
0.0
  0
LINE
  5
356
330
1F
100
AcDbEntity
  8
GR1_01
  6
Continuous
 62
     7
370
    25
100
AcDbLine
 10
443.367461998725
 20
111.3931240774849
 30
0.0
 11
442.0839420579405
 21
111.4603905072468
 31
0.0
  0
LINE
  5
357
330
1F
100
AcDbEntity
  8
GR1_01
  6
Continuous
 62
     7
370
    25
100
AcDbLine
 10
441.085312523186
 20
111.5127264634899
 30
0.0
 11
439.0880534536768
 21
111.6173983759757
 31
0.0
  0
LINE
  5
358
330
1F
100
AcDbEntity
  8
GR1_01
  6
Continuous
 62
     7
370
    25
100
AcDbLine
 10
438.0894239189222
 20
111.6697343322186
 30
0.0
 11
436.8059039781376
 21
111.7370007619807
 31
0.0
  0
LINE
  5
359
330
1F
100
AcDbEntity
  8
GR1_01
  6
Continuous
 62
     7
370
    25
100
AcDbLine
 10
443.1572689005257
 20
111.2038653617824
 30
0.0
 11
442.0734748666919
 21
111.260664600296
 31
0.0
  0
LINE
  5
35A
330
1F
100
AcDbEntity
  8
GR1_01
  6
Continuous
 62
     7
370
    25
100
AcDbLine
 10
438.0789567276736
 20
111.4700084252677
 30
0.0
 11
436.99516269384
 21
111.5268076637811
 31
0.0
  0
LINE
  5
35B
330
1F
100
AcDbEntity
  8
GR1_01
  6
Continuous
 62
     7
370
    25
100
AcDbLine
 10
442.947075802326
 20
111.0146066460803
 30
0.0
 11
442.0630076754434
 21
111.060938693345
 31
0.0
  0
LINE
  5
35C
330
1F
100
AcDbEntity
  8
GR1_01
  6
Continuous
 62
     7
370
    25
100
AcDbLine
 10
438.0684895364251
 20
111.2702825183168
 30
0.0
 11
437.1844214095423
 21
111.3166145655817
 31
0.0
  0
LINE
  5
35D
330
1F
100
AcDbEntity
  8
GR1_01
  6
Continuous
 62
     7
370
    25
100
AcDbLine
 10
442.7368827041266
 20
110.8253479303779
 30
0.0
 11
442.0525404841948
 21
110.8612127863941
 31
0.0
  0
LINE
  5
35E
330
1F
100
AcDbEntity
  8
GR1_01
  6
Continuous
 62
     7
370
    25
100
AcDbLine
 10
438.0580223451765
 20
111.0705566113659
 30
0.0
 11
437.3736801252446
 21
111.1064214673822
 31
0.0
  0
LINE
  5
35F
330
1F
100
AcDbEntity
  8
GR1_01
  6
Continuous
 62
     7
370
    25
100
AcDbLine
 10
442.5266896059271
 20
110.6360892146756
 30
0.0
 11
442.0420732929462
 21
110.6614868794432
 31
0.0
  0
LINE
  5
360
330
1F
100
AcDbEntity
  8
GR1_01
  6
Continuous
 62
     7
370
    25
100
AcDbLine
 10
438.0475551539279
 20
110.8708307044149
 30
0.0
 11
437.5629388409469
 21
110.8962283691827
 31
0.0
  0
LINE
  5
361
330
1F
100
AcDbEntity
  8
GR1_01
  6
Continuous
 62
     7
370
    25
100
AcDbLine
 10
442.3164965077276
 20
110.4468304989733
 30
0.0
 11
442.0316061016975
 21
110.4617609724923
 31
0.0
  0
LINE
  5
362
330
1F
100
AcDbEntity
  8
GR1_01
  6
Continuous
 62
     7
370
    25
100
AcDbLine
 10
438.0370879626793
 20
110.6711047974641
 30
0.0
 11
437.7521975566493
 21
110.6860352709832
 31
0.0
  0
LINE
  5
363
330
1F
100
AcDbEntity
  8
GR1_01
  6
Continuous
 62
     7
370
    25
100
AcDbLine
 10
442.1063034095281
 20
110.2575717832709
 30
0.0
 11
437.9414562723516
 21
110.4758421727836
 31
0.0
  0
LINE
  5
364
330
1F
100
AcDbEntity
  8
GR1_01
  6
Continuous
 62
     7
370
    25
100
AcDbLine
 10
441.8961103113286
 20
110.0683130675686
 30
0.0
 11
438.1307149880539
 21
110.2656490745841
 31
0.0
  0
LINE
  5
365
330
1F
100
AcDbEntity
  8
GR1_01
  6
Continuous
 62
     7
370
    25
100
AcDbLine
 10
441.6859172131291
 20
109.8790543518663
 30
0.0
 11
438.3199737037562
 21
110.0554559763846
 31
0.0
  0
LINE
  5
366
330
1F
100
AcDbEntity
  8
GR1_01
  6
Continuous
 62
     7
370
    25
100
AcDbLine
 10
441.4757241149296
 20
109.6897956361639
 30
0.0
 11
438.5092324194585
 21
109.8452628781852
 31
0.0
  0
LINE
  5
367
330
1F
100
AcDbEntity
  8
GR1_01
  6
Continuous
 62
     7
370
    25
100
AcDbLine
 10
441.2655310167301
 20
109.5005369204616
 30
0.0
 11
438.6984911351609
 21
109.6350697799856
 31
0.0
  0
LINE
  5
368
330
1F
100
AcDbEntity
  8
GR1_01
  6
Continuous
 62
     7
370
    25
100
AcDbLine
 10
441.0553379185305
 20
109.3112782047593
 30
0.0
 11
438.8877498508632
 21
109.4248766817862
 31
0.0
  0
LINE
  5
369
330
1F
100
AcDbEntity
  8
GR1_01
  6
Continuous
 62
     7
370
    25
100
AcDbLine
 10
440.845144820331
 20
109.1220194890569
 30
0.0
 11
439.0770085665656
 21
109.2146835835866
 31
0.0
  0
LINE
  5
36A
330
1F
100
AcDbEntity
  8
GR1_01
  6
Continuous
 62
     7
370
    25
100
AcDbLine
 10
440.6349517221315
 20
108.9327607733547
 30
0.0
 11
439.2662672822679
 21
109.0044904853872
 31
0.0
  0
LINE
  5
36B
330
1F
100
AcDbEntity
  8
GR1_01
  6
Continuous
 62
     7
370
    25
100
AcDbLine
 10
440.4247586239321
 20
108.7435020576523
 30
0.0
 11
439.4555259979702
 21
108.7942973871876
 31
0.0
  0
LINE
  5
36C
330
1F
100
AcDbEntity
  8
GR1_01
  6
Continuous
 62
     7
370
    25
100
AcDbLine
 10
440.2145655257325
 20
108.55424334195
 30
0.0
 11
439.6447847136725
 21
108.5841042889882
 31
0.0
  0
LINE
  5
36D
330
1F
100
AcDbEntity
  8
GR1_01
  6
Continuous
 62
     7
370
    25
100
AcDbLine
 10
440.004372427533
 20
108.3649846262477
 30
0.0
 11
439.8340434293749
 21
108.3739111907886
 31
0.0
  0
TEXT
  5
36E
330
1F
100
AcDbEntity
  8
基準ﾚｲﾔｸﾞﾙｰﾌﾟ_01
  6
Continuous
 62
     7
370
    25
100
AcDbText
 10
456.8522338867188
 20
134.8070526123047
 30
0.0
 40
6.339135646820068
  1
Ｗ
 50
121.0000000000003
 41
1.120650308019382
  7
FX_VECTOR
 72
     5
 11
454.2388003476172
 21
139.156536429918
 31
0.0
100
AcDbText
  0
TEXT
  5
36F
330
1F
100
AcDbEntity
  8
基準ﾚｲﾔｸﾞﾙｰﾌﾟ_01
  6
Continuous
 62
     7
370
    25
100
AcDbText
 10
450.4880065917969
 20
151.2299499511719
 30
0.0
 40
6.2511305809021
  1
０
 50
94.49999999999976
 41
1.174940552974613
  7
FX_VECTOR
 72
     5
 11
450.0763929806566
 21
156.459996766517
 31
0.0
100
AcDbText
  0
TEXT
  5
370
330
1F
100
AcDbEntity
  8
基準ﾚｲﾔｸﾞﾙｰﾌﾟ_01
  6
Continuous
 62
     7
370
    25
100
AcDbText
 10
451.3065185546875
 20
146.6378326416016
 30
0.0
 40
6.072946071624756
  1
５
 50
101.5000000000001
 41
1.132139541709332
  7
FX_VECTOR
 72
     5
 11
450.3274194413905
 21
151.450258532439
 31
0.0
100
AcDbText
  0
TEXT
  5
371
330
1F
100
AcDbEntity
  8
基準ﾚｲﾔｸﾞﾙｰﾌﾟ_01
  6
Continuous
 62
     7
370
    25
100
AcDbText
 10
452.5162048339844
 20
143.0984649658203
 30
0.0
 40
6.142267227172852
  1
１
 50
107.9999999999997
 41
0.8047254509416272
  7
FX_VECTOR
 72
     5
 11
451.42518970642
 21
146.4562642627345
 31
0.0
100
AcDbText
  0
TEXT
  5
372
330
1F
100
AcDbEntity
  8
基準ﾚｲﾔｸﾞﾙｰﾌﾟ_01
  6
Continuous
 62
     7
370
    25
100
AcDbText
 10
454.3053283691406
 20
138.7690124511719
 30
0.0
 40
6.0
  1
－
 50
114.4481811523437
 41
0.9333333333333325
  7
FX_VECTOR
 72
     5
 11
452.6498479869636
 21
142.4103562558993
 31
0.0
100
AcDbText
  0
ARC
  5
373
330
1F
100
AcDbEntity
  8
GR1_01
  6
Continuous
 62
     3
370
    50
100
AcDbCircle
 10
489.5559182411118
 20
157.0182950538284
 30
0.0
 40
75.0
100
AcDbArc
 50
124.9942054803698
 51
43.25969093991829
  0
ARC
  5
374
330
1F
100
AcDbEntity
  8
基準ﾚｲﾔｸﾞﾙｰﾌﾟ_01
  6
Continuous
 62
     6
370
    25
100
AcDbCircle
 10
489.5559182324573
 20
157.0182950191572
 30
0.0
 40
53.5
100
AcDbArc
 50
104.7299696736863
 51
35.23119252756621
  0
ARC
  5
375
330
1F
100
AcDbEntity
  8
基準ﾚｲﾔｸﾞﾙｰﾌﾟ_01
  6
Continuous
 62
     6
370
    25
100
AcDbCircle
 10
489.5559182324573
 20
157.0182950191572
 30
0.0
 40
30.0
100
AcDbArc
 50
135.0054916198745
 51
8.563393196939725
  0
LINE
  5
376
330
1F
100
AcDbEntity
  8
基準ﾚｲﾔｸﾞﾙｰﾌﾟ_01
  6
DASHED
 62
     6
370
    25
100
AcDbLine
 10
463.5788426415724
 20
172.0994602176905
 30
0.0
 11
443.8700842948551
 21
184.898477540544
 31
0.0
  0
LINE
  5
377
330
1F
100
AcDbEntity
  8
基準ﾚｲﾔｸﾞﾙｰﾌﾟ_01
  6
DASHED
 62
     6
370
    25
100
AcDbLine
 10
459.6755361241844
 20
160.0863180085767
 30
0.0
 11
436.2077420574519
 21
161.3162129802855
 31
0.0
  0
LINE
  5
378
330
1F
100
AcDbEntity
  8
基準ﾚｲﾔｸﾞﾙｰﾌﾟ_01
  6
Continuous
 62
     6
370
    25
100
AcDbLine
 10
461.1183070865087
 20
175.4858956297353
 30
0.0
 11
449.5769176245187
 21
182.9809615824016
 31
0.0
  0
LINE
  5
379
330
1F
100
AcDbEntity
  8
基準ﾚｲﾔｸﾞﾙｰﾌﾟ_01
  6
Continuous
 62
     6
370
    25
100
AcDbLine
 10
455.6944242518332
 20
158.7929007218871
 30
0.0
 11
441.9517548064466
 21
159.5131235089405
 31
0.0
  0
ARC
  5
37A
330
1F
100
AcDbEntity
  8
基準ﾚｲﾔｸﾞﾙｰﾌﾟ_01
  6
Continuous
 62
     6
370
    25
100
AcDbCircle
 10
443.0412492043381
 20
172.9169147670567
 30
0.0
 40
12.0
100
AcDbArc
 50
56.99999999999892
 51
85.95502437185871
  0
ARC
  5
37B
330
1F
100
AcDbEntity
  8
基準ﾚｲﾔｸﾞﾙｰﾌﾟ_01
  6
Continuous
 62
     6
370
    25
100
AcDbCircle
 10
442.5797862813617
 20
171.4966779259952
 30
0.0
 40
12.0
100
AcDbArc
 50
238.0449756281413
 51
267.0000000000011
  0
ARC
  5
37C
330
1F
100
AcDbEntity
  8
基準ﾚｲﾔｸﾞﾙｰﾌﾟ_01
  6
Continuous
 62
     6
370
    25
100
AcDbCircle
 10
455.5635843612258
 20
156.2963268850006
 30
0.0
 40
2.5
100
AcDbArc
 50
1.216730478853435
 51
87.00000000000108
  0
LINE
  5
37D
330
1F
100
AcDbEntity
  8
基準ﾚｲﾔｸﾞﾙｰﾌﾟ_01
  6
Continuous
 62
     6
370
    25
100
AcDbLine
 10
458.063020675287
 20
156.349412777218
 30
0.0
 11
459.6755361241844
 21
160.0863180085767
 31
0.0
  0
LINE
  5
37E
330
1F
100
AcDbEntity
  8
基準ﾚｲﾔｸﾞﾙｰﾌﾟ_01
  6
Continuous
 62
     6
370
    25
100
AcDbLine
 10
459.6755361241844
 20
160.0863180085767
 30
0.0
 11
455.6944242518332
 21
158.7929007218871
 31
0.0
  0
ARC
  5
37F
330
1F
100
AcDbEntity
  8
基準ﾚｲﾔｸﾞﾙｰﾌﾟ_01
  6
Continuous
 62
     6
370
    25
100
AcDbCircle
 10
462.4799046740463
 20
177.5825720495988
 30
0.0
 40
2.5
100
AcDbArc
 50
236.9999999999989
 51
322.7832695211466
  0
LINE
  5
380
330
1F
100
AcDbEntity
  8
基準ﾚｲﾔｸﾞﾙｰﾌﾟ_01
  6
Continuous
 62
     6
370
    25
100
AcDbLine
 10
464.4707880239295
 20
176.070492856184
 30
0.0
 11
463.5788426415724
 21
172.0994602176906
 31
0.0
  0
LINE
  5
381
330
1F
100
AcDbEntity
  8
基準ﾚｲﾔｸﾞﾙｰﾌﾟ_01
  6
Continuous
 62
     6
370
    25
100
AcDbLine
 10
463.5788426415724
 20
172.0994602176906
 30
0.0
 11
461.1183070865087
 21
175.4858956297353
 31
0.0
  0
LINE
  5
382
330
1F
100
AcDbEntity
  8
基準ﾚｲﾔｸﾞﾙｰﾌﾟ_01
  6
DASHED
 62
     6
370
    25
100
AcDbLine
 10
467.1855199753224
 20
136.9729643454772
 30
0.0
 11
448.9225898810832
 21
122.1839351558064
 31
0.0
  0
LINE
  5
383
330
1F
100
AcDbEntity
  8
基準ﾚｲﾔｸﾞﾙｰﾌﾟ_01
  6
DASHED
 62
     6
370
    25
100
AcDbLine
 10
477.404509106353
 20
129.5484341485588
 30
0.0
 11
468.9828622920389
 21
107.6092941258745
 31
0.0
  0
LINE
  5
384
330
1F
100
AcDbEntity
  8
基準ﾚｲﾔｸﾞﾙｰﾌﾟ_01
  6
Continuous
 62
     6
370
    25
100
AcDbLine
 10
463.2044812079062
 20
135.6793220649329
 30
0.0
 11
452.5097644111059
 21
127.0189111633421
 31
0.0
  0
LINE
  5
385
330
1F
100
AcDbEntity
  8
基準ﾚｲﾔｸﾞﾙｰﾌﾟ_01
  6
Continuous
 62
     6
370
    25
100
AcDbLine
 10
477.4043908200836
 20
125.3624838378538
 30
0.0
 11
472.4726998385704
 21
112.5149895914641
 31
0.0
  0
ARC
  5
386
330
1F
100
AcDbEntity
  8
基準ﾚｲﾔｸﾞﾙｰﾌﾟ_01
  6
Continuous
 62
     6
370
    25
100
AcDbCircle
 10
460.0616091037039
 20
117.6931596258583
 30
0.0
 40
12.0
100
AcDbArc
 50
128.9999999999989
 51
157.9550243718587
  0
ARC
  5
387
330
1F
100
AcDbEntity
  8
基準ﾚｲﾔｸﾞﾙｰﾌﾟ_01
  6
Continuous
 62
     6
370
    25
100
AcDbCircle
 10
461.2697347206042
 20
116.8154049860075
 30
0.0
 40
12.0
100
AcDbArc
 50
310.0449756281413
 51
339.0000000000011
  0
ARC
  5
388
330
1F
100
AcDbEntity
  8
基準ﾚｲﾔｸﾞﾙｰﾌﾟ_01
  6
Continuous
 62
     6
370
    25
100
AcDbCircle
 10
479.7383418863267
 20
124.4665639639906
 30
0.0
 40
2.5
100
AcDbArc
 50
73.21673047885344
 51
159.0000000000011
  0
LINE
  5
389
330
1F
100
AcDbEntity
  8
基準ﾚｲﾔｸﾞﾙｰﾌﾟ_01
  6
Continuous
 62
     6
370
    25
100
AcDbLine
 10
480.4602225000127
 20
126.8600736003999
 30
0.0
 11
477.404509106353
 21
129.5484341485588
 31
0.0
  0
LINE
  5
38A
330
1F
100
AcDbEntity
  8
基準ﾚｲﾔｸﾞﾙｰﾌﾟ_01
  6
Continuous
 62
     6
370
    25
100
AcDbLine
 10
477.404509106353
 20
129.5484341485588
 30
0.0
 11
477.4043908200836
 21
125.3624838378538
 31
0.0
  0
ARC
  5
38B
330
1F
100
AcDbEntity
  8
基準ﾚｲﾔｸﾞﾙｰﾌﾟ_01
  6
Continuous
 62
     6
370
    25
100
AcDbCircle
 10
461.6311802302815
 20
137.6221869685754
 30
0.0
 40
2.5
100
AcDbArc
 50
308.9999999999989
 51
34.78326952114655
  0
LINE
  5
38C
330
1F
100
AcDbEntity
  8
基準ﾚｲﾔｸﾞﾙｰﾌﾟ_01
  6
Continuous
 62
     6
370
    25
100
AcDbLine
 10
463.684469789265
 20
139.0483713840594
 30
0.0
 11
467.1855199753223
 21
136.9729643454772
 31
0.0
  0
LINE
  5
38D
330
1F
100
AcDbEntity
  8
基準ﾚｲﾔｸﾞﾙｰﾌﾟ_01
  6
Continuous
 62
     6
370
    25
100
AcDbLine
 10
467.1855199753223
 20
136.9729643454772
 30
0.0
 11
463.2044812079062
 21
135.6793220649329
 31
0.0
  0
LINE
  5
38E
330
1F
100
AcDbEntity
  8
基準ﾚｲﾔｸﾞﾙｰﾌﾟ_01
  6
DASHED
 62
     6
370
    25
100
AcDbLine
 10
501.7073273585614
 20
129.5484341485588
 30
0.0
 11
510.1289741728756
 21
107.6092941258744
 31
0.0
  0
LINE
  5
38F
330
1F
100
AcDbEntity
  8
基準ﾚｲﾔｸﾞﾙｰﾌﾟ_01
  6
DASHED
 62
     6
370
    25
100
AcDbLine
 10
511.926316489592
 20
136.9729643454771
 30
0.0
 11
530.1892465838312
 21
122.1839351558063
 31
0.0
  0
LINE
  5
390
330
1F
100
AcDbEntity
  8
基準ﾚｲﾔｸﾞﾙｰﾌﾟ_01
  6
Continuous
 62
     6
370
    25
100
AcDbLine
 10
501.7074456448308
 20
125.3624838378537
 30
0.0
 11
506.6391366263439
 21
112.5149895914641
 31
0.0
  0
LINE
  5
391
330
1F
100
AcDbEntity
  8
基準ﾚｲﾔｸﾞﾙｰﾌﾟ_01
  6
Continuous
 62
     6
370
    25
100
AcDbLine
 10
515.9073552570084
 20
135.6793220649328
 30
0.0
 11
526.6020720538086
 21
127.018911163342
 31
0.0
  0
ARC
  5
392
330
1F
100
AcDbEntity
  8
基準ﾚｲﾔｸﾞﾙｰﾌﾟ_01
  6
Continuous
 62
     6
370
    25
100
AcDbCircle
 10
517.8421017443104
 20
116.8154049860075
 30
0.0
 40
12.0
100
AcDbArc
 50
200.9999999999989
 51
229.9550243718587
  0
ARC
  5
393
330
1F
100
AcDbEntity
  8
基準ﾚｲﾔｸﾞﾙｰﾌﾟ_01
  6
Continuous
 62
     6
370
    25
100
AcDbCircle
 10
519.0502273612108
 20
117.6931596258583
 30
0.0
 40
12.0
100
AcDbArc
 50
22.04497562814129
 51
51.00000000000114
  0
ARC
  5
394
330
1F
100
AcDbEntity
  8
基準ﾚｲﾔｸﾞﾙｰﾌﾟ_01
  6
Continuous
 62
     6
370
    25
100
AcDbCircle
 10
517.4806562346329
 20
137.6221869685753
 30
0.0
 40
2.5
100
AcDbArc
 50
145.2167304788534
 51
231.0000000000011
  0
LINE
  5
395
330
1F
100
AcDbEntity
  8
基準ﾚｲﾔｸﾞﾙｰﾌﾟ_01
  6
Continuous
 62
     6
370
    25
100
AcDbLine
 10
515.4273666756494
 20
139.0483713840593
 30
0.0
 11
511.926316489592
 21
136.9729643454771
 31
0.0
  0
LINE
  5
396
330
1F
100
AcDbEntity
  8
基準ﾚｲﾔｸﾞﾙｰﾌﾟ_01
  6
Continuous
 62
     6
370
    25
100
AcDbLine
 10
511.926316489592
 20
136.9729643454771
 30
0.0
 11
515.9073552570084
 21
135.6793220649328
 31
0.0
  0
ARC
  5
397
330
1F
100
AcDbEntity
  8
基準ﾚｲﾔｸﾞﾙｰﾌﾟ_01
  6
Continuous
 62
     6
370
    25
100
AcDbCircle
 10
499.3734945785877
 20
124.4665639639905
 30
0.0
 40
2.5
100
AcDbArc
 50
20.99999999999892
 51
106.7832695211466
  0
LINE
  5
398
330
1F
100
AcDbEntity
  8
基準ﾚｲﾔｸﾞﾙｰﾌﾟ_01
  6
Continuous
 62
     6
370
    25
100
AcDbLine
 10
498.6516139649017
 20
126.8600736003999
 30
0.0
 11
501.7073273585613
 21
129.5484341485588
 31
0.0
  0
LINE
  5
399
330
1F
100
AcDbEntity
  8
基準ﾚｲﾔｸﾞﾙｰﾌﾟ_01
  6
Continuous
 62
     6
370
    25
100
AcDbLine
 10
501.7073273585613
 20
129.5484341485588
 30
0.0
 11
501.7074456448308
 21
125.3624838378537
 31
0.0
  0
LINE
  5
39A
330
1F
100
AcDbEntity
  8
基準ﾚｲﾔｸﾞﾙｰﾌﾟ_01
  6
DASHED
 62
     6
370
    25
100
AcDbLine
 10
519.4363003407301
 20
160.0863180085767
 30
0.0
 11
542.9040944074627
 21
161.3162129802853
 31
0.0
  0
LINE
  5
39B
330
1F
100
AcDbEntity
  8
基準ﾚｲﾔｸﾞﾙｰﾌﾟ_01
  6
DASHED
 62
     6
370
    25
100
AcDbLine
 10
529.7868742361327
 20
181.3560383902862
 30
0.0
 11
535.2417521700594
 21
184.8984775405439
 31
0.0
  0
LINE
  5
39C
330
1F
100
AcDbEntity
  8
基準ﾚｲﾔｸﾞﾙｰﾌﾟ_01
  6
Continuous
 62
     6
370
    25
100
AcDbLine
 10
523.4174122130813
 20
158.792900721887
 30
0.0
 11
537.160081658468
 21
159.5131235089403
 31
0.0
  0
ARC
  5
39D
330
1F
100
AcDbEntity
  8
基準ﾚｲﾔｸﾞﾙｰﾌﾟ_01
  6
Continuous
 62
     6
370
    25
100
AcDbCircle
 10
536.5320501835529
 20
171.4966779259952
 30
0.0
 40
12.0
100
AcDbArc
 50
272.999999999999
 51
301.9550243718587
  0
ARC
  5
39E
330
1F
100
AcDbEntity
  8
基準ﾚｲﾔｸﾞﾙｰﾌﾟ_01
  6
Continuous
 62
     6
370
    25
100
AcDbCircle
 10
536.0705872605763
 20
172.9169147670567
 30
0.0
 40
12.0
100
AcDbArc
 50
94.04497562814129
 51
114.4206806098985
  0
ARC
  5
39F
330
1F
100
AcDbEntity
  8
基準ﾚｲﾔｸﾞﾙｰﾌﾟ_01
  6
Continuous
 62
     6
370
    25
100
AcDbCircle
 10
523.5482521036886
 20
156.2963268850005
 30
0.0
 40
2.5
100
AcDbArc
 50
92.99999999999893
 51
178.7832695211467
  0
LINE
  5
3A0
330
1F
100
AcDbEntity
  8
基準ﾚｲﾔｸﾞﾙｰﾌﾟ_01
  6
Continuous
 62
     6
370
    25
100
AcDbLine
 10
521.0488157896275
 20
156.3494127772179
 30
0.0
 11
519.4363003407302
 21
160.0863180085766
 31
0.0
  0
LINE
  5
3A1
330
1F
100
AcDbEntity
  8
基準ﾚｲﾔｸﾞﾙｰﾌﾟ_01
  6
Continuous
 62
     6
370
    25
100
AcDbLine
 10
519.4363003407302
 20
160.0863180085766
 30
0.0
 11
523.4174122130813
 21
158.792900721887
 31
0.0
  0
ARC
  5
3A2
330
1F
100
AcDbEntity
  8
基準ﾚｲﾔｸﾞﾙｰﾌﾟ_01
  6
Continuous
 62
     6
370
    25
100
AcDbCircle
 10
489.5559182324573
 20
157.0182950191572
 30
0.0
 40
31.5
100
AcDbArc
 50
325.2167304788535
 51
358.7832695211463
  0
ARC
  5
3A3
330
1F
100
AcDbEntity
  8
基準ﾚｲﾔｸﾞﾙｰﾌﾟ_01
  6
Continuous
 62
     6
370
    25
100
AcDbCircle
 10
489.5559182324573
 20
157.0182950191572
 30
0.0
 40
31.5
100
AcDbArc
 50
253.2167304788536
 51
286.7832695211462
  0
ARC
  5
3A4
330
1F
100
AcDbEntity
  8
基準ﾚｲﾔｸﾞﾙｰﾌﾟ_01
  6
Continuous
 62
     6
370
    25
100
AcDbCircle
 10
489.5559182324573
 20
157.0182950191572
 30
0.0
 40
31.5
100
AcDbArc
 50
181.2167304788535
 51
214.7832695211465
  0
ARC
  5
3A5
330
1F
100
AcDbEntity
  8
基準ﾚｲﾔｸﾞﾙｰﾌﾟ_01
  6
Continuous
 62
     6
370
    25
100
AcDbCircle
 10
489.5559182324573
 20
157.0182950191572
 30
0.0
 40
31.5
100
AcDbArc
 50
130.7257113828589
 51
142.7832695211466
  0
ARC
  5
3A6
330
1F
100
AcDbEntity
  8
基準ﾚｲﾔｸﾞﾙｰﾌﾟ_01
  6
Continuous
 62
     6
370
    25
100
AcDbCircle
 10
489.5559182324573
 20
157.0182950191571
 30
0.0
 40
48.92
100
AcDbArc
 50
4.757096116391494
 51
31.24290388360862
  0
ARC
  5
3A7
330
1F
100
AcDbEntity
  8
基準ﾚｲﾔｸﾞﾙｰﾌﾟ_01
  6
Continuous
 62
     6
370
    25
100
AcDbCircle
 10
489.5559182324573
 20
157.0182950191572
 30
0.0
 40
48.14
100
AcDbArc
 50
320.9890174493351
 51
3.010982550664832
  0
ARC
  5
3A8
330
1F
100
AcDbEntity
  8
基準ﾚｲﾔｸﾞﾙｰﾌﾟ_01
  6
Continuous
 62
     6
370
    25
100
AcDbCircle
 10
489.5559182324573
 20
157.0182950191573
 30
0.0
 40
48.92
100
AcDbArc
 50
148.7570961163916
 51
175.2429038836086
  0
ARC
  5
3A9
330
1F
100
AcDbEntity
  8
基準ﾚｲﾔｸﾞﾙｰﾌﾟ_01
  6
Continuous
 62
     6
370
    25
100
AcDbCircle
 10
489.5559182324573
 20
157.0182950191572
 30
0.0
 40
48.14
100
AcDbArc
 50
108.2898311076842
 51
147.0109825506649
  0
ARC
  5
3AA
330
1F
100
AcDbEntity
  8
基準ﾚｲﾔｸﾞﾙｰﾌﾟ_01
  6
Continuous
 62
     6
370
    25
100
AcDbCircle
 10
489.5559182324571
 20
157.0182950191573
 30
0.0
 40
48.92
100
AcDbArc
 50
220.7570961163915
 51
247.2429038836086
  0
ARC
  5
3AB
330
1F
100
AcDbEntity
  8
基準ﾚｲﾔｸﾞﾙｰﾌﾟ_01
  6
Continuous
 62
     6
370
    25
100
AcDbCircle
 10
489.5559182324571
 20
157.0182950191571
 30
0.0
 40
48.92
100
AcDbArc
 50
292.7570961163915
 51
319.2429038836086
  0
ARC
  5
3AC
330
1F
100
AcDbEntity
  8
基準ﾚｲﾔｸﾞﾙｰﾌﾟ_01
  6
Continuous
 62
     6
370
    25
100
AcDbCircle
 10
489.5559182324573
 20
157.0182950191572
 30
0.0
 40
48.14
100
AcDbArc
 50
176.9890174493352
 51
219.0109825506646
  0
ARC
  5
3AD
330
1F
100
AcDbEntity
  8
基準ﾚｲﾔｸﾞﾙｰﾌﾟ_01
  6
Continuous
 62
     6
370
    25
100
AcDbCircle
 10
489.5559182324573
 20
157.0182950191572
 30
0.0
 40
48.14
100
AcDbArc
 50
248.9890174493351
 51
291.0109825506646
  0
ARC
  5
3AE
330
1F
100
AcDbEntity
  8
基準ﾚｲﾔｸﾞﾙｰﾌﾟ_01
  6
Continuous
 62
     3
370
    50
100
AcDbCircle
 10
489.5559182324573
 20
157.0182950191573
 30
0.0
 40
57.00000000000009
100
AcDbArc
 50
102.8185605676067
 51
36.9925616527824
  0
ARC
  5
3AF
330
1F
100
AcDbEntity
  8
基準ﾚｲﾔｸﾞﾙｰﾌﾟ_01
  6
Continuous
 62
     6
370
    25
100
AcDbCircle
 10
489.5559182324572
 20
157.0182950191572
 30
0.0
 40
60.0
100
AcDbArc
 50
101.3792736936607
 51
38.3218145266535
  0
LINE
  5
3B0
330
1F
100
AcDbEntity
  8
基準ﾚｲﾔｸﾞﾙｰﾌﾟ_01
  6
Continuous
 62
     3
370
    50
100
AcDbLine
 10
265.3684813509998
 20
187.0182950191571
 30
0.0
 11
264.3684813509999
 21
191.6132045636514
 31
0.0
  0
LINE
  5
3B1
330
1F
100
AcDbEntity
  8
基準ﾚｲﾔｸﾞﾙｰﾌﾟ_01
  6
Continuous
 62
     3
370
    50
100
AcDbLine
 10
267.868481351
 20
171.5182950191571
 30
0.0
 11
265.368481351
 21
171.5182950191571
 31
0.0
  0
LINE
  5
3B2
330
1F
100
AcDbEntity
  8
基準ﾚｲﾔｸﾞﾙｰﾌﾟ_01
  6
Continuous
 62
     3
370
    50
100
AcDbLine
 10
268.368481351
 20
171.0182950191571
 30
0.0
 11
267.868481351
 21
171.5182950191571
 31
0.0
  0
LINE
  5
3B3
330
1F
100
AcDbEntity
  8
基準ﾚｲﾔｸﾞﾙｰﾌﾟ_01
  6
Continuous
 62
     3
370
    50
100
AcDbLine
 10
264.3684813509999
 20
217.0180147832768
 30
0.0
 11
264.3684813509999
 21
97.01857525503752
 31
0.0
  0
LINE
  5
3B4
330
1F
100
AcDbEntity
  8
図面枠ﾚｲﾔ_01
  6
Continuous
 62
     3
370
    50
100
AcDbLine
 10
268.368481351
 20
171.0182950191572
 30
0.0
 11
268.368481351
 21
143.0182950191572
 31
0.0
  0
LINE
  5
3B5
330
1F
100
AcDbEntity
  8
図面枠ﾚｲﾔ_01
  6
Continuous
 62
     3
370
    50
100
AcDbLine
 10
265.368481351
 20
187.0182950191568
 30
0.0
 11
265.368481351
 21
127.0182950191576
 31
0.0
  0
LINE
  5
3B6
330
1F
100
AcDbEntity
  8
GR1_01
  6
Continuous
 62
     6
370
    25
100
AcDbLine
 10
256.8684813509998
 20
228.741114595932
 30
0.0
 11
256.8684813509998
 21
85.29547544238241
 31
0.0
  0
LINE
  5
3B7
330
1F
100
AcDbEntity
  8
GR1_01
  6
Continuous
 62
     6
370
    25
100
AcDbLine
 10
267.868481351
 20
171.5182950191571
 30
0.0
 11
267.868481351
 21
142.5182950191573
 31
0.0
  0
LINE
  5
3B8
330
1F
100
AcDbEntity
  8
GR1_01
  6
Continuous
 62
     3
370
    50
100
AcDbLine
 10
270.1184813509998
 20
167.0182950191572
 30
0.0
 11
268.3684813509998
 21
167.0182950191572
 31
0.0
  0
LINE
  5
3B9
330
1F
100
AcDbEntity
  8
基準ﾚｲﾔｸﾞﾙｰﾌﾟ_01
  6
Continuous
 62
     3
370
    50
100
AcDbLine
 10
218.3684813509998
 20
187.0182950191571
 30
0.0
 11
219.3684813509998
 21
191.6132045636514
 31
0.0
  0
LINE
  5
3BA
330
1F
100
AcDbEntity
  8
基準ﾚｲﾔｸﾞﾙｰﾌﾟ_01
  6
Continuous
 62
     3
370
    50
100
AcDbLine
 10
215.8684813509997
 20
171.5182950191571
 30
0.0
 11
218.3684813509997
 21
171.5182950191571
 31
0.0
  0
LINE
  5
3BB
330
1F
100
AcDbEntity
  8
基準ﾚｲﾔｸﾞﾙｰﾌﾟ_01
  6
Continuous
 62
     3
370
    50
100
AcDbLine
 10
215.3684813509997
 20
171.0182950191571
 30
0.0
 11
215.8684813509997
 21
171.5182950191571
 31
0.0
  0
LINE
  5
3BC
330
1F
100
AcDbEntity
  8
基準ﾚｲﾔｸﾞﾙｰﾌﾟ_01
  6
Continuous
 62
     3
370
    50
100
AcDbLine
 10
219.3684813509998
 20
217.0180147832768
 30
0.0
 11
219.3684813509997
 21
97.01857525503762
 31
0.0
  0
LINE
  5
3BD
330
1F
100
AcDbEntity
  8
図面枠ﾚｲﾔ_01
  6
Continuous
 62
     3
370
    50
100
AcDbLine
 10
215.3684813509997
 20
171.0182950191572
 30
0.0
 11
215.3684813509997
 21
143.0182950191572
 31
0.0
  0
LINE
  5
3BE
330
1F
100
AcDbEntity
  8
図面枠ﾚｲﾔ_01
  6
Continuous
 62
     3
370
    50
100
AcDbLine
 10
218.3684813509997
 20
187.0182950191568
 30
0.0
 11
218.3684813509997
 21
127.0182950191576
 31
0.0
  0
LINE
  5
3BF
330
1F
100
AcDbEntity
  8
GR1_01
  6
Continuous
 62
     6
370
    25
100
AcDbLine
 10
226.8684813509998
 20
228.741114595932
 30
0.0
 11
226.8684813509998
 21
85.29547544238241
 31
0.0
  0
LINE
  5
3C0
330
1F
100
AcDbEntity
  8
GR1_01
  6
Continuous
 62
     6
370
    25
100
AcDbLine
 10
215.8684813509997
 20
171.5182950191571
 30
0.0
 11
215.8684813509997
 21
142.5182950191573
 31
0.0
  0
LINE
  5
3C1
330
1F
100
AcDbEntity
  8
GR1_01
  6
Continuous
 62
     3
370
    50
100
AcDbLine
 10
213.6184813509998
 20
167.0182950191572
 30
0.0
 11
215.3684813509998
 21
167.0182950191572
 31
0.0
  0
LINE
  5
3C2
330
1F
100
AcDbEntity
  8
基準ﾚｲﾔｸﾞﾙｰﾌﾟ_01
  6
Continuous
 62
     3
370
    50
100
AcDbLine
 10
265.3684813509998
 20
127.0182950191573
 30
0.0
 11
264.3684813509999
 21
122.423385474663
 31
0.0
  0
LINE
  5
3C3
330
1F
100
AcDbEntity
  8
基準ﾚｲﾔｸﾞﾙｰﾌﾟ_01
  6
Continuous
 62
     3
370
    50
100
AcDbLine
 10
267.868481351
 20
142.5182950191573
 30
0.0
 11
265.368481351
 21
142.5182950191573
 31
0.0
  0
LINE
  5
3C4
330
1F
100
AcDbEntity
  8
基準ﾚｲﾔｸﾞﾙｰﾌﾟ_01
  6
Continuous
 62
     3
370
    50
100
AcDbLine
 10
268.368481351
 20
143.0182950191573
 30
0.0
 11
267.868481351
 21
142.5182950191573
 31
0.0
  0
LINE
  5
3C6
330
1F
100
AcDbEntity
  8
0_01
  6
Continuous
 62
     3
370
    50
100
AcDbLine
 10
258.9774184750889
 20
87.68098044926293
 30
0.0
 11
264.3684813509996
 21
97.01857525503692
 31
0.0
  0
ARC
  5
3C7
330
1F
100
AcDbEntity
  8
基準ﾚｲﾔｸﾞﾙｰﾌﾟ_01
  6
Continuous
 62
     3
370
    50
100
AcDbCircle
 10
252.0492152452032
 20
91.6809804499382
 30
0.0
 40
8.0
100
AcDbArc
 50
288.5509567111613
 51
329.9999999944155
  0
LINE
  5
3C8
330
1F
100
AcDbEntity
  8
図面枠ﾚｲﾔ_01
  6
Continuous
 62
     3
370
    50
100
AcDbLine
 10
264.3684813509996
 20
97.11857525091989
 30
0.0
 11
264.3684813509996
 21
97.01857525503698
 31
0.0
  0
LINE
  5
3C9
330
1F
100
AcDbEntity
  8
GR1_01
  6
Continuous
 62
     3
370
    50
100
AcDbLine
 10
270.1184813509998
 20
147.0182950191572
 30
0.0
 11
268.3684813509998
 21
147.0182950191572
 31
0.0
  0
LINE
  5
3CA
330
1F
100
AcDbEntity
  8
基準ﾚｲﾔｸﾞﾙｰﾌﾟ_01
  6
Continuous
 62
     3
370
    50
100
AcDbLine
 10
218.3684813509998
 20
127.0182950191573
 30
0.0
 11
219.3684813509998
 21
122.423385474663
 31
0.0
  0
LINE
  5
3CB
330
1F
100
AcDbEntity
  8
基準ﾚｲﾔｸﾞﾙｰﾌﾟ_01
  6
Continuous
 62
     3
370
    50
100
AcDbLine
 10
215.8684813509997
 20
142.5182950191573
 30
0.0
 11
218.3684813509997
 21
142.5182950191573
 31
0.0
  0
LINE
  5
3CC
330
1F
100
AcDbEntity
  8
基準ﾚｲﾔｸﾞﾙｰﾌﾟ_01
  6
Continuous
 62
     3
370
    50
100
AcDbLine
 10
215.3684813509997
 20
143.0182950191573
 30
0.0
 11
215.8684813509997
 21
142.5182950191573
 31
0.0
  0
LINE
  5
3CD
330
1F
100
AcDbEntity
  8
0_01
  6
Continuous
 62
     3
370
    50
100
AcDbLine
 10
224.7595442269108
 20
87.68098044926293
 30
0.0
 11
219.3684813510001
 21
97.01857525503692
 31
0.0
  0
ARC
  5
3CE
330
1F
100
AcDbEntity
  8
基準ﾚｲﾔｸﾞﾙｰﾌﾟ_01
  6
Continuous
 62
     3
370
    50
100
AcDbCircle
 10
231.6877474567964
 20
91.6809804499382
 30
0.0
 40
8.0
100
AcDbArc
 50
210.0000000055844
 51
251.4490432888387
  0
LINE
  5
3CF
330
1F
100
AcDbEntity
  8
図面枠ﾚｲﾔ_01
  6
Continuous
 62
     3
370
    50
100
AcDbLine
 10
219.3684813510001
 20
97.11857525091989
 30
0.0
 11
219.3684813510001
 21
97.01857525503698
 31
0.0
  0
LINE
  5
3D0
330
1F
100
AcDbEntity
  8
GR1_01
  6
Continuous
 62
     3
370
    50
100
AcDbLine
 10
213.6184813509998
 20
147.0182950191572
 30
0.0
 11
215.3684813509998
 21
147.0182950191572
 31
0.0
  0
ARC
  5
3D1
330
1F
100
AcDbEntity
  8
0_01
  6
Continuous
 62
     3
370
    50
100
AcDbCircle
 10
241.8684813509996
 20
122.0182950538285
 30
0.0
 40
40.0
100
AcDbArc
 50
251.4490432888389
 51
288.5509567111611
  0
LINE
  5
3D2
330
1F
100
AcDbEntity
  8
0_01
  6
Continuous
 62
     3
370
    50
100
AcDbLine
 10
258.9774184750889
 20
226.3556095890515
 30
0.0
 11
264.3684813509996
 21
217.0180147832775
 31
0.0
  0
ARC
  5
3D3
330
1F
100
AcDbEntity
  8
基準ﾚｲﾔｸﾞﾙｰﾌﾟ_01
  6
Continuous
 62
     3
370
    50
100
AcDbCircle
 10
252.0492152452032
 20
222.3556095883762
 30
0.0
 40
8.0
100
AcDbArc
 50
30.00000000558446
 51
71.44904328883861
  0
LINE
  5
3D4
330
1F
100
AcDbEntity
  8
図面枠ﾚｲﾔ_01
  6
Continuous
 62
     3
370
    50
100
AcDbLine
 10
264.3684813509996
 20
216.9180147873945
 30
0.0
 11
264.3684813509996
 21
217.0180147832774
 31
0.0
  0
LINE
  5
3D5
330
1F
100
AcDbEntity
  8
0_01
  6
Continuous
 62
     3
370
    50
100
AcDbLine
 10
224.7595442269108
 20
226.3556095890515
 30
0.0
 11
219.3684813510001
 21
217.0180147832775
 31
0.0
  0
ARC
  5
3D6
330
1F
100
AcDbEntity
  8
基準ﾚｲﾔｸﾞﾙｰﾌﾟ_01
  6
Continuous
 62
     3
370
    50
100
AcDbCircle
 10
231.6877474567964
 20
222.3556095883762
 30
0.0
 40
8.0
100
AcDbArc
 50
108.5509567111613
 51
149.9999999944156
  0
LINE
  5
3D7
330
1F
100
AcDbEntity
  8
図面枠ﾚｲﾔ_01
  6
Continuous
 62
     3
370
    50
100
AcDbLine
 10
219.3684813510001
 20
216.9180147873945
 30
0.0
 11
219.3684813510001
 21
217.0180147832774
 31
0.0
  0
ARC
  5
3D8
330
1F
100
AcDbEntity
  8
0_01
  6
Continuous
 62
     3
370
    50
100
AcDbCircle
 10
241.8684813509996
 20
192.0182949844859
 30
0.0
 40
40.0
100
AcDbArc
 50
71.44904328883888
 51
108.5509567111611
  0
LINE
  5
3D9
330
1F
100
AcDbEntity
  8
図面枠ﾚｲﾔ_01
  6
Continuous
 62
     7
370
    50
100
AcDbLine
 10
20.0
 20
20.0
 30
0.0
 11
821.0
 21
20.0
 31
0.0
  0
LINE
  5
3DA
330
1F
100
AcDbEntity
  8
図面枠ﾚｲﾔ_01
  6
Continuous
 62
     7
370
    50
100
AcDbLine
 10
20.0
 20
20.0
 30
0.0
 11
20.0
 21
574.0
 31
0.0
  0
LINE
  5
3DB
330
1F
100
AcDbEntity
  8
図面枠ﾚｲﾔ_01
  6
Continuous
 62
     7
370
    50
100
AcDbLine
 10
20.0
 20
574.0
 30
0.0
 11
821.0
 21
574.0
 31
0.0
  0
LINE
  5
3DC
330
1F
100
AcDbEntity
  8
図面枠ﾚｲﾔ_01
  6
Continuous
 62
     7
370
    50
100
AcDbLine
 10
821.0
 20
574.0
 30
0.0
 11
821.0
 21
20.0
 31
0.0
  0
LINE
  5
3DD
330
1F
100
AcDbEntity
  8
図面枠ﾚｲﾔ_01
  6
Continuous
 62
     7
370
    25
100
AcDbLine
 10
564.0
 20
20.0
 30
0.0
 11
564.0
 21
30.0
 31
0.0
  0
TEXT
  5
3DE
330
1F
100
AcDbEntity
  8
図面枠ﾚｲﾔ_01
  6
Continuous
 62
     7
370
    25
100
AcDbText
 10
548.7388305664062
 20
21.59687805175781
 30
0.0
 40
6.648748874664307
  1
品名
 41
1.083413404130886
  7
FX_VECTOR
 72
     5
 11
560.05837059021
 21
21.59687805175781
 31
0.0
100
AcDbText
  0
LINE
  5
3DF
330
1F
100
AcDbEntity
  8
図面枠ﾚｲﾔ_01
  6
Continuous
 62
     7
370
    50
100
AcDbLine
 10
644.0
 20
30.0
 30
0.0
 11
644.0
 21
20.0
 31
0.0
  0
LINE
  5
3E0
330
1F
100
AcDbEntity
  8
図面枠ﾚｲﾔ_01
  6
Continuous
 62
     7
370
    50
100
AcDbLine
 10
544.0
 20
30.0
 30
0.0
 11
821.0
 21
30.0
 31
0.0
  0
TEXT
  5
3E1
330
1F
100
AcDbEntity
  8
図面枠ﾚｲﾔ_01
  6
Continuous
 62
     7
370
    25
100
AcDbText
 10
760.2257690429688
 20
21.46128463745117
 30
0.0
 40
7.170907974243164
  1
ＧＯＬＤ　ＣＡＳＴＥＲ
 41
0.702117011671778
  7
FX_VECTOR
 72
     5
 11
806.9776363372803
 21
21.46128463745117
 31
0.0
100
AcDbText
  0
LINE
  5
3E2
330
1F
100
AcDbEntity
  8
図面枠ﾚｲﾔ_01
  6
Continuous
 62
     7
370
    25
100
AcDbLine
 10
664.0
 20
20.0
 30
0.0
 11
664.0
 21
30.0
 31
0.0
  0
TEXT
  5
3E3
330
1F
100
AcDbEntity
  8
図面枠ﾚｲﾔ_01
  6
Continuous
 62
     7
370
    25
100
AcDbText
 10
648.7388305664062
 20
21.59687805175781
 30
0.0
 40
6.648748874664307
  1
図番
 41
1.083413404130886
  7
FX_VECTOR
 72
     5
 11
660.05837059021
 21
21.59687805175781
 31
0.0
100
AcDbText
  0
LINE
  5
3E4
330
1F
100
AcDbEntity
  8
図面枠ﾚｲﾔ_01
  6
Continuous
 62
     7
370
    50
100
AcDbLine
 10
744.0
 20
30.0
 30
0.0
 11
744.0
 21
20.0
 31
0.0
  0
LINE
  5
3E5
330
1F
100
AcDbEntity
  8
図面枠ﾚｲﾔ_01
  6
Continuous
 62
     7
370
    50
100
AcDbLine
 10
544.0
 20
30.0
 30
0.0
 11
544.0
 21
20.0
 31
0.0
  0
LINE
  5
3E6
330
1F
100
AcDbEntity
  8
基準ﾚｲﾔｸﾞﾙｰﾌﾟ_01
  6
Continuous
 62
     3
370
    50
100
AcDbLine
 10
474.5559182324571
 20
424.3821839080458
 30
0.0
 11
429.5559182324573
 21
424.3821839080458
 31
0.0
  0
LINE
  5
3E7
330
1F
100
AcDbEntity
  8
図面枠ﾚｲﾔ_01
  6
Continuous
 62
     3
370
    50
100
AcDbLine
 10
474.5559182324571
 20
423.3821839080458
 30
0.0
 11
459.5559182324576
 21
423.3821839080458
 31
0.0
  0
LINE
  5
3E8
330
1F
100
AcDbEntity
  8
GR1_01
  6
Continuous
 62
     6
370
    25
100
AcDbLine
 10
474.5559182324571
 20
431.8821839080459
 30
0.0
 11
417.8330986296658
 21
431.8821839080459
 31
0.0
  0
LINE
  5
3E9
330
1F
100
AcDbEntity
  8
基準ﾚｲﾔｸﾞﾙｰﾌﾟ_01
  6
Continuous
 62
     3
370
    50
100
AcDbLine
 10
474.5559182324571
 20
469.3821839080459
 30
0.0
 11
429.5559182324573
 21
469.382183908046
 31
0.0
  0
LINE
  5
3EA
330
1F
100
AcDbEntity
  8
図面枠ﾚｲﾔ_01
  6
Continuous
 62
     3
370
    50
100
AcDbLine
 10
474.555918232457
 20
470.382183908046
 30
0.0
 11
459.5559182324576
 21
470.382183908046
 31
0.0
  0
LINE
  5
3EB
330
1F
100
AcDbEntity
  8
GR1_01
  6
Continuous
 62
     6
370
    25
100
AcDbLine
 10
474.5559182324571
 20
461.8821839080459
 30
0.0
 11
417.8330986296658
 21
461.8821839080459
 31
0.0
  0
LINE
  5
3EC
330
1F
100
AcDbEntity
  8
基準ﾚｲﾔｸﾞﾙｰﾌﾟ_01
  6
Continuous
 62
     3
370
    50
100
AcDbLine
 10
459.5559182324573
 20
423.3821839080459
 30
0.0
 11
454.961008687963
 21
424.3821839080458
 31
0.0
  0
LINE
  5
3ED
330
1F
100
AcDbEntity
  8
0_01
  6
Continuous
 62
     3
370
    50
100
AcDbLine
 10
420.2186036365463
 20
429.7732467839568
 30
0.0
 11
429.5561984423202
 21
424.3821839080461
 31
0.0
  0
ARC
  5
3EE
330
1F
100
AcDbEntity
  8
基準ﾚｲﾔｸﾞﾙｰﾌﾟ_01
  6
Continuous
 62
     3
370
    50
100
AcDbCircle
 10
424.2186036372216
 20
436.7014500138425
 30
0.0
 40
8.0
100
AcDbArc
 50
198.5509567111613
 51
239.9999999944155
  0
LINE
  5
3EF
330
1F
100
AcDbEntity
  8
図面枠ﾚｲﾔ_01
  6
Continuous
 62
     3
370
    50
100
AcDbLine
 10
429.6561984382032
 20
424.3821839080461
 30
0.0
 11
429.5561984423204
 21
424.3821839080461
 31
0.0
  0
LINE
  5
3F0
330
1F
100
AcDbEntity
  8
基準ﾚｲﾔｸﾞﾙｰﾌﾟ_01
  6
Continuous
 62
     3
370
    50
100
AcDbLine
 10
459.5559182324573
 20
470.3821839080459
 30
0.0
 11
454.961008687963
 21
469.3821839080459
 31
0.0
  0
LINE
  5
3F1
330
1F
100
AcDbEntity
  8
0_01
  6
Continuous
 62
     3
370
    50
100
AcDbLine
 10
420.2186036365463
 20
463.9911210321349
 30
0.0
 11
429.5561984423202
 21
469.3821839080456
 31
0.0
  0
ARC
  5
3F2
330
1F
100
AcDbEntity
  8
基準ﾚｲﾔｸﾞﾙｰﾌﾟ_01
  6
Continuous
 62
     3
370
    50
100
AcDbCircle
 10
424.2186036372216
 20
457.0629178022493
 30
0.0
 40
8.0
100
AcDbArc
 50
120.0000000055844
 51
161.4490432888387
  0
LINE
  5
3F3
330
1F
100
AcDbEntity
  8
図面枠ﾚｲﾔ_01
  6
Continuous
 62
     3
370
    50
100
AcDbLine
 10
429.6561984382032
 20
469.3821839080456
 30
0.0
 11
429.5561984423204
 21
469.3821839080456
 31
0.0
  0
ARC
  5
3F4
330
1F
100
AcDbEntity
  8
0_01
  6
Continuous
 62
     3
370
    50
100
AcDbCircle
 10
454.5559182411118
 20
446.8821839080461
 30
0.0
 40
40.0
100
AcDbArc
 50
161.4490432888389
 51
198.5509567111611
  0
LINE
  5
3F5
330
1F
100
AcDbEntity
  8
0_01
  6
Continuous
 62
     7
370
    25
100
AcDbLine
 10
755.8018997861325
 20
27.91346152
 30
0.0
 11
749.8018997861325
 21
27.91346152
 31
0.0
  0
LINE
  5
3F6
330
1F
100
AcDbEntity
  8
0_01
  6
Continuous
 62
     7
370
    25
100
AcDbLine
 10
749.8018997861325
 20
27.91346152
 30
0.0
 11
749.8018997861325
 21
21.91346152
 31
0.0
  0
LINE
  5
3F7
330
1F
100
AcDbEntity
  8
0_01
  6
Continuous
 62
     7
370
    25
100
AcDbLine
 10
749.8018997861325
 20
21.91346152
 30
0.0
 11
755.8018997861325
 21
21.91346152
 31
0.0
  0
LINE
  5
3F8
330
1F
100
AcDbEntity
  8
0_01
  6
Continuous
 62
     7
370
    25
100
AcDbLine
 10
755.8018997861325
 20
21.91346152
 30
0.0
 11
755.8018997861325
 21
27.91346152
 31
0.0
  0
LINE
  5
3F9
330
1F
100
AcDbEntity
  8
0_01
  6
Continuous
 62
     7
370
    25
100
AcDbLine
 10
755.2249766861325
 20
25.3461538
 30
0.0
 11
752.8018997861325
 21
27.76923076000002
 31
0.0
  0
LINE
  5
3FA
330
1F
100
AcDbEntity
  8
0_01
  6
Continuous
 62
     7
370
    25
100
AcDbLine
 10
752.8018997861325
 20
27.76923076000002
 30
0.0
 11
749.9461305461325
 21
24.91346152
 31
0.0
  0
LINE
  5
3FB
330
1F
100
AcDbEntity
  8
0_01
  6
Continuous
 62
     7
370
    25
100
AcDbLine
 10
749.9461305461325
 20
24.91346152
 30
0.0
 11
752.8018997861325
 21
22.05769228000001
 31
0.0
  0
LINE
  5
3FC
330
1F
100
AcDbEntity
  8
0_01
  6
Continuous
 62
     7
370
    25
100
AcDbLine
 10
752.8018997861325
 20
22.05769228000001
 30
0.0
 11
754.3595920661326
 21
23.61538462
 31
0.0
  0
LINE
  5
3FD
330
1F
100
AcDbEntity
  8
0_01
  6
Continuous
 62
     7
370
    25
100
AcDbLine
 10
754.3595920661326
 20
23.61538462
 30
0.0
 11
754.3595920661326
 21
22.98076924
 31
0.0
  0
LINE
  5
3FE
330
1F
100
AcDbEntity
  8
0_01
  6
Continuous
 62
     7
370
    25
100
AcDbLine
 10
754.3595920661326
 20
22.98076924
 30
0.0
 11
755.2249766861325
 21
22.98076924
 31
0.0
  0
LINE
  5
3FF
330
1F
100
AcDbEntity
  8
0_01
  6
Continuous
 62
     7
370
    25
100
AcDbLine
 10
755.2249766861325
 20
22.98076924
 30
0.0
 11
755.2249766861325
 21
25.00000000000001
 31
0.0
  0
LINE
  5
400
330
1F
100
AcDbEntity
  8
0_01
  6
Continuous
 62
     7
370
    25
100
AcDbLine
 10
755.2249766861325
 20
25.00000000000001
 30
0.0
 11
752.8018997861325
 21
25.00000000000001
 31
0.0
  0
LINE
  5
401
330
1F
100
AcDbEntity
  8
0_01
  6
Continuous
 62
     7
370
    25
100
AcDbLine
 10
752.8018997861325
 20
25.00000000000001
 30
0.0
 11
752.8018997861325
 21
24.13461538000001
 31
0.0
  0
LINE
  5
402
330
1F
100
AcDbEntity
  8
0_01
  6
Continuous
 62
     7
370
    25
100
AcDbLine
 10
752.8018997861325
 20
24.13461538000001
 30
0.0
 11
753.2461305461325
 21
24.13461538000001
 31
0.0
  0
LINE
  5
403
330
1F
100
AcDbEntity
  8
0_01
  6
Continuous
 62
     7
370
    25
100
AcDbLine
 10
753.2461305461325
 20
24.13461538000001
 30
0.0
 11
752.8018997861325
 21
23.69038462
 31
0.0
  0
LINE
  5
404
330
1F
100
AcDbEntity
  8
0_01
  6
Continuous
 62
     7
370
    25
100
AcDbLine
 10
752.8018997861325
 20
23.69038462
 30
0.0
 11
751.5788228861325
 21
24.91346152
 31
0.0
  0
LINE
  5
405
330
1F
100
AcDbEntity
  8
0_01
  6
Continuous
 62
     7
370
    25
100
AcDbLine
 10
751.5788228861325
 20
24.91346152
 30
0.0
 11
752.8018997861325
 21
26.13653842000003
 31
0.0
  0
LINE
  5
406
330
1F
100
AcDbEntity
  8
0_01
  6
Continuous
 62
     7
370
    25
100
AcDbLine
 10
752.8018997861325
 20
26.13653842000003
 30
0.0
 11
753.5922844061325
 21
25.3461538
 31
0.0
  0
LINE
  5
407
330
1F
100
AcDbEntity
  8
0_01
  6
Continuous
 62
     7
370
    25
100
AcDbLine
 10
753.5922844061325
 20
25.3461538
 30
0.0
 11
755.2249766861325
 21
25.3461538
 31
0.0
  0
LINE
  5
408
330
1F
100
AcDbEntity
  8
GR1_01
  6
Continuous
 62
     7
370
    25
100
AcDbLine
 10
750.7223799643118
 20
21.91346152
 30
0.0
 11
751.8342552552222
 21
23.02533681091035
 31
0.0
  0
LINE
  5
409
330
1F
100
AcDbEntity
  8
GR1_01
  6
Continuous
 62
     7
370
    25
100
AcDbLine
 10
752.6506014252221
 20
23.84168298091037
 30
0.0
 11
752.9435338243118
 21
24.13461538
 31
0.0
  0
LINE
  5
40A
330
1F
100
AcDbEntity
  8
GR1_01
  6
Continuous
 62
     7
370
    25
100
AcDbLine
 10
753.8089184443118
 20
25.0
 30
0.0
 11
754.1550722443118
 21
25.34615379999997
 31
0.0
  0
LINE
  5
40B
330
1F
100
AcDbEntity
  8
GR1_01
  6
Continuous
 62
     7
370
    25
100
AcDbLine
 10
754.6900244718454
 20
25.88110602753357
 30
0.0
 11
755.8018997861325
 21
26.9929813418207
 31
0.0
  0
LINE
  5
40C
330
1F
100
AcDbEntity
  8
GR1_01
  6
Continuous
 62
     7
370
    25
100
AcDbLine
 10
750.651669286193
 20
21.91346151999999
 30
0.0
 11
751.7988999161628
 21
23.06069214996967
 31
0.0
  0
LINE
  5
40D
330
1F
100
AcDbEntity
  8
GR1_01
  6
Continuous
 62
     7
370
    25
100
AcDbLine
 10
752.6152460861629
 20
23.87703831996969
 30
0.0
 11
752.8728231461931
 21
24.13461538
 31
0.0
  0
LINE
  5
40E
330
1F
100
AcDbEntity
  8
GR1_01
  6
Continuous
 62
     7
370
    25
100
AcDbLine
 10
753.7382077661931
 20
25.0
 30
0.0
 11
754.0843615661931
 21
25.34615379999997
 31
0.0
  0
LINE
  5
40F
330
1F
100
AcDbEntity
  8
GR1_01
  6
Continuous
 62
     7
370
    25
100
AcDbLine
 10
754.6546691332237
 20
25.91646136703062
 30
0.0
 11
755.8018997861325
 21
27.06369201993936
 31
0.0
  0
LINE
  5
410
330
1F
100
AcDbEntity
  8
GR1_01
  6
Continuous
 62
     7
370
    25
100
AcDbLine
 10
750.5809586080745
 20
21.91346152
 30
0.0
 11
751.7635445771034
 21
23.09604748902901
 31
0.0
  0
LINE
  5
411
330
1F
100
AcDbEntity
  8
GR1_01
  6
Continuous
 62
     7
370
    25
100
AcDbLine
 10
752.5798907471035
 20
23.91239365902902
 30
0.0
 11
752.8021124680745
 21
24.13461538
 31
0.0
  0
LINE
  5
412
330
1F
100
AcDbEntity
  8
GR1_01
  6
Continuous
 62
     7
370
    25
100
AcDbLine
 10
753.6674970880745
 20
25.0
 30
0.0
 11
754.0136508880745
 21
25.3461538
 31
0.0
  0
LINE
  5
413
330
1F
100
AcDbEntity
  8
GR1_01
  6
Continuous
 62
     7
370
    25
100
AcDbLine
 10
754.6193137946021
 20
25.95181670652768
 30
0.0
 11
755.8018997861325
 21
27.13440269805803
 31
0.0
  0
LINE
  5
414
330
1F
100
AcDbEntity
  8
GR1_01
  6
Continuous
 62
     7
370
    25
100
AcDbLine
 10
750.5102479299558
 20
21.91346151999999
 30
0.0
 11
751.7281892380441
 21
23.13140282808833
 31
0.0
  0
LINE
  5
415
330
1F
100
AcDbEntity
  8
GR1_01
  6
Continuous
 62
     7
370
    25
100
AcDbLine
 10
752.5445354080441
 20
23.94774899808835
 30
0.0
 11
752.8018997861325
 21
24.20511337617669
 31
0.0
  0
LINE
  5
416
330
1F
100
AcDbEntity
  8
GR1_01
  6
Continuous
 62
     7
370
    25
100
AcDbLine
 10
753.5967864099558
 20
25.00000000000002
 30
0.0
 11
753.9429402099559
 21
25.34615379999999
 31
0.0
  0
LINE
  5
417
330
1F
100
AcDbEntity
  8
GR1_01
  6
Continuous
 62
     7
370
    25
100
AcDbLine
 10
754.5839584559806
 20
25.98717204602474
 30
0.0
 11
755.8018997861325
 21
27.20511337617667
 31
0.0
  0
LINE
  5
418
330
1F
100
AcDbEntity
  8
GR1_01
  6
Continuous
 62
     7
370
    25
100
AcDbLine
 10
750.4395372518372
 20
21.91346152
 30
0.0
 11
751.6928338989849
 21
23.16675816714765
 31
0.0
  0
LINE
  5
419
330
1F
100
AcDbEntity
  8
GR1_01
  6
Continuous
 62
     7
370
    25
100
AcDbLine
 10
752.5091800689848
 20
23.98310433714767
 30
0.0
 11
752.8018997861325
 21
24.27582405429533
 31
0.0
  0
LINE
  5
41A
330
1F
100
AcDbEntity
  8
GR1_01
  6
Continuous
 62
     7
370
    25
100
AcDbLine
 10
753.5260757318372
 20
25.0
 30
0.0
 11
753.8722295318371
 21
25.34615379999997
 31
0.0
  0
LINE
  5
41B
330
1F
100
AcDbEntity
  8
GR1_01
  6
Continuous
 62
     7
370
    25
100
AcDbLine
 10
754.548603117359
 20
26.0225273855218
 30
0.0
 11
755.8018997861325
 21
27.2758240542953
 31
0.0
  0
LINE
  5
41C
330
1F
100
AcDbEntity
  8
GR1_01
  6
Continuous
 62
     7
370
    25
100
AcDbLine
 10
750.3688265737185
 20
21.91346151999999
 30
0.0
 11
751.6574785599255
 21
23.20211350620697
 31
0.0
  0
LINE
  5
41D
330
1F
100
AcDbEntity
  8
GR1_01
  6
Continuous
 62
     7
370
    25
100
AcDbLine
 10
752.4738247299256
 20
24.01845967620699
 30
0.0
 11
752.8018997861325
 21
24.34653473241399
 31
0.0
  0
LINE
  5
41E
330
1F
100
AcDbEntity
  8
GR1_01
  6
Continuous
 62
     7
370
    25
100
AcDbLine
 10
753.4553650537185
 20
25.0
 30
0.0
 11
753.8015188537186
 21
25.34615379999997
 31
0.0
  0
LINE
  5
41F
330
1F
100
AcDbEntity
  8
GR1_01
  6
Continuous
 62
     7
370
    25
100
AcDbLine
 10
754.5132477787374
 20
26.05788272501886
 30
0.0
 11
755.8018997861325
 21
27.34653473241396
 31
0.0
  0
LINE
  5
420
330
1F
100
AcDbEntity
  8
GR1_01
  6
Continuous
 62
     7
370
    25
100
AcDbLine
 10
750.2981158955998
 20
21.91346152
 30
0.0
 11
751.6221232208661
 21
23.23746884526631
 31
0.0
  0
LINE
  5
421
330
1F
100
AcDbEntity
  8
GR1_01
  6
Continuous
 62
     7
370
    25
100
AcDbLine
 10
752.4384693908662
 20
24.05381501526633
 30
0.0
 11
752.8018997861325
 21
24.41724541053265
 31
0.0
  0
LINE
  5
422
330
1F
100
AcDbEntity
  8
GR1_01
  6
Continuous
 62
     7
370
    25
100
AcDbLine
 10
753.3846543755999
 20
25.0
 30
0.0
 11
753.7308081755998
 21
25.3461538
 31
0.0
  0
LINE
  5
423
330
1F
100
AcDbEntity
  8
GR1_01
  6
Continuous
 62
     7
370
    25
100
AcDbLine
 10
754.4778924401157
 20
26.09323806451593
 30
0.0
 11
755.8018997861325
 21
27.41724541053263
 31
0.0
  0
LINE
  5
424
330
1F
100
AcDbEntity
  8
GR1_01
  6
Continuous
 62
     7
370
    25
100
AcDbLine
 10
750.2274052174812
 20
21.91346151999999
 30
0.0
 11
751.5867678818068
 21
23.27282418432563
 31
0.0
  0
LINE
  5
425
330
1F
100
AcDbEntity
  8
GR1_01
  6
Continuous
 62
     7
370
    25
100
AcDbLine
 10
752.4031140518068
 20
24.08917035432565
 30
0.0
 11
752.8018997861325
 21
24.48795608865129
 31
0.0
  0
LINE
  5
426
330
1F
100
AcDbEntity
  8
GR1_01
  6
Continuous
 62
     7
370
    25
100
AcDbLine
 10
753.3139436974812
 20
25.00000000000002
 30
0.0
 11
753.6600974974813
 21
25.34615379999999
 31
0.0
  0
LINE
  5
427
330
1F
100
AcDbEntity
  8
GR1_01
  6
Continuous
 62
     7
370
    25
100
AcDbLine
 10
754.4425371014943
 20
26.12859340401299
 30
0.0
 11
755.8018997861325
 21
27.48795608865128
 31
0.0
  0
LINE
  5
428
330
1F
100
AcDbEntity
  8
GR1_01
  6
Continuous
 62
     7
370
    25
100
AcDbLine
 10
750.1566945393625
 20
21.91346152
 30
0.0
 11
751.5514125427476
 21
23.30817952338495
 31
0.0
  0
LINE
  5
429
330
1F
100
AcDbEntity
  8
GR1_01
  6
Continuous
 62
     7
370
    25
100
AcDbLine
 10
752.3677587127476
 20
24.12452569338497
 30
0.0
 11
752.8018997861325
 21
24.55866676676994
 31
0.0
  0
LINE
  5
42A
330
1F
100
AcDbEntity
  8
GR1_01
  6
Continuous
 62
     7
370
    25
100
AcDbLine
 10
753.2432330193626
 20
25.0
 30
0.0
 11
753.5908356127475
 21
25.34760259338495
 31
0.0
  0
LINE
  5
42B
330
1F
100
AcDbEntity
  8
GR1_01
  6
Continuous
 62
     7
370
    25
100
AcDbLine
 10
754.4071817628726
 20
26.16394874351002
 30
0.0
 11
755.8018997861325
 21
27.55866676676991
 31
0.0
  0
LINE
  5
42C
330
1F
100
AcDbEntity
  8
GR1_01
  6
Continuous
 62
     7
370
    25
100
AcDbLine
 10
750.0859838612439
 20
21.91346151999999
 30
0.0
 11
751.5160572036882
 21
23.34353486244428
 31
0.0
  0
LINE
  5
42D
330
1F
100
AcDbEntity
  8
GR1_01
  6
Continuous
 62
     7
370
    25
100
AcDbLine
 10
752.3324033736883
 20
24.15988103244429
 30
0.0
 11
752.8018997861325
 21
24.62937744488858
 31
0.0
  0
LINE
  5
42E
330
1F
100
AcDbEntity
  8
GR1_01
  6
Continuous
 62
     7
370
    25
100
AcDbLine
 10
753.172522341244
 20
25.0
 30
0.0
 11
753.5554802736882
 21
25.38295793244427
 31
0.0
  0
LINE
  5
42F
330
1F
100
AcDbEntity
  8
GR1_01
  6
Continuous
 62
     7
370
    25
100
AcDbLine
 10
754.371826424251
 20
26.19930408300708
 30
0.0
 11
755.8018997861325
 21
27.62937744488856
 31
0.0
  0
LINE
  5
430
330
1F
100
AcDbEntity
  8
GR1_01
  6
Continuous
 62
     7
370
    25
100
AcDbLine
 10
750.0152731831253
 20
21.91346152
 30
0.0
 11
751.4807018646288
 21
23.37889020150361
 31
0.0
  0
LINE
  5
431
330
1F
100
AcDbEntity
  8
GR1_01
  6
Continuous
 62
     7
370
    25
100
AcDbLine
 10
752.2970480346289
 20
24.19523637150363
 30
0.0
 11
752.8018997861325
 21
24.70008812300725
 31
0.0
  0
LINE
  5
432
330
1F
100
AcDbEntity
  8
GR1_01
  6
Continuous
 62
     7
370
    25
100
AcDbLine
 10
753.1018116631253
 20
25.0
 30
0.0
 11
753.5201249346289
 21
25.41831327150361
 31
0.0
  0
LINE
  5
433
330
1F
100
AcDbEntity
  8
GR1_01
  6
Continuous
 62
     7
370
    25
100
AcDbLine
 10
754.3364710856295
 20
26.23465942250415
 30
0.0
 11
755.8018997861325
 21
27.70008812300724
 31
0.0
  0
LINE
  5
434
330
1F
100
AcDbEntity
  8
GR1_01
  6
Continuous
 62
     7
370
    25
100
AcDbLine
 10
749.9445625050066
 20
21.91346151999999
 30
0.0
 11
751.4453465255696
 21
23.41424554056293
 31
0.0
  0
LINE
  5
435
330
1F
100
AcDbEntity
  8
GR1_01
  6
Continuous
 62
     7
370
    25
100
AcDbLine
 10
752.2616926955695
 20
24.23059171056295
 30
0.0
 11
752.8018997861325
 21
24.7707988011259
 31
0.0
  0
LINE
  5
436
330
1F
100
AcDbEntity
  8
GR1_01
  6
Continuous
 62
     7
370
    25
100
AcDbLine
 10
753.0311009850066
 20
25.00000000000002
 30
0.0
 11
753.4847695955696
 21
25.45366861056293
 31
0.0
  0
LINE
  5
437
330
1F
100
AcDbEntity
  8
GR1_01
  6
Continuous
 62
     7
370
    25
100
AcDbLine
 10
754.3011157470078
 20
26.27001476200121
 30
0.0
 11
755.8018997861325
 21
27.77079880112588
 31
0.0
  0
LINE
  5
438
330
1F
100
AcDbEntity
  8
GR1_01
  6
Continuous
 62
     7
370
    25
100
AcDbLine
 10
749.873851826888
 20
21.91346152
 30
0.0
 11
751.4099911865103
 21
23.44960087962226
 31
0.0
  0
LINE
  5
439
330
1F
100
AcDbEntity
  8
GR1_01
  6
Continuous
 62
     7
370
    25
100
AcDbLine
 10
752.2263373565103
 20
24.26594704962227
 30
0.0
 11
752.8018997861325
 21
24.84150947924453
 31
0.0
  0
LINE
  5
43A
330
1F
100
AcDbEntity
  8
GR1_01
  6
Continuous
 62
     7
370
    25
100
AcDbLine
 10
752.960390306888
 20
25.0
 30
0.0
 11
753.4494142565102
 21
25.48902394962225
 31
0.0
  0
LINE
  5
43B
330
1F
100
AcDbEntity
  8
GR1_01
  6
Continuous
 62
     7
370
    25
100
AcDbLine
 10
754.2657604083863
 20
26.30537010149827
 30
0.0
 11
755.8018997861325
 21
27.84150947924451
 31
0.0
  0
LINE
  5
43C
330
1F
100
AcDbEntity
  8
GR1_01
  6
Continuous
 62
     7
370
    25
100
AcDbLine
 10
749.8031411487693
 20
21.91346151999999
 30
0.0
 11
751.3746358474509
 21
23.48495621868158
 31
0.0
  0
LINE
  5
43D
330
1F
100
AcDbEntity
  8
GR1_01
  6
Continuous
 62
     7
370
    25
100
AcDbLine
 10
752.190982017451
 20
24.3013023886816
 30
0.0
 11
752.8018997861325
 21
24.91222015736318
 31
0.0
  0
LINE
  5
43E
330
1F
100
AcDbEntity
  8
GR1_01
  6
Continuous
 62
     7
370
    25
100
AcDbLine
 10
752.8896796287693
 20
25.0
 30
0.0
 11
753.4140589174509
 21
25.52437928868158
 31
0.0
  0
LINE
  5
43F
330
1F
100
AcDbEntity
  8
GR1_01
  6
Continuous
 62
     7
370
    25
100
AcDbLine
 10
754.2304050697646
 20
26.34072544099533
 30
0.0
 11
755.8018997861325
 21
27.91222015736317
 31
0.0
  0
LINE
  5
440
330
1F
100
AcDbEntity
  8
GR1_01
  6
Continuous
 62
     7
370
    25
100
AcDbLine
 10
749.8018997861325
 20
21.98293083548183
 30
0.0
 11
751.3392805083915
 21
23.5203115577409
 31
0.0
  0
LINE
  5
441
330
1F
100
AcDbEntity
  8
GR1_01
  6
Continuous
 62
     7
370
    25
100
AcDbLine
 10
752.1556266783916
 20
24.3366577277409
 30
0.0
 11
752.8018997861325
 21
24.98293083548184
 31
0.0
  0
LINE
  5
442
330
1F
100
AcDbEntity
  8
GR1_01
  6
Continuous
 62
     7
370
    25
100
AcDbLine
 10
752.8189689506507
 20
24.99999999999999
 30
0.0
 11
753.3787035783917
 21
25.55973462774091
 31
0.0
  0
LINE
  5
443
330
1F
100
AcDbEntity
  8
GR1_01
  6
Continuous
 62
     7
370
    25
100
AcDbLine
 10
754.1950497311431
 20
26.37608078049238
 30
0.0
 11
755.7324304706507
 21
27.91346152
 31
0.0
  0
LINE
  5
444
330
1F
100
AcDbEntity
  8
GR1_01
  6
Continuous
 62
     7
370
    25
100
AcDbLine
 10
749.8018997861325
 20
22.0536415136005
 30
0.0
 11
751.3039251693323
 21
23.55566689680024
 31
0.0
  0
LINE
  5
445
330
1F
100
AcDbEntity
  8
GR1_01
  6
Continuous
 62
     7
370
    25
100
AcDbLine
 10
752.1202713393322
 20
24.37201306680024
 30
0.0
 11
753.3433482393323
 21
25.59508996680025
 31
0.0
  0
LINE
  5
446
330
1F
100
AcDbEntity
  8
GR1_01
  6
Continuous
 62
     7
370
    25
100
AcDbLine
 10
754.1596943925215
 20
26.41143611998945
 30
0.0
 11
755.661719792532
 21
27.91346152000002
 31
0.0
  0
LINE
  5
447
330
1F
100
AcDbEntity
  8
GR1_01
  6
Continuous
 62
     7
370
    25
100
AcDbLine
 10
749.8018997861325
 20
22.12435219171916
 30
0.0
 11
751.2685698302729
 21
23.59102223585956
 31
0.0
  0
LINE
  5
448
330
1F
100
AcDbEntity
  8
GR1_01
  6
Continuous
 62
     7
370
    25
100
AcDbLine
 10
752.0849160002729
 20
24.40736840585956
 30
0.0
 11
753.3079929002729
 21
25.63044530585957
 31
0.0
  0
LINE
  5
449
330
1F
100
AcDbEntity
  8
GR1_01
  6
Continuous
 62
     7
370
    25
100
AcDbLine
 10
754.1243390538998
 20
26.44679145948651
 30
0.0
 11
755.5910091144134
 21
27.91346152
 31
0.0
  0
LINE
  5
44A
330
1F
100
AcDbEntity
  8
GR1_01
  6
Continuous
 62
     7
370
    25
100
AcDbLine
 10
749.8018997861325
 20
22.19506286983779
 30
0.0
 11
751.2332144912136
 21
23.62637757491888
 31
0.0
  0
LINE
  5
44B
330
1F
100
AcDbEntity
  8
GR1_01
  6
Continuous
 62
     7
370
    25
100
AcDbLine
 10
752.0495606612136
 20
24.44272374491888
 30
0.0
 11
753.2726375612136
 21
25.66580064491889
 31
0.0
  0
LINE
  5
44C
330
1F
100
AcDbEntity
  8
GR1_01
  6
Continuous
 62
     7
370
    25
100
AcDbLine
 10
754.0889837152783
 20
26.48214679898357
 30
0.0
 11
755.5202984362948
 21
27.91346152000002
 31
0.0
  0
LINE
  5
44D
330
1F
100
AcDbEntity
  8
GR1_01
  6
Continuous
 62
     7
370
    25
100
AcDbLine
 10
749.8018997861325
 20
22.26577354795643
 30
0.0
 11
751.1978591521543
 21
23.6617329139782
 31
0.0
  0
LINE
  5
44E
330
1F
100
AcDbEntity
  8
GR1_01
  6
Continuous
 62
     7
370
    25
100
AcDbLine
 10
752.0142053221543
 20
24.4780790839782
 30
0.0
 11
753.2372822221544
 21
25.70115598397821
 31
0.0
  0
LINE
  5
44F
330
1F
100
AcDbEntity
  8
GR1_01
  6
Continuous
 62
     7
370
    25
100
AcDbLine
 10
754.0536283766567
 20
26.51750213848063
 30
0.0
 11
755.4495877581761
 21
27.91346152
 31
0.0
  0
LINE
  5
450
330
1F
100
AcDbEntity
  8
GR1_01
  6
Continuous
 62
     7
370
    25
100
AcDbLine
 10
749.8018997861325
 20
22.3364842260751
 30
0.0
 11
751.1625038130949
 21
23.69708825303754
 31
0.0
  0
LINE
  5
451
330
1F
100
AcDbEntity
  8
GR1_01
  6
Continuous
 62
     7
370
    25
100
AcDbLine
 10
751.978849983095
 20
24.51343442303754
 30
0.0
 11
753.201926883095
 21
25.73651132303755
 31
0.0
  0
LINE
  5
452
330
1F
100
AcDbEntity
  8
GR1_01
  6
Continuous
 62
     7
370
    25
100
AcDbLine
 10
754.0182730380351
 20
26.55285747797767
 30
0.0
 11
755.3788770800575
 21
27.91346152000002
 31
0.0
  0
LINE
  5
453
330
1F
100
AcDbEntity
  8
GR1_01
  6
Continuous
 62
     7
370
    25
100
AcDbLine
 10
749.8018997861325
 20
22.40719490419376
 30
0.0
 11
751.1271484740356
 21
23.73244359209686
 31
0.0
  0
LINE
  5
454
330
1F
100
AcDbEntity
  8
GR1_01
  6
Continuous
 62
     7
370
    25
100
AcDbLine
 10
751.9434946440356
 20
24.54878976209686
 30
0.0
 11
753.1665715440356
 21
25.77186666209687
 31
0.0
  0
LINE
  5
455
330
1F
100
AcDbEntity
  8
GR1_01
  6
Continuous
 62
     7
370
    25
100
AcDbLine
 10
753.9829176994135
 20
26.58821281747473
 30
0.0
 11
755.3081664019387
 21
27.91346152
 31
0.0
  0
LINE
  5
456
330
1F
100
AcDbEntity
  8
GR1_01
  6
Continuous
 62
     7
370
    25
100
AcDbLine
 10
749.8018997861325
 20
22.47790558231239
 30
0.0
 11
751.0917931349763
 21
23.76779893115618
 31
0.0
  0
LINE
  5
457
330
1F
100
AcDbEntity
  8
GR1_01
  6
Continuous
 62
     7
370
    25
100
AcDbLine
 10
751.9081393049763
 20
24.58414510115619
 30
0.0
 11
753.1312162049763
 21
25.80722200115619
 31
0.0
  0
LINE
  5
458
330
1F
100
AcDbEntity
  8
GR1_01
  6
Continuous
 62
     7
370
    25
100
AcDbLine
 10
753.9475623607918
 20
26.62356815697179
 30
0.0
 11
755.2374557238202
 21
27.91346152000002
 31
0.0
  0
LINE
  5
459
330
1F
100
AcDbEntity
  8
GR1_01
  6
Continuous
 62
     7
370
    25
100
AcDbLine
 10
749.8018997861325
 20
22.54861626043104
 30
0.0
 11
751.056437795917
 21
23.8031542702155
 31
0.0
  0
LINE
  5
45A
330
1F
100
AcDbEntity
  8
GR1_01
  6
Continuous
 62
     7
370
    25
100
AcDbLine
 10
751.872783965917
 20
24.61950044021551
 30
0.0
 11
753.0958608659171
 21
25.84257734021552
 31
0.0
  0
LINE
  5
45B
330
1F
100
AcDbEntity
  8
GR1_01
  6
Continuous
 62
     7
370
    25
100
AcDbLine
 10
753.9122070221704
 20
26.65892349646885
 30
0.0
 11
755.1667450457014
 21
27.91346152
 31
0.0
  0
LINE
  5
45C
330
1F
100
AcDbEntity
  8
GR1_01
  6
Continuous
 62
     7
370
    25
100
AcDbLine
 10
749.8018997861325
 20
22.61932693854971
 30
0.0
 11
751.0210824568576
 21
23.83850960927484
 31
0.0
  0
LINE
  5
45D
330
1F
100
AcDbEntity
  8
GR1_01
  6
Continuous
 62
     7
370
    25
100
AcDbLine
 10
751.8374286268577
 20
24.65485577927484
 30
0.0
 11
753.0605055268577
 21
25.87793267927485
 31
0.0
  0
LINE
  5
45E
330
1F
100
AcDbEntity
  8
GR1_01
  6
Continuous
 62
     7
370
    25
100
AcDbLine
 10
753.8768516835487
 20
26.69427883596592
 30
0.0
 11
755.0960343675829
 21
27.91346152000002
 31
0.0
  0
LINE
  5
45F
330
1F
100
AcDbEntity
  8
GR1_01
  6
Continuous
 62
     7
370
    25
100
AcDbLine
 10
749.8018997861325
 20
22.69003761666835
 30
0.0
 11
750.9857271177983
 21
23.87386494833416
 31
0.0
  0
LINE
  5
460
330
1F
100
AcDbEntity
  8
GR1_01
  6
Continuous
 62
     7
370
    25
100
AcDbLine
 10
751.8020732877983
 20
24.69021111833417
 30
0.0
 11
753.0251501877983
 21
25.91328801833417
 31
0.0
  0
LINE
  5
461
330
1F
100
AcDbEntity
  8
GR1_01
  6
Continuous
 62
     7
370
    25
100
AcDbLine
 10
753.8414963449271
 20
26.72963417546298
 30
0.0
 11
755.0253236894641
 21
27.91346152
 31
0.0
  0
LINE
  5
462
330
1F
100
AcDbEntity
  8
GR1_01
  6
Continuous
 62
     7
370
    25
100
AcDbLine
 10
749.8018997861325
 20
22.760748294787
 30
0.0
 11
750.950371778739
 21
23.90922028739348
 31
0.0
  0
LINE
  5
463
330
1F
100
AcDbEntity
  8
GR1_01
  6
Continuous
 62
     7
370
    25
100
AcDbLine
 10
751.766717948739
 20
24.72556645739349
 30
0.0
 11
752.989794848739
 21
25.94864335739353
 31
0.0
  0
LINE
  5
464
330
1F
100
AcDbEntity
  8
GR1_01
  6
Continuous
 62
     7
370
    25
100
AcDbLine
 10
753.8061410063056
 20
26.76498951496002
 30
0.0
 11
754.9546130113456
 21
27.91346152000002
 31
0.0
  0
LINE
  5
465
330
1F
100
AcDbEntity
  8
GR1_01
  6
Continuous
 62
     7
370
    25
100
AcDbLine
 10
749.8018997861325
 20
22.83145897290564
 30
0.0
 11
750.9150164396797
 21
23.94457562645281
 31
0.0
  0
LINE
  5
466
330
1F
100
AcDbEntity
  8
GR1_01
  6
Continuous
 62
     7
370
    25
100
AcDbLine
 10
751.7313626096796
 20
24.76092179645281
 30
0.0
 11
752.9544395096798
 21
25.98399869645285
 31
0.0
  0
LINE
  5
467
330
1F
100
AcDbEntity
  8
GR1_01
  6
Continuous
 62
     7
370
    25
100
AcDbLine
 10
753.770785667684
 20
26.80034485445708
 30
0.0
 11
754.8839023332268
 21
27.91346152
 31
0.0
  0
LINE
  5
468
330
1F
100
AcDbEntity
  8
GR1_01
  6
Continuous
 62
     7
370
    25
100
AcDbLine
 10
749.8018997861325
 20
22.9021696510243
 30
0.0
 11
750.8796611006203
 21
23.97993096551214
 31
0.0
  0
LINE
  5
469
330
1F
100
AcDbEntity
  8
GR1_01
  6
Continuous
 62
     7
370
    25
100
AcDbLine
 10
751.6960072706204
 20
24.79627713551215
 30
0.0
 11
752.9190841706204
 21
26.01935403551218
 31
0.0
  0
LINE
  5
46A
330
1F
100
AcDbEntity
  8
GR1_01
  6
Continuous
 62
     7
370
    25
100
AcDbLine
 10
753.7354303290624
 20
26.83570019395416
 30
0.0
 11
754.8131916551082
 21
27.91346152000002
 31
0.0
  0
LINE
  5
46B
330
1F
100
AcDbEntity
  8
GR1_01
  6
Continuous
 62
     7
370
    25
100
AcDbLine
 10
749.8018997861325
 20
22.97288032914296
 30
0.0
 11
750.844305761561
 21
24.01528630457146
 31
0.0
  0
LINE
  5
46C
330
1F
100
AcDbEntity
  8
GR1_01
  6
Continuous
 62
     7
370
    25
100
AcDbLine
 10
751.660651931561
 20
24.83163247457147
 30
0.0
 11
752.883728831561
 21
26.05470937457151
 31
0.0
  0
LINE
  5
46D
330
1F
100
AcDbEntity
  8
GR1_01
  6
Continuous
 62
     7
370
    25
100
AcDbLine
 10
753.7000749904407
 20
26.87105553345122
 30
0.0
 11
754.7424809769896
 21
27.91346152
 31
0.0
  0
LINE
  5
46E
330
1F
100
AcDbEntity
  8
GR1_01
  6
Continuous
 62
     7
370
    25
100
AcDbLine
 10
749.8018997861325
 20
23.0435910072616
 30
0.0
 11
750.8089504225018
 21
24.05064164363079
 31
0.0
  0
LINE
  5
46F
330
1F
100
AcDbEntity
  8
GR1_01
  6
Continuous
 62
     7
370
    25
100
AcDbLine
 10
751.6252965925016
 20
24.86698781363079
 30
0.0
 11
752.8483734925018
 21
26.09006471363083
 31
0.0
  0
LINE
  5
470
330
1F
100
AcDbEntity
  8
GR1_01
  6
Continuous
 62
     7
370
    25
100
AcDbLine
 10
753.6647196518192
 20
26.90641087294827
 30
0.0
 11
754.6717702988709
 21
27.91346152000002
 31
0.0
  0
LINE
  5
471
330
1F
100
AcDbEntity
  8
GR1_01
  6
Continuous
 62
     7
370
    25
100
AcDbLine
 10
749.8018997861325
 20
23.11430168538024
 30
0.0
 11
750.7735950834424
 21
24.08599698269011
 31
0.0
  0
LINE
  5
472
330
1F
100
AcDbEntity
  8
GR1_01
  6
Continuous
 62
     7
370
    25
100
AcDbLine
 10
751.5899412534424
 20
24.90234315269011
 30
0.0
 11
752.8130181534424
 21
26.12542005269015
 31
0.0
  0
LINE
  5
473
330
1F
100
AcDbEntity
  8
GR1_01
  6
Continuous
 62
     7
370
    25
100
AcDbLine
 10
753.6293643131976
 20
26.94176621244533
 30
0.0
 11
754.6010596207523
 21
27.91346152
 31
0.0
  0
LINE
  5
474
330
1F
100
AcDbEntity
  8
GR1_01
  6
Continuous
 62
     7
370
    25
100
AcDbLine
 10
749.8018997861325
 20
23.1850123634989
 30
0.0
 11
750.738239744383
 21
24.12135232174944
 31
0.0
  0
LINE
  5
475
330
1F
100
AcDbEntity
  8
GR1_01
  6
Continuous
 62
     7
370
    25
100
AcDbLine
 10
753.594008974576
 20
26.97712155194238
 30
0.0
 11
754.5303489426336
 21
27.91346152000002
 31
0.0
  0
LINE
  5
476
330
1F
100
AcDbEntity
  8
GR1_01
  6
Continuous
 62
     7
370
    25
100
AcDbLine
 10
749.8018997861325
 20
23.25572304161756
 30
0.0
 11
750.7028844053237
 21
24.15670766080877
 31
0.0
  0
LINE
  5
477
330
1F
100
AcDbEntity
  8
GR1_01
  6
Continuous
 62
     7
370
    25
100
AcDbLine
 10
753.5586536359544
 20
27.01247689143944
 30
0.0
 11
754.459638264515
 21
27.91346152
 31
0.0
  0
LINE
  5
478
330
1F
100
AcDbEntity
  8
GR1_01
  6
Continuous
 62
     7
370
    25
100
AcDbLine
 10
749.8018997861325
 20
23.3264337197362
 30
0.0
 11
750.6675290662644
 21
24.19206299986809
 31
0.0
  0
LINE
  5
479
330
1F
100
AcDbEntity
  8
GR1_01
  6
Continuous
 62
     7
370
    25
100
AcDbLine
 10
753.5232982973328
 20
27.0478322309365
 30
0.0
 11
754.3889275863963
 21
27.91346152000002
 31
0.0
  0
LINE
  5
47A
330
1F
100
AcDbEntity
  8
GR1_01
  6
Continuous
 62
     7
370
    25
100
AcDbLine
 10
749.8018997861325
 20
23.39714439785483
 30
0.0
 11
750.6321737272051
 21
24.2274183389274
 31
0.0
  0
LINE
  5
47B
330
1F
100
AcDbEntity
  8
GR1_01
  6
Continuous
 62
     7
370
    25
100
AcDbLine
 10
753.4879429587112
 20
27.08318757043356
 30
0.0
 11
754.3182169082777
 21
27.91346152
 31
0.0
  0
LINE
  5
47C
330
1F
100
AcDbEntity
  8
GR1_01
  6
Continuous
 62
     7
370
    25
100
AcDbLine
 10
749.8018997861325
 20
23.46785507597349
 30
0.0
 11
750.5968183881457
 21
24.26277367798672
 31
0.0
  0
LINE
  5
47D
330
1F
100
AcDbEntity
  8
GR1_01
  6
Continuous
 62
     7
370
    25
100
AcDbLine
 10
753.4525876200896
 20
27.11854290993061
 30
0.0
 11
754.247506230159
 21
27.91346152
 31
0.0
  0
LINE
  5
47E
330
1F
100
AcDbEntity
  8
GR1_01
  6
Continuous
 62
     7
370
    25
100
AcDbLine
 10
749.8018997861325
 20
23.53856575409216
 30
0.0
 11
750.5614630490863
 21
24.29812901704605
 31
0.0
  0
LINE
  5
47F
330
1F
100
AcDbEntity
  8
GR1_01
  6
Continuous
 62
     7
370
    25
100
AcDbLine
 10
753.417232281468
 20
27.15389824942769
 30
0.0
 11
754.1767955520404
 21
27.91346152000002
 31
0.0
  0
LINE
  5
480
330
1F
100
AcDbEntity
  8
GR1_01
  6
Continuous
 62
     7
370
    25
100
AcDbLine
 10
749.8018997861325
 20
23.60927643221081
 30
0.0
 11
750.5261077100271
 21
24.33348435610538
 31
0.0
  0
LINE
  5
481
330
1F
100
AcDbEntity
  8
GR1_01
  6
Continuous
 62
     7
370
    25
100
AcDbLine
 10
753.3818769428465
 20
27.18925358892473
 30
0.0
 11
754.1060848739216
 21
27.91346152000002
 31
0.0
  0
LINE
  5
482
330
1F
100
AcDbEntity
  8
GR1_01
  6
Continuous
 62
     7
370
    25
100
AcDbLine
 10
749.8018997861325
 20
23.67998711032944
 30
0.0
 11
750.4907523709678
 21
24.3688396951647
 31
0.0
  0
LINE
  5
483
330
1F
100
AcDbEntity
  8
GR1_01
  6
Continuous
 62
     7
370
    25
100
AcDbLine
 10
753.3465216042248
 20
27.22460892842179
 30
0.0
 11
754.0353741958031
 21
27.91346152
 31
0.0
  0
LINE
  5
484
330
1F
100
AcDbEntity
  8
GR1_01
  6
Continuous
 62
     7
370
    25
100
AcDbLine
 10
749.8018997861325
 20
23.7506977884481
 30
0.0
 11
750.4553970319084
 21
24.40419503422402
 31
0.0
  0
LINE
  5
485
330
1F
100
AcDbEntity
  8
GR1_01
  6
Continuous
 62
     7
370
    25
100
AcDbLine
 10
753.3111662656033
 20
27.25996426791885
 30
0.0
 11
753.9646635176844
 21
27.91346152000002
 31
0.0
  0
LINE
  5
486
330
1F
100
AcDbEntity
  8
GR1_01
  6
Continuous
 62
     7
370
    25
100
AcDbLine
 10
749.8018997861325
 20
23.82140846656677
 30
0.0
 11
750.420041692849
 21
24.43955037328336
 31
0.0
  0
LINE
  5
487
330
1F
100
AcDbEntity
  8
GR1_01
  6
Continuous
 62
     7
370
    25
100
AcDbLine
 10
753.2758109269816
 20
27.29531960741592
 30
0.0
 11
753.8939528395658
 21
27.91346152000002
 31
0.0
  0
LINE
  5
488
330
1F
100
AcDbEntity
  8
GR1_01
  6
Continuous
 62
     7
370
    25
100
AcDbLine
 10
749.8018997861325
 20
23.89211914468541
 30
0.0
 11
750.3846863537898
 21
24.47490571234268
 31
0.0
  0
LINE
  5
489
330
1F
100
AcDbEntity
  8
GR1_01
  6
Continuous
 62
     7
370
    25
100
AcDbLine
 10
753.2404555883601
 20
27.33067494691298
 30
0.0
 11
753.8232421614471
 21
27.91346152000002
 31
0.0
  0
LINE
  5
48A
330
1F
100
AcDbEntity
  8
GR1_01
  6
Continuous
 62
     7
370
    25
100
AcDbLine
 10
749.8018997861325
 20
23.96282982280404
 30
0.0
 11
750.3493310147305
 21
24.510261051402
 31
0.0
  0
LINE
  5
48B
330
1F
100
AcDbEntity
  8
GR1_01
  6
Continuous
 62
     7
370
    25
100
AcDbLine
 10
753.2051002497385
 20
27.36603028641001
 30
0.0
 11
753.7525314833284
 21
27.91346152
 31
0.0
  0
LINE
  5
48C
330
1F
100
AcDbEntity
  8
GR1_01
  6
Continuous
 62
     7
370
    25
100
AcDbLine
 10
749.8018997861325
 20
24.0335405009227
 30
0.0
 11
750.3139756756711
 21
24.54561639046132
 31
0.0
  0
LINE
  5
48D
330
1F
100
AcDbEntity
  8
GR1_01
  6
Continuous
 62
     7
370
    25
100
AcDbLine
 10
753.1697449111168
 20
27.40138562590707
 30
0.0
 11
753.6818208052098
 21
27.91346152000002
 31
0.0
  0
LINE
  5
48E
330
1F
100
AcDbEntity
  8
GR1_01
  6
Continuous
 62
     7
370
    25
100
AcDbLine
 10
749.8018997861325
 20
24.10425117904137
 30
0.0
 11
750.2786203366118
 21
24.58097172952066
 31
0.0
  0
LINE
  5
48F
330
1F
100
AcDbEntity
  8
GR1_01
  6
Continuous
 62
     7
370
    25
100
AcDbLine
 10
753.1343895724953
 20
27.43674096540414
 30
0.0
 11
753.6111101270911
 21
27.91346152000002
 31
0.0
  0
LINE
  5
490
330
1F
100
AcDbEntity
  8
GR1_01
  6
Continuous
 62
     7
370
    25
100
AcDbLine
 10
749.8018997861325
 20
24.17496185716002
 30
0.0
 11
750.2432649975525
 21
24.61632706857998
 31
0.0
  0
LINE
  5
491
330
1F
100
AcDbEntity
  8
GR1_01
  6
Continuous
 62
     7
370
    25
100
AcDbLine
 10
753.0990342338737
 20
27.4720963049012
 30
0.0
 11
753.5403994489725
 21
27.91346152000002
 31
0.0
  0
LINE
  5
492
330
1F
100
AcDbEntity
  8
GR1_01
  6
Continuous
 62
     7
370
    25
100
AcDbLine
 10
749.8018997861325
 20
24.24567253527865
 30
0.0
 11
750.2079096584931
 21
24.6516824076393
 31
0.0
  0
LINE
  5
493
330
1F
100
AcDbEntity
  8
GR1_01
  6
Continuous
 62
     7
370
    25
100
AcDbLine
 10
753.0636788952521
 20
27.50745164439826
 30
0.0
 11
753.4696887708538
 21
27.91346152
 31
0.0
  0
LINE
  5
494
330
1F
100
AcDbEntity
  8
GR1_01
  6
Continuous
 62
     7
370
    25
100
AcDbLine
 10
749.8018997861325
 20
24.31638321339731
 30
0.0
 11
750.1725543194339
 21
24.68703774669862
 31
0.0
  0
LINE
  5
495
330
1F
100
AcDbEntity
  8
GR1_01
  6
Continuous
 62
     7
370
    25
100
AcDbLine
 10
753.0283235566305
 20
27.54280698389532
 30
0.0
 11
753.3989780927352
 21
27.91346152000002
 31
0.0
  0
LINE
  5
496
330
1F
100
AcDbEntity
  8
GR1_01
  6
Continuous
 62
     7
370
    25
100
AcDbLine
 10
749.8018997861325
 20
24.38709389151598
 30
0.0
 11
750.1371989803745
 21
24.72239308575796
 31
0.0
  0
LINE
  5
497
330
1F
100
AcDbEntity
  8
GR1_01
  6
Continuous
 62
     7
370
    25
100
AcDbLine
 10
752.9929682180089
 20
27.57816232339238
 30
0.0
 11
753.3282674146166
 21
27.91346152000002
 31
0.0
  0
LINE
  5
498
330
1F
100
AcDbEntity
  8
GR1_01
  6
Continuous
 62
     7
370
    25
100
AcDbLine
 10
749.8018997861325
 20
24.45780456963462
 30
0.0
 11
750.1018436413151
 21
24.75774842481728
 31
0.0
  0
LINE
  5
499
330
1F
100
AcDbEntity
  8
GR1_01
  6
Continuous
 62
     7
370
    25
100
AcDbLine
 10
752.9576128793874
 20
27.61351766288944
 30
0.0
 11
753.2575567364979
 21
27.91346152000002
 31
0.0
  0
LINE
  5
49A
330
1F
100
AcDbEntity
  8
GR1_01
  6
Continuous
 62
     7
370
    25
100
AcDbLine
 10
749.8018997861325
 20
24.52851524775325
 30
0.0
 11
750.0664883022558
 21
24.7931037638766
 31
0.0
  0
LINE
  5
49B
330
1F
100
AcDbEntity
  8
GR1_01
  6
Continuous
 62
     7
370
    25
100
AcDbLine
 10
752.9222575407657
 20
27.6488730023865
 30
0.0
 11
753.1868460583793
 21
27.91346152
 31
0.0
  0
LINE
  5
49C
330
1F
100
AcDbEntity
  8
GR1_01
  6
Continuous
 62
     7
370
    25
100
AcDbLine
 10
749.8018997861325
 20
24.59922592587191
 30
0.0
 11
750.0311329631966
 21
24.82845910293593
 31
0.0
  0
LINE
  5
49D
330
1F
100
AcDbEntity
  8
GR1_01
  6
Continuous
 62
     7
370
    25
100
AcDbLine
 10
752.8869022021441
 20
27.68422834188356
 30
0.0
 11
753.1161353802606
 21
27.91346152000002
 31
0.0
  0
LINE
  5
49E
330
1F
100
AcDbEntity
  8
GR1_01
  6
Continuous
 62
     7
370
    25
100
AcDbLine
 10
749.8018997861325
 20
24.66993660399058
 30
0.0
 11
749.9957776241372
 21
24.86381444199526
 31
0.0
  0
LINE
  5
49F
330
1F
100
AcDbEntity
  8
GR1_01
  6
Continuous
 62
     7
370
    25
100
AcDbLine
 10
752.8515468635226
 20
27.71958368138063
 30
0.0
 11
753.045424702142
 21
27.91346152000002
 31
0.0
  0
LINE
  5
4A0
330
1F
100
AcDbEntity
  8
GR1_01
  6
Continuous
 62
     7
370
    25
100
AcDbLine
 10
749.8018997861325
 20
24.74064728210923
 30
0.0
 11
749.9604222850778
 21
24.89916978105459
 31
0.0
  0
LINE
  5
4A1
330
1F
100
AcDbEntity
  8
GR1_01
  6
Continuous
 62
     7
370
    25
100
AcDbLine
 10
752.816191524901
 20
27.75493902087769
 30
0.0
 11
752.9747140240233
 21
27.91346152000002
 31
0.0
  0
LINE
  5
4A2
330
1F
100
AcDbEntity
  8
GR1_01
  6
Continuous
 62
     7
370
    25
100
AcDbLine
 10
749.8018997861325
 20
24.81135796022786
 30
0.0
 11
752.9040033459046
 21
27.91346152
 31
0.0
  0
LINE
  5
4A3
330
1F
100
AcDbEntity
  8
GR1_01
  6
Continuous
 62
     7
370
    25
100
AcDbLine
 10
749.8018997861325
 20
24.88206863834651
 30
0.0
 11
752.833292667786
 21
27.91346151999999
 31
0.0
  0
LINE
  5
4A4
330
1F
100
AcDbEntity
  8
GR1_01
  6
Continuous
 62
     7
370
    25
100
AcDbLine
 10
749.8018997861325
 20
24.95277931646517
 30
0.0
 11
752.7625819896673
 21
27.91346152
 31
0.0
  0
LINE
  5
4A5
330
1F
100
AcDbEntity
  8
GR1_01
  6
Continuous
 62
     7
370
    25
100
AcDbLine
 10
749.8018997861325
 20
25.02348999458383
 30
0.0
 11
752.6918713115487
 21
27.91346152
 31
0.0
  0
LINE
  5
4A6
330
1F
100
AcDbEntity
  8
GR1_01
  6
Continuous
 62
     7
370
    25
100
AcDbLine
 10
749.8018997861325
 20
25.09420067270246
 30
0.0
 11
752.62116063343
 21
27.91346152
 31
0.0
  0
LINE
  5
4A7
330
1F
100
AcDbEntity
  8
GR1_01
  6
Continuous
 62
     7
370
    25
100
AcDbLine
 10
749.8018997861325
 20
25.16491135082112
 30
0.0
 11
752.5504499553114
 21
27.91346151999999
 31
0.0
  0
LINE
  5
4A8
330
1F
100
AcDbEntity
  8
GR1_01
  6
Continuous
 62
     7
370
    25
100
AcDbLine
 10
749.8018997861325
 20
25.23562202893978
 30
0.0
 11
752.4797392771927
 21
27.91346152
 31
0.0
  0
LINE
  5
4A9
330
1F
100
AcDbEntity
  8
GR1_01
  6
Continuous
 62
     7
370
    25
100
AcDbLine
 10
749.8018997861325
 20
25.30633270705843
 30
0.0
 11
752.4090285990741
 21
27.91346152
 31
0.0
  0
LINE
  5
4AA
330
1F
100
AcDbEntity
  8
GR1_01
  6
Continuous
 62
     7
370
    25
100
AcDbLine
 10
749.8018997861325
 20
25.37704338517706
 30
0.0
 11
752.3383179209554
 21
27.91346152
 31
0.0
  0
LINE
  5
4AB
330
1F
100
AcDbEntity
  8
GR1_01
  6
Continuous
 62
     7
370
    25
100
AcDbLine
 10
749.8018997861325
 20
25.44775406329572
 30
0.0
 11
752.2676072428368
 21
27.91346151999999
 31
0.0
  0
LINE
  5
4AC
330
1F
100
AcDbEntity
  8
GR1_01
  6
Continuous
 62
     7
370
    25
100
AcDbLine
 10
749.8018997861325
 20
25.51846474141438
 30
0.0
 11
752.1968965647181
 21
27.91346152
 31
0.0
  0
LINE
  5
4AD
330
1F
100
AcDbEntity
  8
GR1_01
  6
Continuous
 62
     7
370
    25
100
AcDbLine
 10
749.8018997861325
 20
25.58917541953304
 30
0.0
 11
752.1261858865995
 21
27.91346152
 31
0.0
  0
LINE
  5
4AE
330
1F
100
AcDbEntity
  8
GR1_01
  6
Continuous
 62
     7
370
    25
100
AcDbLine
 10
749.8018997861325
 20
25.65988609765167
 30
0.0
 11
752.0554752084809
 21
27.91346152
 31
0.0
  0
LINE
  5
4AF
330
1F
100
AcDbEntity
  8
GR1_01
  6
Continuous
 62
     7
370
    25
100
AcDbLine
 10
749.8018997861325
 20
25.73059677577033
 30
0.0
 11
751.9847645303622
 21
27.91346151999999
 31
0.0
  0
LINE
  5
4B0
330
1F
100
AcDbEntity
  8
GR1_01
  6
Continuous
 62
     7
370
    25
100
AcDbLine
 10
749.8018997861325
 20
25.80130745388898
 30
0.0
 11
751.9140538522436
 21
27.91346152
 31
0.0
  0
LINE
  5
4B1
330
1F
100
AcDbEntity
  8
GR1_01
  6
Continuous
 62
     7
370
    25
100
AcDbLine
 10
749.8018997861325
 20
25.87201813200764
 30
0.0
 11
751.8433431741248
 21
27.91346152
 31
0.0
  0
LINE
  5
4B2
330
1F
100
AcDbEntity
  8
GR1_01
  6
Continuous
 62
     7
370
    25
100
AcDbLine
 10
749.8018997861325
 20
25.94272881012627
 30
0.0
 11
751.7726324960063
 21
27.91346152
 31
0.0
  0
LINE
  5
4B3
330
1F
100
AcDbEntity
  8
GR1_01
  6
Continuous
 62
     7
370
    25
100
AcDbLine
 10
749.8018997861325
 20
26.01343948824493
 30
0.0
 11
751.7019218178875
 21
27.91346151999999
 31
0.0
  0
LINE
  5
4B4
330
1F
100
AcDbEntity
  8
GR1_01
  6
Continuous
 62
     7
370
    25
100
AcDbLine
 10
749.8018997861325
 20
26.08415016636359
 30
0.0
 11
751.631211139769
 21
27.91346152
 31
0.0
  0
LINE
  5
4B5
330
1F
100
AcDbEntity
  8
GR1_01
  6
Continuous
 62
     7
370
    25
100
AcDbLine
 10
749.8018997861325
 20
26.15486084448223
 30
0.0
 11
751.5605004616502
 21
27.91346152
 31
0.0
  0
LINE
  5
4B6
330
1F
100
AcDbEntity
  8
GR1_01
  6
Continuous
 62
     7
370
    25
100
AcDbLine
 10
749.8018997861325
 20
26.22557152260088
 30
0.0
 11
751.4897897835317
 21
27.91346152
 31
0.0
  0
LINE
  5
4B7
330
1F
100
AcDbEntity
  8
GR1_01
  6
Continuous
 62
     7
370
    25
100
AcDbLine
 10
749.8018997861325
 20
26.29628220071953
 30
0.0
 11
751.419079105413
 21
27.91346152
 31
0.0
  0
LINE
  5
4B8
330
1F
100
AcDbEntity
  8
GR1_01
  6
Continuous
 62
     7
370
    25
100
AcDbLine
 10
749.8018997861325
 20
26.36699287883819
 30
0.0
 11
751.3483684272943
 21
27.91346152
 31
0.0
  0
LINE
  5
4B9
330
1F
100
AcDbEntity
  8
GR1_01
  6
Continuous
 62
     7
370
    25
100
AcDbLine
 10
749.8018997861325
 20
26.43770355695684
 30
0.0
 11
751.2776577491757
 21
27.91346152
 31
0.0
  0
LINE
  5
4BA
330
1F
100
AcDbEntity
  8
GR1_01
  6
Continuous
 62
     7
370
    25
100
AcDbLine
 10
749.8018997861325
 20
26.50841423507548
 30
0.0
 11
751.206947071057
 21
27.91346152000002
 31
0.0
  0
LINE
  5
4BB
330
1F
100
AcDbEntity
  8
GR1_01
  6
Continuous
 62
     7
370
    25
100
AcDbLine
 10
749.8018997861325
 20
26.57912491319414
 30
0.0
 11
751.1362363929384
 21
27.91346152
 31
0.0
  0
LINE
  5
4BC
330
1F
100
AcDbEntity
  8
GR1_01
  6
Continuous
 62
     7
370
    25
100
AcDbLine
 10
749.8018997861325
 20
26.6498355913128
 30
0.0
 11
751.0655257148197
 21
27.91346152
 31
0.0
  0
LINE
  5
4BD
330
1F
100
AcDbEntity
  8
GR1_01
  6
Continuous
 62
     7
370
    25
100
AcDbLine
 10
749.8018997861325
 20
26.72054626943143
 30
0.0
 11
750.9948150367011
 21
27.91346151999999
 31
0.0
  0
LINE
  5
4BE
330
1F
100
AcDbEntity
  8
GR1_01
  6
Continuous
 62
     7
370
    25
100
AcDbLine
 10
749.8018997861325
 20
26.79125694755009
 30
0.0
 11
750.9241043585824
 21
27.91346152000002
 31
0.0
  0
LINE
  5
4BF
330
1F
100
AcDbEntity
  8
GR1_01
  6
Continuous
 62
     7
370
    25
100
AcDbLine
 10
749.8018997861325
 20
26.86196762566874
 30
0.0
 11
750.8533936804638
 21
27.91346152
 31
0.0
  0
LINE
  5
4C0
330
1F
100
AcDbEntity
  8
GR1_01
  6
Continuous
 62
     7
370
    25
100
AcDbLine
 10
749.8018997861325
 20
26.9326783037874
 30
0.0
 11
750.7826830023452
 21
27.91346152
 31
0.0
  0
LINE
  5
4C1
330
1F
100
AcDbEntity
  8
GR1_01
  6
Continuous
 62
     7
370
    25
100
AcDbLine
 10
749.8018997861325
 20
27.00338898190603
 30
0.0
 11
750.7119723242265
 21
27.91346151999999
 31
0.0
  0
LINE
  5
4C2
330
1F
100
AcDbEntity
  8
GR1_01
  6
Continuous
 62
     7
370
    25
100
AcDbLine
 10
749.8018997861325
 20
27.07409966002469
 30
0.0
 11
750.6412616461078
 21
27.91346152000002
 31
0.0
  0
LINE
  5
4C3
330
1F
100
AcDbEntity
  8
GR1_01
  6
Continuous
 62
     7
370
    25
100
AcDbLine
 10
749.8018997861325
 20
27.14481033814335
 30
0.0
 11
750.5705509679892
 21
27.91346152
 31
0.0
  0
LINE
  5
4C4
330
1F
100
AcDbEntity
  8
GR1_01
  6
Continuous
 62
     7
370
    25
100
AcDbLine
 10
749.8018997861325
 20
27.21552101626201
 30
0.0
 11
750.4998402898705
 21
27.91346152
 31
0.0
  0
LINE
  5
4C5
330
1F
100
AcDbEntity
  8
GR1_01
  6
Continuous
 62
     7
370
    25
100
AcDbLine
 10
749.8018997861325
 20
27.28623169438064
 30
0.0
 11
750.4291296117519
 21
27.91346151999999
 31
0.0
  0
LINE
  5
4C6
330
1F
100
AcDbEntity
  8
GR1_01
  6
Continuous
 62
     7
370
    25
100
AcDbLine
 10
749.8018997861325
 20
27.35694237249929
 30
0.0
 11
750.3584189336332
 21
27.91346152000002
 31
0.0
  0
LINE
  5
4C7
330
1F
100
AcDbEntity
  8
GR1_01
  6
Continuous
 62
     7
370
    25
100
AcDbLine
 10
749.8018997861325
 20
27.42765305061795
 30
0.0
 11
750.2877082555145
 21
27.91346152
 31
0.0
  0
LINE
  5
4C8
330
1F
100
AcDbEntity
  8
GR1_01
  6
Continuous
 62
     7
370
    25
100
AcDbLine
 10
749.8018997861325
 20
27.49836372873661
 30
0.0
 11
750.2169975773959
 21
27.91346152
 31
0.0
  0
LINE
  5
4C9
330
1F
100
AcDbEntity
  8
GR1_01
  6
Continuous
 62
     7
370
    25
100
AcDbLine
 10
749.8018997861325
 20
27.56907440685524
 30
0.0
 11
750.1462868992772
 21
27.91346151999999
 31
0.0
  0
LINE
  5
4CA
330
1F
100
AcDbEntity
  8
GR1_01
  6
Continuous
 62
     7
370
    25
100
AcDbLine
 10
749.8018997861325
 20
27.6397850849739
 30
0.0
 11
750.0755762211586
 21
27.91346152000002
 31
0.0
  0
LINE
  5
4CB
330
1F
100
AcDbEntity
  8
GR1_01
  6
Continuous
 62
     7
370
    25
100
AcDbLine
 10
749.8018997861325
 20
27.71049576309256
 30
0.0
 11
750.00486554304
 21
27.91346152
 31
0.0
  0
LINE
  5
4CC
330
1F
100
AcDbEntity
  8
GR1_01
  6
Continuous
 62
     7
370
    25
100
AcDbLine
 10
749.8018997861325
 20
27.78120644121121
 30
0.0
 11
749.9341548649213
 21
27.91346152
 31
0.0
  0
LINE
  5
4CD
330
1F
100
AcDbEntity
  8
GR1_01
  6
Continuous
 62
     7
370
    25
100
AcDbLine
 10
749.8018997861325
 20
27.85191711932984
 30
0.0
 11
749.8634441868027
 21
27.91346151999999
 31
0.0
  0
LINE
  5
4CE
330
1F
100
AcDbEntity
  8
GR1_01
  6
Continuous
 62
     7
370
    25
100
AcDbLine
 10
750.7930906424303
 20
21.91346151999999
 30
0.0
 11
751.8696105942814
 21
22.98998147185103
 31
0.0
  0
LINE
  5
4CF
330
1F
100
AcDbEntity
  8
GR1_01
  6
Continuous
 62
     7
370
    25
100
AcDbLine
 10
752.6859567642815
 20
23.80632764185104
 30
0.0
 11
753.0142445024304
 21
24.13461538000002
 31
0.0
  0
LINE
  5
4D0
330
1F
100
AcDbEntity
  8
GR1_01
  6
Continuous
 62
     7
370
    25
100
AcDbLine
 10
753.8796291224305
 20
25.00000000000002
 30
0.0
 11
754.2257829224304
 21
25.34615379999999
 31
0.0
  0
LINE
  5
4D1
330
1F
100
AcDbEntity
  8
GR1_01
  6
Continuous
 62
     7
370
    25
100
AcDbLine
 10
754.725379810467
 20
25.84575068803651
 30
0.0
 11
755.8018997861325
 21
26.92227066370207
 31
0.0
  0
LINE
  5
4D2
330
1F
100
AcDbEntity
  8
GR1_01
  6
Continuous
 62
     7
370
    25
100
AcDbLine
 10
750.8638013205491
 20
21.91346152
 30
0.0
 11
751.9049659333408
 21
22.95462613279171
 31
0.0
  0
LINE
  5
4D3
330
1F
100
AcDbEntity
  8
GR1_01
  6
Continuous
 62
     7
370
    25
100
AcDbLine
 10
752.7213121033408
 20
23.77097230279172
 30
0.0
 11
753.0849551805491
 21
24.13461538
 31
0.0
  0
LINE
  5
4D4
330
1F
100
AcDbEntity
  8
GR1_01
  6
Continuous
 62
     7
370
    25
100
AcDbLine
 10
753.950339800549
 20
25.0
 30
0.0
 11
754.2964936005491
 21
25.3461538
 31
0.0
  0
LINE
  5
4D5
330
1F
100
AcDbEntity
  8
GR1_01
  6
Continuous
 62
     7
370
    25
100
AcDbLine
 10
754.7607351490885
 20
25.81039534853945
 30
0.0
 11
755.8018997861325
 21
26.85155998558342
 31
0.0
  0
LINE
  5
4D6
330
1F
100
AcDbEntity
  8
GR1_01
  6
Continuous
 62
     7
370
    25
100
AcDbLine
 10
750.9345119986677
 20
21.91346151999999
 30
0.0
 11
751.9403212724001
 21
22.91927079373237
 31
0.0
  0
LINE
  5
4D7
330
1F
100
AcDbEntity
  8
GR1_01
  6
Continuous
 62
     7
370
    25
100
AcDbLine
 10
752.7566674424002
 20
23.73561696373239
 30
0.0
 11
753.1556658586677
 21
24.13461537999999
 31
0.0
  0
LINE
  5
4D8
330
1F
100
AcDbEntity
  8
GR1_01
  6
Continuous
 62
     7
370
    25
100
AcDbLine
 10
754.0210504786678
 20
24.99999999999999
 30
0.0
 11
754.3672042786677
 21
25.34615379999997
 31
0.0
  0
LINE
  5
4D9
330
1F
100
AcDbEntity
  8
GR1_01
  6
Continuous
 62
     7
370
    25
100
AcDbLine
 10
754.7960904877101
 20
25.77504000904237
 30
0.0
 11
755.8018997861325
 21
26.78084930746475
 31
0.0
  0
LINE
  5
4DA
330
1F
100
AcDbEntity
  8
GR1_01
  6
Continuous
 62
     7
370
    25
100
AcDbLine
 10
751.0052226767864
 20
21.91346152
 30
0.0
 11
751.9756766114594
 21
22.88391545467305
 31
0.0
  0
LINE
  5
4DB
330
1F
100
AcDbEntity
  8
GR1_01
  6
Continuous
 62
     7
370
    25
100
AcDbLine
 10
752.7920227814595
 20
23.70026162467306
 30
0.0
 11
753.2263765367863
 21
24.13461538
 31
0.0
  0
LINE
  5
4DC
330
1F
100
AcDbEntity
  8
GR1_01
  6
Continuous
 62
     7
370
    25
100
AcDbLine
 10
754.0917611567863
 20
25.0
 30
0.0
 11
754.4379149567864
 21
25.34615379999997
 31
0.0
  0
LINE
  5
4DD
330
1F
100
AcDbEntity
  8
GR1_01
  6
Continuous
 62
     7
370
    25
100
AcDbLine
 10
754.8314458263317
 20
25.73968466954534
 30
0.0
 11
755.8018997861325
 21
26.71013862934611
 31
0.0
  0
LINE
  5
4DE
330
1F
100
AcDbEntity
  8
GR1_01
  6
Continuous
 62
     7
370
    25
100
AcDbLine
 10
751.075933354905
 20
21.91346151999999
 30
0.0
 11
752.0110319505188
 21
22.84856011561373
 31
0.0
  0
LINE
  5
4DF
330
1F
100
AcDbEntity
  8
GR1_01
  6
Continuous
 62
     7
370
    25
100
AcDbLine
 10
754.1624718349051
 20
24.99999999999999
 30
0.0
 11
754.508625634905
 21
25.34615379999999
 31
0.0
  0
LINE
  5
4E0
330
1F
100
AcDbEntity
  8
GR1_01
  6
Continuous
 62
     7
370
    25
100
AcDbLine
 10
754.8668011649534
 20
25.70432933004829
 30
0.0
 11
755.8018997861325
 21
26.63942795122746
 31
0.0
  0
LINE
  5
4E1
330
1F
100
AcDbEntity
  8
GR1_01
  6
Continuous
 62
     7
370
    25
100
AcDbLine
 10
751.1466440330237
 20
21.91346152
 30
0.0
 11
752.0463872895781
 21
22.8132047765544
 31
0.0
  0
LINE
  5
4E2
330
1F
100
AcDbEntity
  8
GR1_01
  6
Continuous
 62
     7
370
    25
100
AcDbLine
 10
754.2331825130236
 20
25.0
 30
0.0
 11
754.5793363130236
 21
25.3461538
 31
0.0
  0
LINE
  5
4E3
330
1F
100
AcDbEntity
  8
GR1_01
  6
Continuous
 62
     7
370
    25
100
AcDbLine
 10
754.9021565035749
 20
25.66897399055123
 30
0.0
 11
755.8018997861325
 21
26.56871727310882
 31
0.0
  0
LINE
  5
4E4
330
1F
100
AcDbEntity
  8
GR1_01
  6
Continuous
 62
     7
370
    25
100
AcDbLine
 10
751.2173547111423
 20
21.91346151999999
 30
0.0
 11
752.0817426286374
 21
22.77784943749507
 31
0.0
  0
LINE
  5
4E5
330
1F
100
AcDbEntity
  8
GR1_01
  6
Continuous
 62
     7
370
    25
100
AcDbLine
 10
754.3038931911424
 20
24.99999999999999
 30
0.0
 11
754.6500469911423
 21
25.34615379999997
 31
0.0
  0
LINE
  5
4E6
330
1F
100
AcDbEntity
  8
GR1_01
  6
Continuous
 62
     7
370
    25
100
AcDbLine
 10
754.9375118421965
 20
25.63361865105415
 30
0.0
 11
755.8018997861325
 21
26.49800659499016
 31
0.0
  0
LINE
  5
4E7
330
1F
100
AcDbEntity
  8
GR1_01
  6
Continuous
 62
     7
370
    25
100
AcDbLine
 10
751.288065389261
 20
21.91346151999999
 30
0.0
 11
752.1170979676967
 21
22.74249409843576
 31
0.0
  0
LINE
  5
4E8
330
1F
100
AcDbEntity
  8
GR1_01
  6
Continuous
 62
     7
370
    25
100
AcDbLine
 10
754.374603869261
 20
24.99999999999999
 30
0.0
 11
754.7207576692609
 21
25.34615379999997
 31
0.0
  0
LINE
  5
4E9
330
1F
100
AcDbEntity
  8
GR1_01
  6
Continuous
 62
     7
370
    25
100
AcDbLine
 10
754.9728671808181
 20
25.59826331155709
 30
0.0
 11
755.8018997861325
 21
26.4272959168715
 31
0.0
  0
LINE
  5
4EA
330
1F
100
AcDbEntity
  8
GR1_01
  6
Continuous
 62
     7
370
    25
100
AcDbLine
 10
751.3587760673796
 20
21.91346151999999
 30
0.0
 11
752.1524533067561
 21
22.70713875937644
 31
0.0
  0
LINE
  5
4EB
330
1F
100
AcDbEntity
  8
GR1_01
  6
Continuous
 62
     7
370
    25
100
AcDbLine
 10
754.4453145473797
 20
24.99999999999999
 30
0.0
 11
754.7914683473796
 21
25.34615379999999
 31
0.0
  0
LINE
  5
4EC
330
1F
100
AcDbEntity
  8
GR1_01
  6
Continuous
 62
     7
370
    25
100
AcDbLine
 10
755.0082225194396
 20
25.56290797206004
 30
0.0
 11
755.8018997861325
 21
26.35658523875286
 31
0.0
  0
LINE
  5
4ED
330
1F
100
AcDbEntity
  8
GR1_01
  6
Continuous
 62
     7
370
    25
100
AcDbLine
 10
751.4294867454983
 20
21.91346152
 30
0.0
 11
752.1878086458154
 21
22.67178342031712
 31
0.0
  0
LINE
  5
4EE
330
1F
100
AcDbEntity
  8
GR1_01
  6
Continuous
 62
     7
370
    25
100
AcDbLine
 10
754.5160252254983
 20
25.0
 30
0.0
 11
754.8621790254983
 21
25.34615379999999
 31
0.0
  0
LINE
  5
4EF
330
1F
100
AcDbEntity
  8
GR1_01
  6
Continuous
 62
     7
370
    25
100
AcDbLine
 10
755.0435778580613
 20
25.52755263256299
 30
0.0
 11
755.8018997861325
 21
26.28587456063423
 31
0.0
  0
LINE
  5
4F0
330
1F
100
AcDbEntity
  8
GR1_01
  6
Continuous
 62
     7
370
    25
100
AcDbLine
 10
751.500197423617
 20
21.91346151999999
 30
0.0
 11
752.2231639848748
 21
22.63642808125779
 31
0.0
  0
LINE
  5
4F1
330
1F
100
AcDbEntity
  8
GR1_01
  6
Continuous
 62
     7
370
    25
100
AcDbLine
 10
754.586735903617
 20
24.99999999999999
 30
0.0
 11
754.9328897036169
 21
25.34615379999999
 31
0.0
  0
LINE
  5
4F2
330
1F
100
AcDbEntity
  8
GR1_01
  6
Continuous
 62
     7
370
    25
100
AcDbLine
 10
755.0789331966829
 20
25.49219729306593
 30
0.0
 11
755.8018997861325
 21
26.21516388251557
 31
0.0
  0
LINE
  5
4F3
330
1F
100
AcDbEntity
  8
GR1_01
  6
Continuous
 62
     7
370
    25
100
AcDbLine
 10
751.5709081017355
 20
21.91346151999999
 30
0.0
 11
752.258519323934
 21
22.60107274219846
 31
0.0
  0
LINE
  5
4F4
330
1F
100
AcDbEntity
  8
GR1_01
  6
Continuous
 62
     7
370
    25
100
AcDbLine
 10
754.6574465817356
 20
24.99999999999999
 30
0.0
 11
755.0036003817356
 21
25.34615379999997
 31
0.0
  0
LINE
  5
4F5
330
1F
100
AcDbEntity
  8
GR1_01
  6
Continuous
 62
     7
370
    25
100
AcDbLine
 10
755.1142885353045
 20
25.45684195356886
 30
0.0
 11
755.8018997861325
 21
26.1444532043969
 31
0.0
  0
LINE
  5
4F6
330
1F
100
AcDbEntity
  8
GR1_01
  6
Continuous
 62
     7
370
    25
100
AcDbLine
 10
751.6416187798543
 20
21.91346151999999
 30
0.0
 11
752.2938746629934
 21
22.56571740313914
 31
0.0
  0
LINE
  5
4F7
330
1F
100
AcDbEntity
  8
GR1_01
  6
Continuous
 62
     7
370
    25
100
AcDbLine
 10
754.7281572598542
 20
24.99999999999999
 30
0.0
 11
755.0743110598542
 21
25.34615379999999
 31
0.0
  0
LINE
  5
4F8
330
1F
100
AcDbEntity
  8
GR1_01
  6
Continuous
 62
     7
370
    25
100
AcDbLine
 10
755.149643873926
 20
25.4214866140718
 30
0.0
 11
755.8018997861325
 21
26.07374252627826
 31
0.0
  0
LINE
  5
4F9
330
1F
100
AcDbEntity
  8
GR1_01
  6
Continuous
 62
     7
370
    25
100
AcDbLine
 10
751.7123294579728
 20
21.91346152
 30
0.0
 11
752.3292300020528
 21
22.53036206407981
 31
0.0
  0
LINE
  5
4FA
330
1F
100
AcDbEntity
  8
GR1_01
  6
Continuous
 62
     7
370
    25
100
AcDbLine
 10
754.7988679379729
 20
25.0
 30
0.0
 11
755.1450217379729
 21
25.34615379999999
 31
0.0
  0
LINE
  5
4FB
330
1F
100
AcDbEntity
  8
GR1_01
  6
Continuous
 62
     7
370
    25
100
AcDbLine
 10
755.1849992125476
 20
25.38613127457474
 30
0.0
 11
755.8018997861325
 21
26.00303184815963
 31
0.0
  0
LINE
  5
4FC
330
1F
100
AcDbEntity
  8
GR1_01
  6
Continuous
 62
     7
370
    25
100
AcDbLine
 10
751.7830401360916
 20
21.91346151999999
 30
0.0
 11
752.364585341112
 21
22.49500672502049
 31
0.0
  0
LINE
  5
4FD
330
1F
100
AcDbEntity
  8
GR1_01
  6
Continuous
 62
     7
370
    25
100
AcDbLine
 10
754.8695786160915
 20
24.99999999999999
 30
0.0
 11
755.2157324160914
 21
25.34615379999999
 31
0.0
  0
LINE
  5
4FE
330
1F
100
AcDbEntity
  8
GR1_01
  6
Continuous
 62
     7
370
    25
100
AcDbLine
 10
755.2203545511692
 20
25.35077593507768
 30
0.0
 11
755.8018997861325
 21
25.93232117004097
 31
0.0
  0
LINE
  5
4FF
330
1F
100
AcDbEntity
  8
GR1_01
  6
Continuous
 62
     7
370
    25
100
AcDbLine
 10
751.8537508142101
 20
21.91346151999999
 30
0.0
 11
752.3999406801713
 21
22.45965138596116
 31
0.0
  0
LINE
  5
500
330
1F
100
AcDbEntity
  8
GR1_01
  6
Continuous
 62
     7
370
    25
100
AcDbLine
 10
754.9402892942102
 20
24.99999999999999
 30
0.0
 11
755.8018997861325
 21
25.8616104919223
 31
0.0
  0
LINE
  5
501
330
1F
100
AcDbEntity
  8
GR1_01
  6
Continuous
 62
     7
370
    25
100
AcDbLine
 10
751.9244614923289
 20
21.91346151999999
 30
0.0
 11
752.4352960192307
 21
22.42429604690183
 31
0.0
  0
LINE
  5
502
330
1F
100
AcDbEntity
  8
GR1_01
  6
Continuous
 62
     7
370
    25
100
AcDbLine
 10
755.0109999723288
 20
24.99999999999999
 30
0.0
 11
755.8018997861325
 21
25.79089981380365
 31
0.0
  0
LINE
  5
503
330
1F
100
AcDbEntity
  8
GR1_01
  6
Continuous
 62
     7
370
    25
100
AcDbLine
 10
751.9951721704475
 20
21.91346152
 30
0.0
 11
752.4706513582901
 21
22.38894070784251
 31
0.0
  0
LINE
  5
504
330
1F
100
AcDbEntity
  8
GR1_01
  6
Continuous
 62
     7
370
    25
100
AcDbLine
 10
755.0817106504475
 20
25.0
 30
0.0
 11
755.8018997861325
 21
25.72018913568502
 31
0.0
  0
LINE
  5
505
330
1F
100
AcDbEntity
  8
GR1_01
  6
Continuous
 62
     7
370
    25
100
AcDbLine
 10
752.0658828485662
 20
21.91346151999999
 30
0.0
 11
752.5060066973493
 21
22.35358536878319
 31
0.0
  0
LINE
  5
506
330
1F
100
AcDbEntity
  8
GR1_01
  6
Continuous
 62
     7
370
    25
100
AcDbLine
 10
755.1524213285661
 20
24.99999999999999
 30
0.0
 11
755.8018997861325
 21
25.64947845756636
 31
0.0
  0
LINE
  5
507
330
1F
100
AcDbEntity
  8
GR1_01
  6
Continuous
 62
     7
370
    25
100
AcDbLine
 10
752.1365935266848
 20
21.91346151999999
 30
0.0
 11
752.5413620364086
 21
22.31823002972385
 31
0.0
  0
LINE
  5
508
330
1F
100
AcDbEntity
  8
GR1_01
  6
Continuous
 62
     7
370
    25
100
AcDbLine
 10
755.2231320066849
 20
24.99999999999999
 30
0.0
 11
755.8018997861325
 21
25.57876777944769
 31
0.0
  0
LINE
  5
509
330
1F
100
AcDbEntity
  8
GR1_01
  6
Continuous
 62
     7
370
    25
100
AcDbLine
 10
752.2073042048034
 20
21.91346151999999
 30
0.0
 11
752.576717375468
 21
22.28287469066453
 31
0.0
  0
LINE
  5
50A
330
1F
100
AcDbEntity
  8
GR1_01
  6
Continuous
 62
     7
370
    25
100
AcDbLine
 10
755.2249766861325
 20
24.93113400132905
 30
0.0
 11
755.8018997861325
 21
25.50805710132905
 31
0.0
  0
LINE
  5
50B
330
1F
100
AcDbEntity
  8
GR1_01
  6
Continuous
 62
     7
370
    25
100
AcDbLine
 10
752.2780148829221
 20
21.91346152
 30
0.0
 11
752.6120727145274
 21
22.24751935160521
 31
0.0
  0
LINE
  5
50C
330
1F
100
AcDbEntity
  8
GR1_01
  6
Continuous
 62
     7
370
    25
100
AcDbLine
 10
755.2249766861325
 20
24.86042332321039
 30
0.0
 11
755.8018997861325
 21
25.43734642321042
 31
0.0
  0
LINE
  5
50D
330
1F
100
AcDbEntity
  8
GR1_01
  6
Continuous
 62
     7
370
    25
100
AcDbLine
 10
752.3487255610407
 20
21.91346151999999
 30
0.0
 11
752.6474280535866
 21
22.21216401254589
 31
0.0
  0
LINE
  5
50E
330
1F
100
AcDbEntity
  8
GR1_01
  6
Continuous
 62
     7
370
    25
100
AcDbLine
 10
755.2249766861325
 20
24.78971264509174
 30
0.0
 11
755.8018997861325
 21
25.36663574509176
 31
0.0
  0
LINE
  5
50F
330
1F
100
AcDbEntity
  8
GR1_01
  6
Continuous
 62
     7
370
    25
100
AcDbLine
 10
752.4194362391594
 20
21.91346151999999
 30
0.0
 11
752.682783392646
 21
22.17680867348655
 31
0.0
  0
LINE
  5
510
330
1F
100
AcDbEntity
  8
GR1_01
  6
Continuous
 62
     7
370
    25
100
AcDbLine
 10
755.2249766861325
 20
24.7190019669731
 30
0.0
 11
755.8018997861325
 21
25.29592506697309
 31
0.0
  0
LINE
  5
511
330
1F
100
AcDbEntity
  8
GR1_01
  6
Continuous
 62
     7
370
    25
100
AcDbLine
 10
752.490146917278
 20
21.91346151999999
 30
0.0
 11
752.7181387317053
 21
22.14145333442723
 31
0.0
  0
LINE
  5
512
330
1F
100
AcDbEntity
  8
GR1_01
  6
Continuous
 62
     7
370
    25
100
AcDbLine
 10
755.2249766861325
 20
24.64829128885444
 30
0.0
 11
755.8018997861325
 21
25.22521438885444
 31
0.0
  0
LINE
  5
513
330
1F
100
AcDbEntity
  8
GR1_01
  6
Continuous
 62
     7
370
    25
100
AcDbLine
 10
752.5608575953967
 20
21.91346152
 30
0.0
 11
752.7534940707646
 21
22.10609799536791
 31
0.0
  0
LINE
  5
514
330
1F
100
AcDbEntity
  8
GR1_01
  6
Continuous
 62
     7
370
    25
100
AcDbLine
 10
755.2249766861325
 20
24.57758061073578
 30
0.0
 11
755.8018997861325
 21
25.15450371073581
 31
0.0
  0
LINE
  5
515
330
1F
100
AcDbEntity
  8
GR1_01
  6
Continuous
 62
     7
370
    25
100
AcDbLine
 10
752.6315682735153
 20
21.91346151999999
 30
0.0
 11
752.7888494098239
 21
22.07074265630859
 31
0.0
  0
LINE
  5
516
330
1F
100
AcDbEntity
  8
GR1_01
  6
Continuous
 62
     7
370
    25
100
AcDbLine
 10
755.2249766861325
 20
24.50686993261714
 30
0.0
 11
755.8018997861325
 21
25.08379303261716
 31
0.0
  0
LINE
  5
517
330
1F
100
AcDbEntity
  8
GR1_01
  6
Continuous
 62
     7
370
    25
100
AcDbLine
 10
752.7022789516341
 20
21.91346151999999
 30
0.0
 11
754.3595920661326
 21
23.57077463449849
 31
0.0
  0
LINE
  5
518
330
1F
100
AcDbEntity
  8
GR1_01
  6
Continuous
 62
     7
370
    25
100
AcDbLine
 10
755.2249766861325
 20
24.4361592544985
 30
0.0
 11
755.8018997861325
 21
25.01308235449848
 31
0.0
  0
LINE
  5
519
330
1F
100
AcDbEntity
  8
GR1_01
  6
Continuous
 62
     7
370
    25
100
AcDbLine
 10
752.7729896297526
 20
21.91346151999999
 30
0.0
 11
754.3595920661326
 21
23.50006395637985
 31
0.0
  0
LINE
  5
51A
330
1F
100
AcDbEntity
  8
GR1_01
  6
Continuous
 62
     7
370
    25
100
AcDbLine
 10
755.2249766861325
 20
24.36544857637984
 30
0.0
 11
755.8018997861325
 21
24.94237167637984
 31
0.0
  0
LINE
  5
51B
330
1F
100
AcDbEntity
  8
GR1_01
  6
Continuous
 62
     7
370
    25
100
AcDbLine
 10
752.8437003078714
 20
21.91346152
 30
0.0
 11
754.3595920661326
 21
23.42935327826119
 31
0.0
  0
LINE
  5
51C
330
1F
100
AcDbEntity
  8
GR1_01
  6
Continuous
 62
     7
370
    25
100
AcDbLine
 10
755.2249766861325
 20
24.29473789826118
 30
0.0
 11
755.8018997861325
 21
24.87166099826121
 31
0.0
  0
LINE
  5
51D
330
1F
100
AcDbEntity
  8
GR1_01
  6
Continuous
 62
     7
370
    25
100
AcDbLine
 10
752.9144109859899
 20
21.91346152000002
 30
0.0
 11
754.3595920661326
 21
23.35864260014256
 31
0.0
  0
LINE
  5
51E
330
1F
100
AcDbEntity
  8
GR1_01
  6
Continuous
 62
     7
370
    25
100
AcDbLine
 10
755.2249766861325
 20
24.22402722014253
 30
0.0
 11
755.8018997861325
 21
24.80095032014255
 31
0.0
  0
LINE
  5
51F
330
1F
100
AcDbEntity
  8
GR1_01
  6
Continuous
 62
     7
370
    25
100
AcDbLine
 10
752.9851216641086
 20
21.91346151999999
 30
0.0
 11
754.3595920661326
 21
23.28793192202389
 31
0.0
  0
LINE
  5
520
330
1F
100
AcDbEntity
  8
GR1_01
  6
Continuous
 62
     7
370
    25
100
AcDbLine
 10
755.2249766861325
 20
24.15331654202389
 30
0.0
 11
755.8018997861325
 21
24.73023964202388
 31
0.0
  0
LINE
  5
521
330
1F
100
AcDbEntity
  8
GR1_01
  6
Continuous
 62
     7
370
    25
100
AcDbLine
 10
753.0558323422273
 20
21.91346152
 30
0.0
 11
754.3595920661326
 21
23.21722124390525
 31
0.0
  0
LINE
  5
522
330
1F
100
AcDbEntity
  8
GR1_01
  6
Continuous
 62
     7
370
    25
100
AcDbLine
 10
755.2249766861325
 20
24.08260586390523
 30
0.0
 11
755.8018997861325
 21
24.65952896390523
 31
0.0
  0
LINE
  5
523
330
1F
100
AcDbEntity
  8
GR1_01
  6
Continuous
 62
     7
370
    25
100
AcDbLine
 10
753.1265430203459
 20
21.91346152
 30
0.0
 11
754.3595920661326
 21
23.14651056578659
 31
0.0
  0
LINE
  5
524
330
1F
100
AcDbEntity
  8
GR1_01
  6
Continuous
 62
     7
370
    25
100
AcDbLine
 10
755.2249766861325
 20
24.01189518578657
 30
0.0
 11
755.8018997861325
 21
24.5888182857866
 31
0.0
  0
LINE
  5
525
330
1F
100
AcDbEntity
  8
GR1_01
  6
Continuous
 62
     7
370
    25
100
AcDbLine
 10
753.1972536984646
 20
21.91346152000002
 30
0.0
 11
754.3595920661326
 21
23.07579988766796
 31
0.0
  0
LINE
  5
526
330
1F
100
AcDbEntity
  8
GR1_01
  6
Continuous
 62
     7
370
    25
100
AcDbLine
 10
755.2249766861325
 20
23.94118450766793
 30
0.0
 11
755.8018997861325
 21
24.51810760766795
 31
0.0
  0
LINE
  5
527
330
1F
100
AcDbEntity
  8
GR1_01
  6
Continuous
 62
     7
370
    25
100
AcDbLine
 10
753.2679643765832
 20
21.91346152
 30
0.0
 11
754.3595920661326
 21
23.0050892095493
 31
0.0
  0
LINE
  5
528
330
1F
100
AcDbEntity
  8
GR1_01
  6
Continuous
 62
     7
370
    25
100
AcDbLine
 10
755.2249766861325
 20
23.8704738295493
 30
0.0
 11
755.8018997861325
 21
24.44739692954929
 31
0.0
  0
LINE
  5
529
330
1F
100
AcDbEntity
  8
GR1_01
  6
Continuous
 62
     7
370
    25
100
AcDbLine
 10
753.3386750547019
 20
21.91346152
 30
0.0
 11
754.4059827747019
 21
22.98076924
 31
0.0
  0
LINE
  5
52A
330
1F
100
AcDbEntity
  8
GR1_01
  6
Continuous
 62
     7
370
    25
100
AcDbLine
 10
755.2249766861325
 20
23.79976315143063
 30
0.0
 11
755.8018997861325
 21
24.37668625143063
 31
0.0
  0
LINE
  5
52B
330
1F
100
AcDbEntity
  8
GR1_01
  6
Continuous
 62
     7
370
    25
100
AcDbLine
 10
753.4093857328205
 20
21.91346152
 30
0.0
 11
754.4766934528205
 21
22.98076924
 31
0.0
  0
LINE
  5
52C
330
1F
100
AcDbEntity
  8
GR1_01
  6
Continuous
 62
     7
370
    25
100
AcDbLine
 10
755.2249766861325
 20
23.72905247331197
 30
0.0
 11
755.8018997861325
 21
24.305975573312
 31
0.0
  0
LINE
  5
52D
330
1F
100
AcDbEntity
  8
GR1_01
  6
Continuous
 62
     7
370
    25
100
AcDbLine
 10
753.4800964109392
 20
21.91346152000002
 30
0.0
 11
754.5474041309392
 21
22.98076924000002
 31
0.0
  0
LINE
  5
52E
330
1F
100
AcDbEntity
  8
GR1_01
  6
Continuous
 62
     7
370
    25
100
AcDbLine
 10
755.2249766861325
 20
23.65834179519333
 30
0.0
 11
755.8018997861325
 21
24.23526489519334
 31
0.0
  0
LINE
  5
52F
330
1F
100
AcDbEntity
  8
GR1_01
  6
Continuous
 62
     7
370
    25
100
AcDbLine
 10
753.5508070890578
 20
21.91346152
 30
0.0
 11
754.6181148090578
 21
22.98076924
 31
0.0
  0
LINE
  5
530
330
1F
100
AcDbEntity
  8
GR1_01
  6
Continuous
 62
     7
370
    25
100
AcDbLine
 10
755.2249766861325
 20
23.5876311170747
 30
0.0
 11
755.8018997861325
 21
24.16455421707468
 31
0.0
  0
LINE
  5
531
330
1F
100
AcDbEntity
  8
GR1_01
  6
Continuous
 62
     7
370
    25
100
AcDbLine
 10
753.6215177671764
 20
21.91346152
 30
0.0
 11
754.6888254871765
 21
22.98076924
 31
0.0
  0
LINE
  5
532
330
1F
100
AcDbEntity
  8
GR1_01
  6
Continuous
 62
     7
370
    25
100
AcDbLine
 10
755.2249766861325
 20
23.51692043895602
 30
0.0
 11
755.8018997861325
 21
24.09384353895603
 31
0.0
  0
LINE
  5
533
330
1F
100
AcDbEntity
  8
GR1_01
  6
Continuous
 62
     7
370
    25
100
AcDbLine
 10
753.6922284452951
 20
21.91346152
 30
0.0
 11
754.7595361652951
 21
22.98076924
 31
0.0
  0
LINE
  5
534
330
1F
100
AcDbEntity
  8
GR1_01
  6
Continuous
 62
     7
370
    25
100
AcDbLine
 10
755.2249766861325
 20
23.44620976083737
 30
0.0
 11
755.8018997861325
 21
24.0231328608374
 31
0.0
  0
LINE
  5
535
330
1F
100
AcDbEntity
  8
GR1_01
  6
Continuous
 62
     7
370
    25
100
AcDbLine
 10
753.7629391234138
 20
21.91346152
 30
0.0
 11
754.8302468434138
 21
22.98076923999999
 31
0.0
  0
LINE
  5
536
330
1F
100
AcDbEntity
  8
GR1_01
  6
Continuous
 62
     7
370
    25
100
AcDbLine
 10
755.2249766861325
 20
23.37549908271872
 30
0.0
 11
755.8018997861325
 21
23.95242218271874
 31
0.0
  0
LINE
  5
537
330
1F
100
AcDbEntity
  8
GR1_01
  6
Continuous
 62
     7
370
    25
100
AcDbLine
 10
753.8336498015324
 20
21.91346152
 30
0.0
 11
754.9009575215324
 21
22.98076924
 31
0.0
  0
LINE
  5
538
330
1F
100
AcDbEntity
  8
GR1_01
  6
Continuous
 62
     7
370
    25
100
AcDbLine
 10
755.2249766861325
 20
23.30478840460009
 30
0.0
 11
755.8018997861325
 21
23.88171150460008
 31
0.0
  0
LINE
  5
539
330
1F
100
AcDbEntity
  8
GR1_01
  6
Continuous
 62
     7
370
    25
100
AcDbLine
 10
753.9043604796511
 20
21.91346152
 30
0.0
 11
754.971668199651
 21
22.98076923999999
 31
0.0
  0
LINE
  5
53A
330
1F
100
AcDbEntity
  8
GR1_01
  6
Continuous
 62
     7
370
    25
100
AcDbLine
 10
755.2249766861325
 20
23.23407772648142
 30
0.0
 11
755.8018997861325
 21
23.81100082648142
 31
0.0
  0
LINE
  5
53B
330
1F
100
AcDbEntity
  8
GR1_01
  6
Continuous
 62
     7
370
    25
100
AcDbLine
 10
753.9750711577697
 20
21.91346152
 30
0.0
 11
755.0423788777697
 21
22.98076924
 31
0.0
  0
LINE
  5
53C
330
1F
100
AcDbEntity
  8
GR1_01
  6
Continuous
 62
     7
370
    25
100
AcDbLine
 10
755.2249766861325
 20
23.16336704836276
 30
0.0
 11
755.8018997861325
 21
23.74029014836279
 31
0.0
  0
LINE
  5
53D
330
1F
100
AcDbEntity
  8
GR1_01
  6
Continuous
 62
     7
370
    25
100
AcDbLine
 10
754.0457818358884
 20
21.91346152
 30
0.0
 11
755.1130895558883
 21
22.98076923999999
 31
0.0
  0
LINE
  5
53E
330
1F
100
AcDbEntity
  8
GR1_01
  6
Continuous
 62
     7
370
    25
100
AcDbLine
 10
755.2249766861325
 20
23.09265637024412
 30
0.0
 11
755.8018997861325
 21
23.66957947024413
 31
0.0
  0
LINE
  5
53F
330
1F
100
AcDbEntity
  8
GR1_01
  6
Continuous
 62
     7
370
    25
100
AcDbLine
 10
754.116492514007
 20
21.91346152
 30
0.0
 11
755.183800234007
 21
22.98076924
 31
0.0
  0
LINE
  5
540
330
1F
100
AcDbEntity
  8
GR1_01
  6
Continuous
 62
     7
370
    25
100
AcDbLine
 10
755.2249766861325
 20
23.02194569212549
 30
0.0
 11
755.8018997861325
 21
23.59886879212548
 31
0.0
  0
LINE
  5
541
330
1F
100
AcDbEntity
  8
GR1_01
  6
Continuous
 62
     7
370
    25
100
AcDbLine
 10
754.1872031921257
 20
21.91346152
 30
0.0
 11
755.8018997861325
 21
23.52815811400683
 31
0.0
  0
LINE
  5
542
330
1F
100
AcDbEntity
  8
GR1_01
  6
Continuous
 62
     7
370
    25
100
AcDbLine
 10
754.2579138702444
 20
21.91346151999999
 30
0.0
 11
755.8018997861325
 21
23.45744743588819
 31
0.0
  0
LINE
  5
543
330
1F
100
AcDbEntity
  8
GR1_01
  6
Continuous
 62
     7
370
    25
100
AcDbLine
 10
754.328624548363
 20
21.91346152
 30
0.0
 11
755.8018997861325
 21
23.38673675776953
 31
0.0
  0
LINE
  5
544
330
1F
100
AcDbEntity
  8
GR1_01
  6
Continuous
 62
     7
370
    25
100
AcDbLine
 10
754.3993352264816
 20
21.91346152
 30
0.0
 11
755.8018997861325
 21
23.31602607965087
 31
0.0
  0
LINE
  5
545
330
1F
100
AcDbEntity
  8
GR1_01
  6
Continuous
 62
     7
370
    25
100
AcDbLine
 10
754.4700459046003
 20
21.91346152
 30
0.0
 11
755.8018997861325
 21
23.24531540153223
 31
0.0
  0
LINE
  5
546
330
1F
100
AcDbEntity
  8
GR1_01
  6
Continuous
 62
     7
370
    25
100
AcDbLine
 10
754.5407565827189
 20
21.91346151999999
 30
0.0
 11
755.8018997861325
 21
23.17460472341358
 31
0.0
  0
LINE
  5
547
330
1F
100
AcDbEntity
  8
GR1_01
  6
Continuous
 62
     7
370
    25
100
AcDbLine
 10
754.6114672608376
 20
21.91346152
 30
0.0
 11
755.8018997861325
 21
23.10389404529493
 31
0.0
  0
LINE
  5
548
330
1F
100
AcDbEntity
  8
GR1_01
  6
Continuous
 62
     7
370
    25
100
AcDbLine
 10
754.6821779389562
 20
21.91346152
 30
0.0
 11
755.8018997861325
 21
23.03318336717627
 31
0.0
  0
LINE
  5
549
330
1F
100
AcDbEntity
  8
GR1_01
  6
Continuous
 62
     7
370
    25
100
AcDbLine
 10
754.7528886170749
 20
21.91346152000002
 30
0.0
 11
755.8018997861325
 21
22.96247268905764
 31
0.0
  0
LINE
  5
54A
330
1F
100
AcDbEntity
  8
GR1_01
  6
Continuous
 62
     7
370
    25
100
AcDbLine
 10
754.8235992951935
 20
21.91346151999999
 30
0.0
 11
755.8018997861325
 21
22.89176201093898
 31
0.0
  0
LINE
  5
54B
330
1F
100
AcDbEntity
  8
GR1_01
  6
Continuous
 62
     7
370
    25
100
AcDbLine
 10
754.8943099733121
 20
21.91346152
 30
0.0
 11
755.8018997861325
 21
22.82105133282032
 31
0.0
  0
LINE
  5
54C
330
1F
100
AcDbEntity
  8
GR1_01
  6
Continuous
 62
     7
370
    25
100
AcDbLine
 10
754.9650206514308
 20
21.91346152
 30
0.0
 11
755.8018997861325
 21
22.75034065470166
 31
0.0
  0
LINE
  5
54D
330
1F
100
AcDbEntity
  8
GR1_01
  6
Continuous
 62
     7
370
    25
100
AcDbLine
 10
755.0357313295494
 20
21.91346152000002
 30
0.0
 11
755.8018997861325
 21
22.67962997658303
 31
0.0
  0
LINE
  5
54E
330
1F
100
AcDbEntity
  8
GR1_01
  6
Continuous
 62
     7
370
    25
100
AcDbLine
 10
755.1064420076682
 20
21.91346151999999
 30
0.0
 11
755.8018997861325
 21
22.60891929846438
 31
0.0
  0
LINE
  5
54F
330
1F
100
AcDbEntity
  8
GR1_01
  6
Continuous
 62
     7
370
    25
100
AcDbLine
 10
755.1771526857867
 20
21.91346152
 30
0.0
 11
755.8018997861325
 21
22.53820862034572
 31
0.0
  0
LINE
  5
550
330
1F
100
AcDbEntity
  8
GR1_01
  6
Continuous
 62
     7
370
    25
100
AcDbLine
 10
755.2478633639055
 20
21.91346152
 30
0.0
 11
755.8018997861325
 21
22.46749794222706
 31
0.0
  0
LINE
  5
551
330
1F
100
AcDbEntity
  8
GR1_01
  6
Continuous
 62
     7
370
    25
100
AcDbLine
 10
755.318574042024
 20
21.91346152000002
 30
0.0
 11
755.8018997861325
 21
22.39678726410843
 31
0.0
  0
LINE
  5
552
330
1F
100
AcDbEntity
  8
GR1_01
  6
Continuous
 62
     7
370
    25
100
AcDbLine
 10
755.3892847201428
 20
21.91346151999999
 30
0.0
 11
755.8018997861325
 21
22.32607658598977
 31
0.0
  0
LINE
  5
553
330
1F
100
AcDbEntity
  8
GR1_01
  6
Continuous
 62
     7
370
    25
100
AcDbLine
 10
755.4599953982614
 20
21.91346152
 30
0.0
 11
755.8018997861325
 21
22.25536590787111
 31
0.0
  0
LINE
  5
554
330
1F
100
AcDbEntity
  8
GR1_01
  6
Continuous
 62
     7
370
    25
100
AcDbLine
 10
755.53070607638
 20
21.91346152
 30
0.0
 11
755.8018997861325
 21
22.18465522975245
 31
0.0
  0
LINE
  5
555
330
1F
100
AcDbEntity
  8
GR1_01
  6
Continuous
 62
     7
370
    25
100
AcDbLine
 10
755.6014167544987
 20
21.91346152000002
 30
0.0
 11
755.8018997861325
 21
22.11394455163382
 31
0.0
  0
LINE
  5
556
330
1F
100
AcDbEntity
  8
GR1_01
  6
Continuous
 62
     7
370
    25
100
AcDbLine
 10
755.6721274326173
 20
21.91346151999999
 30
0.0
 11
755.8018997861325
 21
22.04323387351517
 31
0.0
  0
LINE
  5
557
330
1F
100
AcDbEntity
  8
GR1_01
  6
Continuous
 62
     7
370
    25
100
AcDbLine
 10
755.742838110736
 20
21.91346152
 30
0.0
 11
755.8018997861325
 21
21.97252319539651
 31
0.0
  0
LINE
  5
558
330
1F
100
AcDbEntity
  8
基準ﾚｲﾔｸﾞﾙｰﾌﾟ_01
  6
Continuous
 62
     3
370
    50
100
AcDbLine
 10
267.368481351
 20
241.0686035445367
 30
0.0
 11
267.368481351
 21
232.9182950191573
 31
0.0
  0
LINE
  5
559
330
1F
100
AcDbEntity
  8
基準ﾚｲﾔｸﾞﾙｰﾌﾟ_01
  6
Continuous
 62
     3
370
    50
100
AcDbLine
 10
216.3684813509999
 20
241.0686035445368
 30
0.0
 11
216.3684813509999
 21
232.9182950191573
 31
0.0
  0
ARC
  5
55A
330
1F
100
AcDbEntity
  8
基準ﾚｲﾔｸﾞﾙｰﾌﾟ_01
  6
Continuous
 62
     3
370
    50
100
AcDbCircle
 10
267.368481351
 20
222.5299998169236
 30
0.0
 40
10.38829520223371
100
AcDbArc
 50
90.0
 51
151.7388967073291
  0
ARC
  5
55B
330
1F
100
AcDbEntity
  8
基準ﾚｲﾔｸﾞﾙｰﾌﾟ_01
  6
Continuous
 62
     3
370
    50
100
AcDbCircle
 10
216.3684813509996
 20
222.5299998169236
 30
0.0
 40
10.38829520223371
100
AcDbArc
 50
28.26110329267092
 51
90.0
  0
ENDSEC
  0
SECTION
  2
OBJECTS
  0
DICTIONARY
  5
C
330
0
100
AcDbDictionary
281
     1
  3
ACAD_GROUP
350
D
  3
ACAD_LAYOUT
350
1A
  3
ACAD_MATERIAL
350
3B
  3
ACAD_MLEADERSTYLE
350
55E
  3
ACAD_MLINESTYLE
350
17
  3
ACAD_PLOTSETTINGS
350
19
  3
ACAD_PLOTSTYLENAME
350
E
  3
ACAD_VISUALSTYLE
350
2A
  3
AcDbVariableDictionary
350
55C
  0
DICTIONARY
  5
D
102
{ACAD_REACTORS
330
C
102
}
330
C
100
AcDbDictionary
281
     1
  0
DICTIONARY
  5
1A
102
{ACAD_REACTORS
330
C
102
}
330
C
100
AcDbDictionary
281
     1
  3
Layout1
350
1E
  3
Layout2
350
26
  3
Model
350
22
  0
DICTIONARY
  5
3B
102
{ACAD_REACTORS
330
C
102
}
330
C
100
AcDbDictionary
281
     1
  3
ByBlock
350
3D
  3
ByLayer
350
3C
  3
Global
350
3E
  0
DICTIONARY
  5
55E
102
{ACAD_REACTORS
330
C
102
}
330
C
100
AcDbDictionary
281
     1
  0
DICTIONARY
  5
17
102
{ACAD_REACTORS
330
C
102
}
330
C
100
AcDbDictionary
281
     1
  3
Standard
350
18
  0
DICTIONARY
  5
19
102
{ACAD_REACTORS
330
C
102
}
330
C
100
AcDbDictionary
281
     1
  0
ACDBDICTIONARYWDFLT
  5
E
102
{ACAD_REACTORS
330
C
102
}
330
C
100
AcDbDictionary
281
     1
  3
Normal
350
F
100
AcDbDictionaryWithDefault
340
F
  0
DICTIONARY
  5
2A
102
{ACAD_REACTORS
330
C
102
}
330
C
100
AcDbDictionary
281
     1
  3
2dWireframe
350
2F
  3
3D Hidden
350
31
  3
3dWireframe
350
30
  3
Basic
350
32
  3
Brighten
350
36
  3
ColorChange
350
3A
  3
Conceptual
350
34
  3
Dim
350
35
  3
Facepattern
350
39
  3
Flat
350
2B
  3
FlatWithEdges
350
2C
  3
Gouraud
350
2D
  3
GouraudWithEdges
350
2E
  3
Linepattern
350
38
  3
Realistic
350
33
  3
Thicken
350
37
  0
DICTIONARY
  5
55C
102
{ACAD_REACTORS
330
C
102
}
330
C
100
AcDbDictionary
281
     1
  3
DIMASSOC
350
561
  3
HIDETEXT
350
562
  3
PSOLHEIGHT
350
560
  3
PSOLWIDTH
350
55F
  0
LAYOUT
  5
1E
102
{ACAD_REACTORS
330
1A
102
}
330
1A
100
AcDbPlotSettings
  1

  2
none_device
  4

  6

 40
0.0
 41
0.0
 42
0.0
 43
0.0
 44
0.0
 45
0.0
 46
0.0
 47
0.0
 48
0.0
 49
0.0
140
0.0
141
0.0
142
1.0
143
1.0
 70
   688
 72
     0
 73
     0
 74
     5
  7

 75
    16
147
1.0
148
0.0
149
0.0
100
AcDbLayout
  1
Layout1
 70
     1
 71
     1
 10
0.0
 20
0.0
 11
420.0
 21
297.0
 12
0.0
 22
0.0
 32
0.0
 14
1.000000000000000E+20
 24
1.000000000000000E+20
 34
1.000000000000000E+20
 15
-1.000000000000000E+20
 25
-1.000000000000000E+20
 35
-1.000000000000000E+20
146
0.0
 13
0.0
 23
0.0
 33
0.0
 16
1.0
 26
0.0
 36
0.0
 17
0.0
 27
1.0
 37
0.0
 76
     0
330
1B
  0
LAYOUT
  5
26
102
{ACAD_REACTORS
330
1A
102
}
330
1A
100
AcDbPlotSettings
  1

  2
none_device
  4

  6

 40
0.0
 41
0.0
 42
0.0
 43
0.0
 44
0.0
 45
0.0
 46
0.0
 47
0.0
 48
0.0
 49
0.0
140
0.0
141
0.0
142
1.0
143
1.0
 70
   688
 72
     0
 73
     0
 74
     5
  7

 75
    16
147
1.0
148
0.0
149
0.0
100
AcDbLayout
  1
Layout2
 70
     1
 71
     2
 10
0.0
 20
0.0
 11
0.0
 21
0.0
 12
0.0
 22
0.0
 32
0.0
 14
0.0
 24
0.0
 34
0.0
 15
0.0
 25
0.0
 35
0.0
146
0.0
 13
0.0
 23
0.0
 33
0.0
 16
1.0
 26
0.0
 36
0.0
 17
0.0
 27
1.0
 37
0.0
 76
     0
330
23
  0
LAYOUT
  5
22
102
{ACAD_REACTORS
330
1A
102
}
330
1A
100
AcDbPlotSettings
  1

  2
none_device
  4

  6

 40
0.0
 41
0.0
 42
0.0
 43
0.0
 44
0.0
 45
0.0
 46
0.0
 47
0.0
 48
0.0
 49
0.0
140
0.0
141
0.0
142
1.0
143
1.0
 70
  1712
 72
     0
 73
     0
 74
     0
  7

 75
     0
147
1.0
148
0.0
149
0.0
100
AcDbLayout
  1
Model
 70
     1
 71
     0
 10
0.0
 20
0.0
 11
841.0
 21
594.0
 12
0.0
 22
0.0
 32
0.0
 14
0.0
 24
0.0
 34
0.0
 15
841.0
 25
594.0
 35
0.0
146
0.0
 13
0.0
 23
0.0
 33
0.0
 16
1.0
 26
0.0
 36
0.0
 17
0.0
 27
1.0
 37
0.0
 76
     0
330
1F
331
29
  0
MATERIAL
  5
3D
102
{ACAD_REACTORS
330
3B
102
}
102
{ACAD_XDICTIONARY
360
585
102
}
330
3B
100
AcDbMaterial
  1
ByBlock
  0
MATERIAL
  5
3C
102
{ACAD_REACTORS
330
3B
102
}
102
{ACAD_XDICTIONARY
360
583
102
}
330
3B
100
AcDbMaterial
  1
ByLayer
  0
MATERIAL
  5
3E
102
{ACAD_REACTORS
330
3B
102
}
102
{ACAD_XDICTIONARY
360
587
102
}
330
3B
100
AcDbMaterial
  1
Global
  0
MLINESTYLE
  5
18
102
{ACAD_REACTORS
330
17
102
}
330
17
100
AcDbMlineStyle
  2
Standard
 70
     0
  3

 62
   256
 51
90.0
 52
90.0
 71
     2
 49
0.5
 62
   256
  6
BYLAYER
 49
-0.5
 62
   256
  6
BYLAYER
  0
ACDBPLACEHOLDER
  5
F
102
{ACAD_REACTORS
330
E
102
}
330
E
  0
VISUALSTYLE
  5
2F
102
{ACAD_REACTORS
330
2A
102
}
102
{ACAD_XDICTIONARY
360
56B
102
}
330
2A
100
AcDbVisualStyle
  2
2dWireframe
 70
     4
 71
     0
 72
     2
 73
     0
 90
        0
 40
-0.6
 41
-30.0
 62
     5
 63
     7
 74
     1
 91
        4
 64
     7
 65
   257
 75
     1
175
     1
 42
1.0
 92
        0
 66
   257
 43
1.0
 76
     1
 77
     6
 78
     2
 67
     7
 79
     5
170
     0
171
     0
290
     0
174
     0
 93
        1
 44
0.0
173
     0
291
     0
 45
0.0
1001
ACAD
1000
AcDbSavedByObjectVersion
1070
     0
  0
VISUALSTYLE
  5
31
102
{ACAD_REACTORS
330
2A
102
}
102
{ACAD_XDICTIONARY
360
56F
102
}
330
2A
100
AcDbVisualStyle
  2
3D Hidden
 70
     6
 71
     1
 72
     2
 73
     2
 90
        0
 40
-0.6
 41
-30.0
 62
     5
 63
     7
 74
     2
 91
        2
 64
     7
 65
   257
 75
     2
175
     1
 42
40.0
 92
        0
 66
   257
 43
1.0
 76
     1
 77
     6
 78
     2
 67
     7
 79
     3
170
     0
171
     0
290
     0
174
     0
 93
        1
 44
0.0
173
     0
291
     0
 45
0.0
1001
ACAD
1000
AcDbSavedByObjectVersion
1070
     0
  0
VISUALSTYLE
  5
30
102
{ACAD_REACTORS
330
2A
102
}
102
{ACAD_XDICTIONARY
360
56D
102
}
330
2A
100
AcDbVisualStyle
  2
3dWireframe
 70
     5
 71
     0
 72
     2
 73
     0
 90
        0
 40
-0.6
 41
-30.0
 62
     5
 63
     7
 74
     1
 91
        4
 64
     7
 65
   257
 75
     1
175
     1
 42
1.0
 92
        0
 66
   257
 43
1.0
 76
     1
 77
     6
 78
     2
 67
     7
 79
     5
170
     0
171
     0
290
     0
174
     0
 93
        1
 44
0.0
173
     0
291
     0
 45
0.0
1001
ACAD
1000
AcDbSavedByObjectVersion
1070
     0
  0
VISUALSTYLE
  5
32
102
{ACAD_REACTORS
330
2A
102
}
102
{ACAD_XDICTIONARY
360
571
102
}
330
2A
100
AcDbVisualStyle
  2
Basic
 70
     7
 71
     1
 72
     0
 73
     1
 90
        0
 40
-0.6
 41
-30.0
 62
     5
 63
     7
 74
     0
 91
        4
 64
     7
 65
   257
 75
     1
175
     1
 42
1.0
 92
        8
 66
     7
 43
1.0
 76
     1
 77
     6
 78
     2
 67
     7
 79
     5
170
     0
171
     0
290
     0
174
     0
 93
        1
 44
0.0
173
     0
291
     1
 45
0.0
1001
ACAD
1000
AcDbSavedByObjectVersion
1070
     0
  0
VISUALSTYLE
  5
36
102
{ACAD_REACTORS
330
2A
102
}
102
{ACAD_XDICTIONARY
360
579
102
}
330
2A
100
AcDbVisualStyle
  2
Brighten
 70
    12
 71
     2
 72
     2
 73
     0
 90
        0
 40
-0.6
 41
-30.0
 62
     5
 63
     7
 74
     1
 91
        4
 64
     7
 65
   257
 75
     1
175
     1
 42
1.0
 92
        8
 66
     7
 43
1.0
 76
     1
 77
     6
 78
     2
 67
     7
 79
     5
170
     0
171
     0
290
     0
174
     0
 93
        1
 44
50.0
173
     0
291
     1
 45
0.0
1001
ACAD
1000
AcDbSavedByObjectVersion
1070
     0
  0
VISUALSTYLE
  5
3A
102
{ACAD_REACTORS
330
2A
102
}
102
{ACAD_XDICTIONARY
360
581
102
}
330
2A
100
AcDbVisualStyle
  2
ColorChange
 70
    16
 71
     2
 72
     2
 73
     3
 90
        0
 40
-0.6
 41
-30.0
 62
     5
 63
     8
 74
     1
 91
        4
 64
     7
 65
   257
 75
     1
175
     1
 42
1.0
 92
        8
 66
     8
 43
1.0
 76
     1
 77
     6
 78
     2
 67
     7
 79
     5
170
     0
171
     0
290
     0
174
     0
 93
        1
 44
0.0
173
     0
291
     1
 45
0.0
1001
ACAD
1000
AcDbSavedByObjectVersion
1070
     0
  0
VISUALSTYLE
  5
34
102
{ACAD_REACTORS
330
2A
102
}
102
{ACAD_XDICTIONARY
360
575
102
}
330
2A
100
AcDbVisualStyle
  2
Conceptual
 70
     9
 71
     3
 72
     2
 73
     0
 90
        0
 40
-0.6
 41
-30.0
 62
     5
 63
     7
 74
     2
 91
        2
 64
     7
 65
   257
 75
     1
175
     1
 42
40.0
 92
        8
 66
     7
 43
1.0
 76
     1
 77
     6
 78
     2
 67
     7
 79
     3
170
     0
171
     0
290
     0
174
     0
 93
        1
 44
0.0
173
     0
291
     0
 45
0.0
1001
ACAD
1000
AcDbSavedByObjectVersion
1070
     0
  0
VISUALSTYLE
  5
35
102
{ACAD_REACTORS
330
2A
102
}
102
{ACAD_XDICTIONARY
360
577
102
}
330
2A
100
AcDbVisualStyle
  2
Dim
 70
    11
 71
     2
 72
     2
 73
     0
 90
        0
 40
-0.6
 41
-30.0
 62
     5
 63
     7
 74
     1
 91
        4
 64
     7
 65
   257
 75
     1
175
     1
 42
1.0
 92
        8
 66
     7
 43
1.0
 76
     1
 77
     6
 78
     2
 67
     7
 79
     5
170
     0
171
     0
290
     0
174
     0
 93
        1
 44
-50.0
173
     0
291
     1
 45
0.0
1001
ACAD
1000
AcDbSavedByObjectVersion
1070
     0
  0
VISUALSTYLE
  5
39
102
{ACAD_REACTORS
330
2A
102
}
102
{ACAD_XDICTIONARY
360
57F
102
}
330
2A
100
AcDbVisualStyle
  2
Facepattern
 70
    15
 71
     2
 72
     2
 73
     0
 90
        0
 40
-0.6
 41
-30.0
 62
     5
 63
     7
 74
     1
 91
        4
 64
     7
 65
   257
 75
     1
175
     1
 42
1.0
 92
        8
 66
     7
 43
1.0
 76
     1
 77
     6
 78
     2
 67
     7
 79
     5
170
     0
171
     0
290
     0
174
     0
 93
        1
 44
0.0
173
     0
291
     1
 45
0.0
1001
ACAD
1000
AcDbSavedByObjectVersion
1070
     0
  0
VISUALSTYLE
  5
2B
102
{ACAD_REACTORS
330
2A
102
}
102
{ACAD_XDICTIONARY
360
563
102
}
330
2A
100
AcDbVisualStyle
  2
Flat
 70
     0
 71
     2
 72
     1
 73
     1
 90
        2
 40
-0.6
 41
30.0
 62
     5
 63
     7
 74
     0
 91
        4
 64
     7
 65
   257
 75
     1
175
     1
 42
1.0
 92
        8
 66
     7
 43
1.0
 76
     1
 77
     6
 78
     2
 67
     7
 79
     5
170
     0
171
     0
290
     0
174
     0
 93
       13
 44
0.0
173
     0
291
     1
 45
0.0
1001
ACAD
1000
AcDbSavedByObjectVersion
1070
     0
  0
VISUALSTYLE
  5
2C
102
{ACAD_REACTORS
330
2A
102
}
102
{ACAD_XDICTIONARY
360
565
102
}
330
2A
100
AcDbVisualStyle
  2
FlatWithEdges
 70
     1
 71
     2
 72
     1
 73
     1
 90
        2
 40
-0.6
 41
30.0
 62
     5
 63
     7
 74
     1
 91
        4
 64
     7
 65
   257
 75
     1
175
     1
 42
1.0
 92
        0
 66
   257
 43
1.0
 76
     1
 77
     6
 78
     2
 67
     7
 79
     5
170
     0
171
     0
290
     0
174
     0
 93
       13
 44
0.0
173
     0
291
     1
 45
0.0
1001
ACAD
1000
AcDbSavedByObjectVersion
1070
     0
  0
VISUALSTYLE
  5
2D
102
{ACAD_REACTORS
330
2A
102
}
102
{ACAD_XDICTIONARY
360
567
102
}
330
2A
100
AcDbVisualStyle
  2
Gouraud
 70
     2
 71
     2
 72
     2
 73
     1
 90
        2
 40
-0.6
 41
30.0
 62
     5
 63
     7
 74
     0
 91
        4
 64
     7
 65
   257
 75
     1
175
     1
 42
1.0
 92
        0
 66
     7
 43
1.0
 76
     1
 77
     6
 78
     2
 67
     7
 79
     5
170
     0
171
     0
290
     0
174
     0
 93
       13
 44
0.0
173
     0
291
     1
 45
0.0
1001
ACAD
1000
AcDbSavedByObjectVersion
1070
     0
  0
VISUALSTYLE
  5
2E
102
{ACAD_REACTORS
330
2A
102
}
102
{ACAD_XDICTIONARY
360
569
102
}
330
2A
100
AcDbVisualStyle
  2
GouraudWithEdges
 70
     3
 71
     2
 72
     2
 73
     1
 90
        2
 40
-0.6
 41
30.0
 62
     5
 63
     7
 74
     1
 91
        4
 64
     7
 65
   257
 75
     1
175
     1
 42
1.0
 92
        0
 66
   257
 43
1.0
 76
     1
 77
     6
 78
     2
 67
     7
 79
     5
170
     0
171
     0
290
     0
174
     0
 93
       13
 44
0.0
173
     0
291
     1
 45
0.0
1001
ACAD
1000
AcDbSavedByObjectVersion
1070
     0
  0
VISUALSTYLE
  5
38
102
{ACAD_REACTORS
330
2A
102
}
102
{ACAD_XDICTIONARY
360
57D
102
}
330
2A
100
AcDbVisualStyle
  2
Linepattern
 70
    14
 71
     2
 72
     2
 73
     0
 90
        0
 40
-0.6
 41
-30.0
 62
     5
 63
     7
 74
     1
 91
        4
 64
     7
 65
   257
 75
     7
175
     7
 42
1.0
 92
        8
 66
     7
 43
1.0
 76
     1
 77
     6
 78
     2
 67
     7
 79
     5
170
     0
171
     0
290
     0
174
     0
 93
        1
 44
0.0
173
     0
291
     1
 45
0.0
1001
ACAD
1000
AcDbSavedByObjectVersion
1070
     0
  0
VISUALSTYLE
  5
33
102
{ACAD_REACTORS
330
2A
102
}
102
{ACAD_XDICTIONARY
360
573
102
}
330
2A
100
AcDbVisualStyle
  2
Realistic
 70
     8
 71
     2
 72
     2
 73
     0
 90
        0
 40
-0.6
 41
-30.0
 62
     5
 63
     7
 74
     1
 91
        0
 64
     7
 65
   257
 75
     1
175
     1
 42
1.0
 92
        8
 66
     8
 43
1.0
 76
     1
 77
     6
 78
     2
 67
     7
 79
     5
170
     0
171
     0
290
     0
174
     0
 93
       13
 44
0.0
173
     0
291
     0
 45
0.0
1001
ACAD
1000
AcDbSavedByObjectVersion
1070
     0
  0
VISUALSTYLE
  5
37
102
{ACAD_REACTORS
330
2A
102
}
102
{ACAD_XDICTIONARY
360
57B
102
}
330
2A
100
AcDbVisualStyle
  2
Thicken
 70
    13
 71
     2
 72
     2
 73
     0
 90
        0
 40
-0.6
 41
-30.0
 62
     5
 63
     7
 74
     1
 91
        4
 64
     7
 65
   257
 75
     1
175
     1
 42
1.0
 92
       12
 66
     7
 43
1.0
 76
     1
 77
     6
 78
     2
 67
     7
 79
     5
170
     0
171
     0
290
     0
174
     0
 93
        1
 44
0.0
173
     0
291
     1
 45
0.0
1001
ACAD
1000
AcDbSavedByObjectVersion
1070
     0
  0
DICTIONARYVAR
  5
561
102
{ACAD_REACTORS
330
55C
102
}
330
55C
100
DictionaryVariables
280
     0
  1
2
  0
DICTIONARYVAR
  5
562
102
{ACAD_REACTORS
330
55C
102
}
330
55C
100
DictionaryVariables
280
     0
  1
1
  0
DICTIONARYVAR
  5
560
102
{ACAD_REACTORS
330
55C
102
}
330
55C
100
DictionaryVariables
280
     0
  1
80.000000
  0
DICTIONARYVAR
  5
55F
102
{ACAD_REACTORS
330
55C
102
}
330
55C
100
DictionaryVariables
280
     0
  1
5.000000
  0
DICTIONARY
  5
585
330
3D
100
AcDbDictionary
280
     1
281
     1
  3
ACAD_XREC_ROUNDTRIP
360
586
  0
DICTIONARY
  5
583
330
3C
100
AcDbDictionary
280
     1
281
     1
  3
ACAD_XREC_ROUNDTRIP
360
584
  0
DICTIONARY
  5
587
330
3E
100
AcDbDictionary
280
     1
281
     1
  3
ACAD_XREC_ROUNDTRIP
360
588
  0
DICTIONARY
  5
56B
330
2F
100
AcDbDictionary
280
     1
281
     1
  3
ACAD_XREC_ROUNDTRIP
360
56C
  0
DICTIONARY
  5
56F
330
31
100
AcDbDictionary
280
     1
281
     1
  3
ACAD_XREC_ROUNDTRIP
360
570
  0
DICTIONARY
  5
56D
330
30
100
AcDbDictionary
280
     1
281
     1
  3
ACAD_XREC_ROUNDTRIP
360
56E
  0
DICTIONARY
  5
571
330
32
100
AcDbDictionary
280
     1
281
     1
  3
ACAD_XREC_ROUNDTRIP
360
572
  0
DICTIONARY
  5
579
330
36
100
AcDbDictionary
280
     1
281
     1
  3
ACAD_XREC_ROUNDTRIP
360
57A
  0
DICTIONARY
  5
581
330
3A
100
AcDbDictionary
280
     1
281
     1
  3
ACAD_XREC_ROUNDTRIP
360
582
  0
DICTIONARY
  5
575
330
34
100
AcDbDictionary
280
     1
281
     1
  3
ACAD_XREC_ROUNDTRIP
360
576
  0
DICTIONARY
  5
577
330
35
100
AcDbDictionary
280
     1
281
     1
  3
ACAD_XREC_ROUNDTRIP
360
578
  0
DICTIONARY
  5
57F
330
39
100
AcDbDictionary
280
     1
281
     1
  3
ACAD_XREC_ROUNDTRIP
360
580
  0
DICTIONARY
  5
563
330
2B
100
AcDbDictionary
280
     1
281
     1
  3
ACAD_XREC_ROUNDTRIP
360
564
  0
DICTIONARY
  5
565
330
2C
100
AcDbDictionary
280
     1
281
     1
  3
ACAD_XREC_ROUNDTRIP
360
566
  0
DICTIONARY
  5
567
330
2D
100
AcDbDictionary
280
     1
281
     1
  3
ACAD_XREC_ROUNDTRIP
360
568
  0
DICTIONARY
  5
569
330
2E
100
AcDbDictionary
280
     1
281
     1
  3
ACAD_XREC_ROUNDTRIP
360
56A
  0
DICTIONARY
  5
57D
330
38
100
AcDbDictionary
280
     1
281
     1
  3
ACAD_XREC_ROUNDTRIP
360
57E
  0
DICTIONARY
  5
573
330
33
100
AcDbDictionary
280
     1
281
     1
  3
ACAD_XREC_ROUNDTRIP
360
574
  0
DICTIONARY
  5
57B
330
37
100
AcDbDictionary
280
     1
281
     1
  3
ACAD_XREC_ROUNDTRIP
360
57C
  0
XRECORD
  5
586
102
{ACAD_REACTORS
330
585
102
}
330
585
100
AcDbXrecord
280
     1
102
MATERIAL
148
0.0
149
0.0
149
0.0
 93
        0
 94
      127
282
     0
 72
     1
 77
     1
171
     1
175
     1
179
     1
273
     0
  0
XRECORD
  5
584
102
{ACAD_REACTORS
330
583
102
}
330
583
100
AcDbXrecord
280
     1
102
MATERIAL
148
0.0
149
0.0
149
0.0
 93
        0
 94
      127
282
     0
 72
     1
 77
     1
171
     1
175
     1
179
     1
273
     0
  0
XRECORD
  5
588
102
{ACAD_REACTORS
330
587
102
}
330
587
100
AcDbXrecord
280
     1
102
MATERIAL
148
0.0
149
0.0
149
0.0
 93
        0
 94
      127
282
     0
 72
     1
 77
     1
171
     1
175
     1
179
     1
273
     0
  0
XRECORD
  5
56C
102
{ACAD_REACTORS
330
56B
102
}
330
56B
100
AcDbXrecord
280
     1
102
RTVSPropertyOp0
 70
     1
102
RTVSPropertyOp1
 70
     1
102
RTVSPropertyOp2
 70
     1
102
RTVSPropertyOp3
 70
     1
102
RTVSPropertyOp4
 70
     1
102
RTVSPropertyOp5
 70
     1
102
RTVSPropertyOp6
 70
     1
102
RTVSPropertyOp7
 70
     1
102
RTVSPropertyOp8
 70
     1
102
RTVSPropertyOp9
 70
     1
102
RTVSPropertyOp10
 70
     1
102
RTVSPropertyOp11
 70
     1
102
RTVSPropertyOp12
 70
     1
102
RTVSPropertyOp13
 70
     1
102
RTVSPropertyOp14
 70
     1
102
RTVSPropertyOp15
 70
     1
102
RTVSPropertyOp16
 70
     1
102
RTVSPropertyOp17
 70
     1
102
RTVSPropertyOp18
 70
     1
102
RTVSPropertyOp19
 70
     1
102
RTVSPropertyOp20
 70
     1
102
RTVSPropertyOp21
 70
     1
102
RTVSPropertyOp22
 70
     1
102
RTVSPropertyOp23
 70
     1
102
RTVSPropertyOp24
 70
     1
102
RTVSPropertyOp25
 70
     1
102
RTVSPropertyOp26
 70
     1
102
RTVSPropertyOp27
 70
     1
  0
XRECORD
  5
570
102
{ACAD_REACTORS
330
56F
102
}
330
56F
100
AcDbXrecord
280
     1
102
RTVSPropertyOp0
 70
     1
102
RTVSPropertyOp1
 70
     1
102
RTVSPropertyOp2
 70
     1
102
RTVSPropertyOp3
 70
     1
102
RTVSPropertyOp4
 70
     1
102
RTVSPropertyOp5
 70
     1
102
RTVSPropertyOp6
 70
     1
102
RTVSPropertyOp7
 70
     1
102
RTVSPropertyOp8
 70
     1
102
RTVSPropertyOp9
 70
     1
102
RTVSPropertyOp10
 70
     1
102
RTVSPropertyOp11
 70
     1
102
RTVSPropertyOp12
 70
     1
102
RTVSPropertyOp13
 70
     1
102
RTVSPropertyOp14
 70
     1
102
RTVSPropertyOp15
 70
     1
102
RTVSPropertyOp16
 70
     1
102
RTVSPropertyOp17
 70
     1
102
RTVSPropertyOp18
 70
     1
102
RTVSPropertyOp19
 70
     1
102
RTVSPropertyOp20
 70
     1
102
RTVSPropertyOp21
 70
     1
102
RTVSPropertyOp22
 70
     1
102
RTVSPropertyOp23
 70
     1
102
RTVSPropertyOp24
 70
     1
102
RTVSPropertyOp25
 70
     1
102
RTVSPropertyOp26
 70
     1
102
RTVSPropertyOp27
 70
     1
  0
XRECORD
  5
56E
102
{ACAD_REACTORS
330
56D
102
}
330
56D
100
AcDbXrecord
280
     1
102
RTVSPropertyOp0
 70
     1
102
RTVSPropertyOp1
 70
     1
102
RTVSPropertyOp2
 70
     1
102
RTVSPropertyOp3
 70
     1
102
RTVSPropertyOp4
 70
     1
102
RTVSPropertyOp5
 70
     1
102
RTVSPropertyOp6
 70
     1
102
RTVSPropertyOp7
 70
     1
102
RTVSPropertyOp8
 70
     1
102
RTVSPropertyOp9
 70
     1
102
RTVSPropertyOp10
 70
     1
102
RTVSPropertyOp11
 70
     1
102
RTVSPropertyOp12
 70
     1
102
RTVSPropertyOp13
 70
     1
102
RTVSPropertyOp14
 70
     1
102
RTVSPropertyOp15
 70
     1
102
RTVSPropertyOp16
 70
     1
102
RTVSPropertyOp17
 70
     1
102
RTVSPropertyOp18
 70
     1
102
RTVSPropertyOp19
 70
     1
102
RTVSPropertyOp20
 70
     1
102
RTVSPropertyOp21
 70
     1
102
RTVSPropertyOp22
 70
     1
102
RTVSPropertyOp23
 70
     1
102
RTVSPropertyOp24
 70
     1
102
RTVSPropertyOp25
 70
     1
102
RTVSPropertyOp26
 70
     1
102
RTVSPropertyOp27
 70
     1
  0
XRECORD
  5
572
102
{ACAD_REACTORS
330
571
102
}
330
571
100
AcDbXrecord
280
     1
102
RTVSPropertyOp0
 70
     1
102
RTVSPropertyOp1
 70
     1
102
RTVSPropertyOp2
 70
     1
102
RTVSPropertyOp3
 70
     1
102
RTVSPropertyOp4
 70
     1
102
RTVSPropertyOp5
 70
     1
102
RTVSPropertyOp6
 70
     1
102
RTVSPropertyOp7
 70
     1
102
RTVSPropertyOp8
 70
     1
102
RTVSPropertyOp9
 70
     1
102
RTVSPropertyOp10
 70
     1
102
RTVSPropertyOp11
 70
     1
102
RTVSPropertyOp12
 70
     1
102
RTVSPropertyOp13
 70
     1
102
RTVSPropertyOp14
 70
     1
102
RTVSPropertyOp15
 70
     1
102
RTVSPropertyOp16
 70
     1
102
RTVSPropertyOp17
 70
     1
102
RTVSPropertyOp18
 70
     1
102
RTVSPropertyOp19
 70
     1
102
RTVSPropertyOp20
 70
     1
102
RTVSPropertyOp21
 70
     1
102
RTVSPropertyOp22
 70
     1
102
RTVSPropertyOp23
 70
     1
102
RTVSPropertyOp24
 70
     1
102
RTVSPropertyOp25
 70
     1
102
RTVSPropertyOp26
 70
     1
102
RTVSPropertyOp27
 70
     1
  0
XRECORD
  5
57A
102
{ACAD_REACTORS
330
579
102
}
330
579
100
AcDbXrecord
280
     1
102
RTVSPropertyOp0
 70
     1
102
RTVSPropertyOp1
 70
     1
102
RTVSPropertyOp2
 70
     1
102
RTVSPropertyOp3
 70
     1
102
RTVSPropertyOp4
 70
     1
102
RTVSPropertyOp5
 70
     1
102
RTVSPropertyOp6
 70
     1
102
RTVSPropertyOp7
 70
     1
102
RTVSPropertyOp8
 70
     1
102
RTVSPropertyOp9
 70
     1
102
RTVSPropertyOp10
 70
     1
102
RTVSPropertyOp11
 70
     1
102
RTVSPropertyOp12
 70
     1
102
RTVSPropertyOp13
 70
     1
102
RTVSPropertyOp14
 70
     1
102
RTVSPropertyOp15
 70
     1
102
RTVSPropertyOp16
 70
     1
102
RTVSPropertyOp17
 70
     1
102
RTVSPropertyOp18
 70
     1
102
RTVSPropertyOp19
 70
     1
102
RTVSPropertyOp20
 70
     1
102
RTVSPropertyOp21
 70
     1
102
RTVSPropertyOp22
 70
     1
102
RTVSPropertyOp23
 70
     1
102
RTVSPropertyOp24
 70
     1
102
RTVSPropertyOp25
 70
     1
102
RTVSPropertyOp26
 70
     1
102
RTVSPropertyOp27
 70
     1
  0
XRECORD
  5
582
102
{ACAD_REACTORS
330
581
102
}
330
581
100
AcDbXrecord
280
     1
102
RTVSPropertyOp0
 70
     1
102
RTVSPropertyOp1
 70
     1
102
RTVSPropertyOp2
 70
     1
102
RTVSPropertyOp3
 70
     1
102
RTVSPropertyOp4
 70
     1
102
RTVSPropertyOp5
 70
     1
102
RTVSPropertyOp6
 70
     1
102
RTVSPropertyOp7
 70
     1
102
RTVSPropertyOp8
 70
     1
102
RTVSPropertyOp9
 70
     1
102
RTVSPropertyOp10
 70
     1
102
RTVSPropertyOp11
 70
     1
102
RTVSPropertyOp12
 70
     1
102
RTVSPropertyOp13
 70
     1
102
RTVSPropertyOp14
 70
     1
102
RTVSPropertyOp15
 70
     1
102
RTVSPropertyOp16
 70
     1
102
RTVSPropertyOp17
 70
     1
102
RTVSPropertyOp18
 70
     1
102
RTVSPropertyOp19
 70
     1
102
RTVSPropertyOp20
 70
     1
102
RTVSPropertyOp21
 70
     1
102
RTVSPropertyOp22
 70
     1
102
RTVSPropertyOp23
 70
     1
102
RTVSPropertyOp24
 70
     1
102
RTVSPropertyOp25
 70
     1
102
RTVSPropertyOp26
 70
     1
102
RTVSPropertyOp27
 70
     1
  0
XRECORD
  5
576
102
{ACAD_REACTORS
330
575
102
}
330
575
100
AcDbXrecord
280
     1
102
RTVSPropertyOp0
 70
     1
102
RTVSPropertyOp1
 70
     1
102
RTVSPropertyOp2
 70
     1
102
RTVSPropertyOp3
 70
     1
102
RTVSPropertyOp4
 70
     1
102
RTVSPropertyOp5
 70
     1
102
RTVSPropertyOp6
 70
     1
102
RTVSPropertyOp7
 70
     1
102
RTVSPropertyOp8
 70
     1
102
RTVSPropertyOp9
 70
     1
102
RTVSPropertyOp10
 70
     1
102
RTVSPropertyOp11
 70
     1
102
RTVSPropertyOp12
 70
     1
102
RTVSPropertyOp13
 70
     1
102
RTVSPropertyOp14
 70
     1
102
RTVSPropertyOp15
 70
     1
102
RTVSPropertyOp16
 70
     1
102
RTVSPropertyOp17
 70
     1
102
RTVSPropertyOp18
 70
     1
102
RTVSPropertyOp19
 70
     1
102
RTVSPropertyOp20
 70
     1
102
RTVSPropertyOp21
 70
     1
102
RTVSPropertyOp22
 70
     1
102
RTVSPropertyOp23
 70
     1
102
RTVSPropertyOp24
 70
     1
102
RTVSPropertyOp25
 70
     1
102
RTVSPropertyOp26
 70
     1
102
RTVSPropertyOp27
 70
     1
  0
XRECORD
  5
578
102
{ACAD_REACTORS
330
577
102
}
330
577
100
AcDbXrecord
280
     1
102
RTVSPropertyOp0
 70
     1
102
RTVSPropertyOp1
 70
     1
102
RTVSPropertyOp2
 70
     1
102
RTVSPropertyOp3
 70
     1
102
RTVSPropertyOp4
 70
     1
102
RTVSPropertyOp5
 70
     1
102
RTVSPropertyOp6
 70
     1
102
RTVSPropertyOp7
 70
     1
102
RTVSPropertyOp8
 70
     1
102
RTVSPropertyOp9
 70
     1
102
RTVSPropertyOp10
 70
     1
102
RTVSPropertyOp11
 70
     1
102
RTVSPropertyOp12
 70
     1
102
RTVSPropertyOp13
 70
     1
102
RTVSPropertyOp14
 70
     1
102
RTVSPropertyOp15
 70
     1
102
RTVSPropertyOp16
 70
     1
102
RTVSPropertyOp17
 70
     1
102
RTVSPropertyOp18
 70
     1
102
RTVSPropertyOp19
 70
     1
102
RTVSPropertyOp20
 70
     1
102
RTVSPropertyOp21
 70
     1
102
RTVSPropertyOp22
 70
     1
102
RTVSPropertyOp23
 70
     1
102
RTVSPropertyOp24
 70
     1
102
RTVSPropertyOp25
 70
     1
102
RTVSPropertyOp26
 70
     1
102
RTVSPropertyOp27
 70
     1
  0
XRECORD
  5
580
102
{ACAD_REACTORS
330
57F
102
}
330
57F
100
AcDbXrecord
280
     1
102
RTVSPropertyOp0
 70
     1
102
RTVSPropertyOp1
 70
     1
102
RTVSPropertyOp2
 70
     1
102
RTVSPropertyOp3
 70
     1
102
RTVSPropertyOp4
 70
     1
102
RTVSPropertyOp5
 70
     1
102
RTVSPropertyOp6
 70
     1
102
RTVSPropertyOp7
 70
     1
102
RTVSPropertyOp8
 70
     1
102
RTVSPropertyOp9
 70
     1
102
RTVSPropertyOp10
 70
     1
102
RTVSPropertyOp11
 70
     1
102
RTVSPropertyOp12
 70
     1
102
RTVSPropertyOp13
 70
     1
102
RTVSPropertyOp14
 70
     1
102
RTVSPropertyOp15
 70
     1
102
RTVSPropertyOp16
 70
     1
102
RTVSPropertyOp17
 70
     1
102
RTVSPropertyOp18
 70
     1
102
RTVSPropertyOp19
 70
     1
102
RTVSPropertyOp20
 70
     1
102
RTVSPropertyOp21
 70
     1
102
RTVSPropertyOp22
 70
     1
102
RTVSPropertyOp23
 70
     1
102
RTVSPropertyOp24
 70
     1
102
RTVSPropertyOp25
 70
     1
102
RTVSPropertyOp26
 70
     1
102
RTVSPropertyOp27
 70
     1
  0
XRECORD
  5
564
102
{ACAD_REACTORS
330
563
102
}
330
563
100
AcDbXrecord
280
     1
102
RTVSPropertyOp0
 70
     1
102
RTVSPropertyOp1
 70
     1
102
RTVSPropertyOp2
 70
     1
102
RTVSPropertyOp3
 70
     1
102
RTVSPropertyOp4
 70
     1
102
RTVSPropertyOp5
 70
     1
102
RTVSPropertyOp6
 70
     1
102
RTVSPropertyOp7
 70
     1
102
RTVSPropertyOp8
 70
     1
102
RTVSPropertyOp9
 70
     1
102
RTVSPropertyOp10
 70
     1
102
RTVSPropertyOp11
 70
     1
102
RTVSPropertyOp12
 70
     1
102
RTVSPropertyOp13
 70
     1
102
RTVSPropertyOp14
 70
     1
102
RTVSPropertyOp15
 70
     1
102
RTVSPropertyOp16
 70
     1
102
RTVSPropertyOp17
 70
     1
102
RTVSPropertyOp18
 70
     1
102
RTVSPropertyOp19
 70
     1
102
RTVSPropertyOp20
 70
     1
102
RTVSPropertyOp21
 70
     1
102
RTVSPropertyOp22
 70
     1
102
RTVSPropertyOp23
 70
     1
102
RTVSPropertyOp24
 70
     1
102
RTVSPropertyOp25
 70
     1
102
RTVSPropertyOp26
 70
     1
102
RTVSPropertyOp27
 70
     1
  0
XRECORD
  5
566
102
{ACAD_REACTORS
330
565
102
}
330
565
100
AcDbXrecord
280
     1
102
RTVSPropertyOp0
 70
     1
102
RTVSPropertyOp1
 70
     1
102
RTVSPropertyOp2
 70
     1
102
RTVSPropertyOp3
 70
     1
102
RTVSPropertyOp4
 70
     1
102
RTVSPropertyOp5
 70
     1
102
RTVSPropertyOp6
 70
     1
102
RTVSPropertyOp7
 70
     1
102
RTVSPropertyOp8
 70
     1
102
RTVSPropertyOp9
 70
     1
102
RTVSPropertyOp10
 70
     1
102
RTVSPropertyOp11
 70
     1
102
RTVSPropertyOp12
 70
     1
102
RTVSPropertyOp13
 70
     1
102
RTVSPropertyOp14
 70
     1
102
RTVSPropertyOp15
 70
     1
102
RTVSPropertyOp16
 70
     1
102
RTVSPropertyOp17
 70
     1
102
RTVSPropertyOp18
 70
     1
102
RTVSPropertyOp19
 70
     1
102
RTVSPropertyOp20
 70
     1
102
RTVSPropertyOp21
 70
     1
102
RTVSPropertyOp22
 70
     1
102
RTVSPropertyOp23
 70
     1
102
RTVSPropertyOp24
 70
     1
102
RTVSPropertyOp25
 70
     1
102
RTVSPropertyOp26
 70
     1
102
RTVSPropertyOp27
 70
     1
  0
XRECORD
  5
568
102
{ACAD_REACTORS
330
567
102
}
330
567
100
AcDbXrecord
280
     1
102
RTVSPropertyOp0
 70
     1
102
RTVSPropertyOp1
 70
     1
102
RTVSPropertyOp2
 70
     1
102
RTVSPropertyOp3
 70
     1
102
RTVSPropertyOp4
 70
     1
102
RTVSPropertyOp5
 70
     1
102
RTVSPropertyOp6
 70
     1
102
RTVSPropertyOp7
 70
     1
102
RTVSPropertyOp8
 70
     1
102
RTVSPropertyOp9
 70
     1
102
RTVSPropertyOp10
 70
     1
102
RTVSPropertyOp11
 70
     1
102
RTVSPropertyOp12
 70
     1
102
RTVSPropertyOp13
 70
     1
102
RTVSPropertyOp14
 70
     1
102
RTVSPropertyOp15
 70
     1
102
RTVSPropertyOp16
 70
     1
102
RTVSPropertyOp17
 70
     1
102
RTVSPropertyOp18
 70
     1
102
RTVSPropertyOp19
 70
     1
102
RTVSPropertyOp20
 70
     1
102
RTVSPropertyOp21
 70
     1
102
RTVSPropertyOp22
 70
     1
102
RTVSPropertyOp23
 70
     1
102
RTVSPropertyOp24
 70
     1
102
RTVSPropertyOp25
 70
     1
102
RTVSPropertyOp26
 70
     1
102
RTVSPropertyOp27
 70
     1
  0
XRECORD
  5
56A
102
{ACAD_REACTORS
330
569
102
}
330
569
100
AcDbXrecord
280
     1
102
RTVSPropertyOp0
 70
     1
102
RTVSPropertyOp1
 70
     1
102
RTVSPropertyOp2
 70
     1
102
RTVSPropertyOp3
 70
     1
102
RTVSPropertyOp4
 70
     1
102
RTVSPropertyOp5
 70
     1
102
RTVSPropertyOp6
 70
     1
102
RTVSPropertyOp7
 70
     1
102
RTVSPropertyOp8
 70
     1
102
RTVSPropertyOp9
 70
     1
102
RTVSPropertyOp10
 70
     1
102
RTVSPropertyOp11
 70
     1
102
RTVSPropertyOp12
 70
     1
102
RTVSPropertyOp13
 70
     1
102
RTVSPropertyOp14
 70
     1
102
RTVSPropertyOp15
 70
     1
102
RTVSPropertyOp16
 70
     1
102
RTVSPropertyOp17
 70
     1
102
RTVSPropertyOp18
 70
     1
102
RTVSPropertyOp19
 70
     1
102
RTVSPropertyOp20
 70
     1
102
RTVSPropertyOp21
 70
     1
102
RTVSPropertyOp22
 70
     1
102
RTVSPropertyOp23
 70
     1
102
RTVSPropertyOp24
 70
     1
102
RTVSPropertyOp25
 70
     1
102
RTVSPropertyOp26
 70
     1
102
RTVSPropertyOp27
 70
     1
  0
XRECORD
  5
57E
102
{ACAD_REACTORS
330
57D
102
}
330
57D
100
AcDbXrecord
280
     1
102
RTVSPropertyOp0
 70
     1
102
RTVSPropertyOp1
 70
     1
102
RTVSPropertyOp2
 70
     1
102
RTVSPropertyOp3
 70
     1
102
RTVSPropertyOp4
 70
     1
102
RTVSPropertyOp5
 70
     1
102
RTVSPropertyOp6
 70
     1
102
RTVSPropertyOp7
 70
     1
102
RTVSPropertyOp8
 70
     1
102
RTVSPropertyOp9
 70
     1
102
RTVSPropertyOp10
 70
     1
102
RTVSPropertyOp11
 70
     1
102
RTVSPropertyOp12
 70
     1
102
RTVSPropertyOp13
 70
     1
102
RTVSPropertyOp14
 70
     1
102
RTVSPropertyOp15
 70
     1
102
RTVSPropertyOp16
 70
     1
102
RTVSPropertyOp17
 70
     1
102
RTVSPropertyOp18
 70
     1
102
RTVSPropertyOp19
 70
     1
102
RTVSPropertyOp20
 70
     1
102
RTVSPropertyOp21
 70
     1
102
RTVSPropertyOp22
 70
     1
102
RTVSPropertyOp23
 70
     1
102
RTVSPropertyOp24
 70
     1
102
RTVSPropertyOp25
 70
     1
102
RTVSPropertyOp26
 70
     1
102
RTVSPropertyOp27
 70
     1
  0
XRECORD
  5
574
102
{ACAD_REACTORS
330
573
102
}
330
573
100
AcDbXrecord
280
     1
102
RTVSPropertyOp0
 70
     1
102
RTVSPropertyOp1
 70
     1
102
RTVSPropertyOp2
 70
     1
102
RTVSPropertyOp3
 70
     1
102
RTVSPropertyOp4
 70
     1
102
RTVSPropertyOp5
 70
     1
102
RTVSPropertyOp6
 70
     1
102
RTVSPropertyOp7
 70
     1
102
RTVSPropertyOp8
 70
     1
102
RTVSPropertyOp9
 70
     1
102
RTVSPropertyOp10
 70
     1
102
RTVSPropertyOp11
 70
     1
102
RTVSPropertyOp12
 70
     1
102
RTVSPropertyOp13
 70
     1
102
RTVSPropertyOp14
 70
     1
102
RTVSPropertyOp15
 70
     1
102
RTVSPropertyOp16
 70
     1
102
RTVSPropertyOp17
 70
     1
102
RTVSPropertyOp18
 70
     1
102
RTVSPropertyOp19
 70
     1
102
RTVSPropertyOp20
 70
     1
102
RTVSPropertyOp21
 70
     1
102
RTVSPropertyOp22
 70
     1
102
RTVSPropertyOp23
 70
     1
102
RTVSPropertyOp24
 70
     1
102
RTVSPropertyOp25
 70
     1
102
RTVSPropertyOp26
 70
     1
102
RTVSPropertyOp27
 70
     1
  0
XRECORD
  5
57C
102
{ACAD_REACTORS
330
57B
102
}
330
57B
100
AcDbXrecord
280
     1
102
RTVSPropertyOp0
 70
     1
102
RTVSPropertyOp1
 70
     1
102
RTVSPropertyOp2
 70
     1
102
RTVSPropertyOp3
 70
     1
102
RTVSPropertyOp4
 70
     1
102
RTVSPropertyOp5
 70
     1
102
RTVSPropertyOp6
 70
     1
102
RTVSPropertyOp7
 70
     1
102
RTVSPropertyOp8
 70
     1
102
RTVSPropertyOp9
 70
     1
102
RTVSPropertyOp10
 70
     1
102
RTVSPropertyOp11
 70
     1
102
RTVSPropertyOp12
 70
     1
102
RTVSPropertyOp13
 70
     1
102
RTVSPropertyOp14
 70
     1
102
RTVSPropertyOp15
 70
     1
102
RTVSPropertyOp16
 70
     1
102
RTVSPropertyOp17
 70
     1
102
RTVSPropertyOp18
 70
     1
102
RTVSPropertyOp19
 70
     1
102
RTVSPropertyOp20
 70
     1
102
RTVSPropertyOp21
 70
     1
102
RTVSPropertyOp22
 70
     1
102
RTVSPropertyOp23
 70
     1
102
RTVSPropertyOp24
 70
     1
102
RTVSPropertyOp25
 70
     1
102
RTVSPropertyOp26
 70
     1
102
RTVSPropertyOp27
 70
     1
  0
ENDSEC
  0
EOF
