  0
SECTION
  2
HEADER
  9
$ACADVER
  1
AC1014
  9
$ACADMAINTVER
 70
     9
  9
$DWGCODEPAGE
  3
ANSI_932
  9
$INSBASE
 10
0.0
 20
0.0
 30
0.0
  9
$EXTMIN
 10
0.0
 20
0.0
 30
0.0
  9
$EXTMAX
 10
841.0
 20
594.0
 30
0.0
  9
$LIMMIN
 10
0.0
 20
0.0
  9
$LIMMAX
 10
841.0
 20
594.0
  9
$ORTHOMODE
 70
     0
  9
$REGENMODE
 70
     1
  9
$FILLMODE
 70
     1
  9
$QTEXTMODE
 70
     0
  9
$MIRRTEXT
 70
     1
  9
$DRAGMODE
 70
     2
  9
$LTSCALE
 40
1.0
  9
$OSMODE
 70
    37
  9
$ATTMODE
 70
     1
  9
$TEXTSIZE
 40
0.2
  9
$TRACEWID
 40
1.0
  9
$TEXTSTYLE
  7
FX_VECTOR
  9
$CLAYER
  8
0
  9
$CELTYPE
  6
BYLAYER
  9
$CECOLOR
 62
   256
  9
$CELTSCALE
 40
1.0
  9
$DELOBJ
 70
     1
  9
$DISPSILH
 70
     0
  9
$DIMSCALE
 40
1.0
  9
$DIMASZ
 40
4.0
  9
$DIMEXO
 40
1.0
  9
$DIMDLI
 40
10.0
  9
$DIMRND
 40
0.0
  9
$DIMDLE
 40
6.0
  9
$DIMEXE
 40
1.0
  9
$DIMTP
 40
0.0
  9
$DIMTM
 40
0.0
  9
$DIMTXT
 40
4.0
  9
$DIMCEN
 40
2.5
  9
$DIMTSZ
 40
0.0
  9
$DIMTOL
 70
     0
  9
$DIMLIM
 70
     0
  9
$DIMTIH
 70
     0
  9
$DIMTOH
 70
     0
  9
$DIMSE1
 70
     0
  9
$DIMSE2
 70
     0
  9
$DIMTAD
 70
     1
  9
$DIMZIN
 70
     8
  9
$DIMBLK
  1

  9
$DIMASO
 70
     1
  9
$DIMSHO
 70
     1
  9
$DIMPOST
  1

  9
$DIMAPOST
  1

  9
$DIMALT
 70
     0
  9
$DIMALTD
 70
     3
  9
$DIMALTF
 40
0.03937
  9
$DIMLFAC
 40
1.0
  9
$DIMTOFL
 70
     1
  9
$DIMTVP
 40
0.0
  9
$DIMTIX
 70
     0
  9
$DIMSOXD
 70
     0
  9
$DIMSAH
 70
     1
  9
$DIMBLK1
  1
FXTIP_ARROW_S
  9
$DIMBLK2
  1
FXTIP_ARROW_E
  9
$DIMSTYLE
  2
FX_DIMINFO
  9
$DIMCLRD
 70
     7
  9
$DIMCLRE
 70
     7
  9
$DIMCLRT
 70
     7
  9
$DIMTFAC
 40
1.0
  9
$DIMGAP
 40
1.0
  9
$DIMJUST
 70
     0
  9
$DIMSD1
 70
     0
  9
$DIMSD2
 70
     0
  9
$DIMTOLJ
 70
     1
  9
$DIMTZIN
 70
     8
  9
$DIMALTZ
 70
     0
  9
$DIMALTTZ
 70
     0
  9
$DIMFIT
 70
     3
  9
$DIMUPT
 70
     0
  9
$DIMUNIT
 70
     2
  9
$DIMDEC
 70
     2
  9
$DIMTDEC
 70
     2
  9
$DIMALTU
 70
     2
  9
$DIMALTTD
 70
     3
  9
$DIMTXSTY
  7
FX_VECTOR
  9
$DIMAUNIT
 70
     0
  9
$LUNITS
 70
     2
  9
$LUPREC
 70
     4
  9
$SKETCHINC
 40
1.0
  9
$FILLETRAD
 40
10.0
  9
$AUNITS
 70
     0
  9
$AUPREC
 70
     0
  9
$MENU
  1
.
  9
$ELEVATION
 40
0.0
  9
$PELEVATION
 40
0.0
  9
$THICKNESS
 40
0.0
  9
$LIMCHECK
 70
     0
  9
$CHAMFERA
 40
10.0
  9
$CHAMFERB
 40
10.0
  9
$CHAMFERC
 40
20.0
  9
$CHAMFERD
 40
0.0
  9
$SKPOLY
 70
     0
  9
$TDCREATE
 40
2456317.645554665
  9
$TDUPDATE
 40
2456317.645558646
  9
$TDINDWG
 40
0.0000000116
  9
$TDUSRTIMER
 40
0.0000000116
  9
$USRTIMER
 70
     1
  9
$ANGBASE
 50
0.0
  9
$ANGDIR
 70
     0
  9
$PDMODE
 70
     0
  9
$PDSIZE
 40
0.0
  9
$PLINEWID
 40
0.0
  9
$COORDS
 70
     1
  9
$SPLFRAME
 70
     0
  9
$SPLINETYPE
 70
     6
  9
$SPLINESEGS
 70
     8
  9
$ATTDIA
 70
     0
  9
$ATTREQ
 70
     1
  9
$HANDLING
 70
     1
  9
$HANDSEED
  5
446
  9
$SURFTAB1
 70
     6
  9
$SURFTAB2
 70
     6
  9
$SURFTYPE
 70
     6
  9
$SURFU
 70
     6
  9
$SURFV
 70
     6
  9
$UCSNAME
  2

  9
$UCSORG
 10
0.0
 20
0.0
 30
0.0
  9
$UCSXDIR
 10
1.0
 20
0.0
 30
0.0
  9
$UCSYDIR
 10
0.0
 20
1.0
 30
0.0
  9
$PUCSNAME
  2

  9
$PUCSORG
 10
0.0
 20
0.0
 30
0.0
  9
$PUCSXDIR
 10
1.0
 20
0.0
 30
0.0
  9
$PUCSYDIR
 10
0.0
 20
1.0
 30
0.0
  9
$USERI1
 70
     0
  9
$USERI2
 70
     0
  9
$USERI3
 70
     0
  9
$USERI4
 70
     0
  9
$USERI5
 70
     0
  9
$USERR1
 40
0.0
  9
$USERR2
 40
0.0
  9
$USERR3
 40
0.0
  9
$USERR4
 40
0.0
  9
$USERR5
 40
0.0
  9
$WORLDVIEW
 70
     1
  9
$SHADEDGE
 70
     3
  9
$SHADEDIF
 70
    70
  9
$TILEMODE
 70
     1
  9
$MAXACTVP
 70
    64
  9
$PINSBASE
 10
0.0
 20
0.0
 30
0.0
  9
$PLIMCHECK
 70
     0
  9
$PEXTMIN
 10
1.000000000000000E+20
 20
1.000000000000000E+20
 30
1.000000000000000E+20
  9
$PEXTMAX
 10
-1.000000000000000E+20
 20
-1.000000000000000E+20
 30
-1.000000000000000E+20
  9
$PLIMMIN
 10
0.0
 20
0.0
  9
$PLIMMAX
 10
420.0
 20
297.0
  9
$UNITMODE
 70
     0
  9
$VISRETAIN
 70
     1
  9
$PLINEGEN
 70
     0
  9
$PSLTSCALE
 70
     1
  9
$TREEDEPTH
 70
  3020
  9
$PICKSTYLE
 70
     1
  9
$CMLSTYLE
  2
STANDARD
  9
$CMLJUST
 70
     0
  9
$CMLSCALE
 40
20.0
  9
$PROXYGRAPHICS
 70
     1
  9
$MEASUREMENT
 70
     1
  0
ENDSEC
  0
SECTION
  2
CLASSES
  0
CLASS
  1
ACDBDICTIONARYWDFLT
  2
AcDbDictionaryWithDefault
  3
ObjectDBX Classes
 90
        0
280
     0
281
     0
  0
CLASS
  1
VISUALSTYLE
  2
AcDbVisualStyle
  3
ObjectDBX Classes
 90
     4095
280
     0
281
     0
  0
CLASS
  1
MATERIAL
  2
AcDbMaterial
  3
ObjectDBX Classes
 90
     1153
280
     0
281
     0
  0
CLASS
  1
SUN
  2
AcDbSun
  3
SCENEOE
 90
     1024
280
     0
281
     0
  0
CLASS
  1
DICTIONARYVAR
  2
AcDbDictionaryVar
  3
ObjectDBX Classes
 90
        0
280
     0
281
     0
  0
CLASS
  1
XRECORD
  2
AcDbXrecord
  3
AutoCAD 2000
 90
        0
280
     0
281
     0
  0
CLASS
  1
LWPOLYLINE
  2
AcDbPolyline
  3
AutoCAD 2000
 90
        0
280
     0
281
     1
  0
CLASS
  1
HATCH
  2
AcDbHatch
  3
AutoCAD 2000
 90
        0
280
     0
281
     1
  0
CLASS
  1
ACDBPLACEHOLDER
  2
AcDbPlaceHolder
  3
ObjectDBX Classes
 90
        0
280
     0
281
     0
  0
CLASS
  1
LAYOUT
  2
AcDbLayout
  3
ObjectDBX Classes
 90
        0
280
     0
281
     0
  0
ENDSEC
  0
SECTION
  2
TABLES
  0
TABLE
  2
VPORT
  5
8
330
0
100
AcDbSymbolTable
 70
     1
  0
VPORT
  5
29
330
8
100
AcDbSymbolTableRecord
100
AcDbViewportTableRecord
  2
*ACTIVE
 70
     0
 10
0.0
 20
0.0
 11
1.0
 21
1.0
 12
420.5
 22
297.0
 13
0.0
 23
0.0
 14
10.0
 24
10.0
 15
10.0
 25
10.0
 16
0.0
 26
0.0
 36
1.0
 17
0.0
 27
0.0
 37
0.0
 40
594.0
 41
1.415824915824916
 42
50.0
 43
0.0
 44
0.0
 50
0.0
 51
0.0
 71
     0
 72
   100
 73
     1
 74
     3
 75
     0
 76
     0
 77
     0
 78
     0
  0
ENDTAB
  0
TABLE
  2
LTYPE
  5
5
330
0
100
AcDbSymbolTable
 70
     5
  0
LTYPE
  5
14
330
5
100
AcDbSymbolTableRecord
100
AcDbLinetypeTableRecord
  2
BYBLOCK
 70
     0
  3

 72
    65
 73
     0
 40
0.0
  0
LTYPE
  5
15
330
5
100
AcDbSymbolTableRecord
100
AcDbLinetypeTableRecord
  2
BYLAYER
 70
     0
  3

 72
    65
 73
     0
 40
0.0
  0
LTYPE
  5
16
330
5
100
AcDbSymbolTableRecord
100
AcDbLinetypeTableRecord
  2
CONTINUOUS
 70
     0
  3
Continuous
 72
    65
 73
     0
 40
0.0
  0
LTYPE
  5
40
330
5
100
AcDbSymbolTableRecord
100
AcDbLinetypeTableRecord
  2
DASHDOT
 70
     0
  3
Dash dot __ . __ . __ . __ . __ . __ . __ . __
 72
    65
 73
     4
 40
13.0
 49
10.0
 74
     0
 49
-1.0
 74
     0
 49
1.0
 74
     0
 49
-1.0
 74
     0
  0
ENDTAB
  0
TABLE
  2
LAYER
  5
2
330
0
100
AcDbSymbolTable
 70
     7
  0
LAYER
  5
10
330
2
100
AcDbSymbolTableRecord
100
AcDbLayerTableRecord
  2
0
 70
     0
 62
     7
  6
CONTINUOUS
  0
LAYER
  5
B1
330
2
100
AcDbSymbolTableRecord
100
AcDbLayerTableRecord
  2
DEFPOINTS
 70
     0
 62
     7
  6
CONTINUOUS
  0
LAYER
  5
B6
330
2
100
AcDbSymbolTableRecord
100
AcDbLayerTableRecord
  2
図面枠ﾚｲﾔ
 70
     0
 62
     7
  6
CONTINUOUS
  0
LAYER
  5
DB
330
2
100
AcDbSymbolTableRecord
100
AcDbLayerTableRecord
  2
GR1
 70
     0
 62
     7
  6
CONTINUOUS
  0
LAYER
  5
172
330
2
100
AcDbSymbolTableRecord
100
AcDbLayerTableRecord
  2
基準ﾚｲﾔｸ_ﾙ_ﾌ_
 70
     0
 62
     7
  6
CONTINUOUS
  0
ENDTAB
  0
TABLE
  2
STYLE
  5
3
330
0
100
AcDbSymbolTable
 70
     3
  0
STYLE
  5
11
330
3
100
AcDbSymbolTableRecord
100
AcDbTextStyleTableRecord
  2
STANDARD
 70
     0
 40
0.0
 41
1.0
 50
0.0
 71
     0
 42
2.5
  3
txt
  4

  0
STYLE
  5
46
330
3
100
AcDbSymbolTableRecord
100
AcDbTextStyleTableRecord
  2
FX_VECTOR
 70
     0
 40
0.0
 41
1.0
 50
0.0
 71
     0
 42
0.2
  3
MONOTXT.SHX
  4
BigFont.shx
1001
ACAD
1000

1071
    32770
  0
STYLE
  5
B2
330
3
100
AcDbSymbolTableRecord
100
AcDbTextStyleTableRecord
  2
DEFAULT
 70
     0
 40
0.0
 41
1.0
 50
0.0
 71
     0
 42
0.2
  3

  4

1001
ACAD
1000
ＭＳ ゴシック
1071
    32817
  0
ENDTAB
  0
TABLE
  2
VIEW
  5
6
330
0
100
AcDbSymbolTable
 70
     0
  0
ENDTAB
  0
TABLE
  2
UCS
  5
7
330
0
100
AcDbSymbolTable
 70
     0
  0
ENDTAB
  0
TABLE
  2
APPID
  5
9
330
0
100
AcDbSymbolTable
 70
     1
  0
APPID
  5
12
330
9
100
AcDbSymbolTableRecord
100
AcDbRegAppTableRecord
  2
ACAD
 70
     0
  0
ENDTAB
  0
TABLE
  2
DIMSTYLE
  5
A
330
0
100
AcDbSymbolTable
 70
     2
  0
DIMSTYLE
105
27
330
A
100
AcDbSymbolTableRecord
100
AcDbDimStyleTableRecord
  2
ISO-25
 70
     0
  3

  4

  5

  6

  7

 40
1.0
 41
2.5
 42
0.625
 43
3.75
 44
1.25
 45
0.0
 46
0.0
 47
0.0
 48
0.0
140
2.5
141
2.5
142
0.0
143
0.03937007874016
144
1.0
145
0.0
146
1.0
147
0.625
 71
     0
 72
     0
 73
     0
 74
     0
 75
     0
 76
     0
 77
     1
 78
     8
170
     0
171
     3
172
     1
173
     0
174
     0
175
     0
176
     0
177
     0
178
     0
270
     2
271
     2
272
     2
273
     2
274
     3
340
11
275
     0
280
     0
281
     0
282
     0
283
     0
284
     8
285
     0
286
     0
287
     3
288
     0
  0
DIMSTYLE
105
B0
330
A
100
AcDbSymbolTableRecord
100
AcDbDimStyleTableRecord
  2
FX_DIMINFO
 70
     0
  3

  4

  5

  6
FXTIP_ARROW_S
  7
FXTIP_ARROW_E
 40
1.0
 41
4.0
 42
1.0
 43
10.0
 44
1.0
 45
0.0
 46
6.0
 47
0.0
 48
0.0
140
4.0
141
2.5
142
0.0
143
0.03937
144
1.0
145
0.0
146
1.0
147
1.0
 71
     0
 72
     0
 73
     0
 74
     0
 75
     0
 76
     0
 77
     1
 78
     8
170
     0
171
     3
172
     1
173
     1
174
     0
175
     0
176
     7
177
     7
178
     7
179
     2
270
     2
271
     2
272
     2
273
     2
274
     3
340
46
275
     0
280
     0
281
     0
282
     0
283
     1
284
     8
285
     0
286
     0
287
     3
288
     0
  0
ENDTAB
  0
TABLE
  2
BLOCK_RECORD
  5
1
330
0
100
AcDbSymbolTable
 70
    27
  0
BLOCK_RECORD
  5
1F
330
1
100
AcDbSymbolTableRecord
100
AcDbBlockTableRecord
  2
*MODEL_SPACE
  0
BLOCK_RECORD
  5
1B
330
1
100
AcDbSymbolTableRecord
100
AcDbBlockTableRecord
  2
*PAPER_SPACE
  0
BLOCK_RECORD
  5
47
330
1
100
AcDbSymbolTableRecord
100
AcDbBlockTableRecord
  2
FXTIP_NONE
  0
BLOCK_RECORD
  5
4A
330
1
100
AcDbSymbolTableRecord
100
AcDbBlockTableRecord
  2
FXTIP_ARROW_S
  0
BLOCK_RECORD
  5
50
330
1
100
AcDbSymbolTableRecord
100
AcDbBlockTableRecord
  2
FXTIP_ARROW_E
  0
BLOCK_RECORD
  5
56
330
1
100
AcDbSymbolTableRecord
100
AcDbBlockTableRecord
  2
FXTIP_BLACKDOT_S
  0
BLOCK_RECORD
  5
5C
330
1
100
AcDbSymbolTableRecord
100
AcDbBlockTableRecord
  2
FXTIP_BLACKDOT_E
  0
BLOCK_RECORD
  5
62
330
1
100
AcDbSymbolTableRecord
100
AcDbBlockTableRecord
  2
FXTIP_TRIANGLE_S
  0
BLOCK_RECORD
  5
69
330
1
100
AcDbSymbolTableRecord
100
AcDbBlockTableRecord
  2
FXTIP_TRIANGLE_E
  0
BLOCK_RECORD
  5
70
330
1
100
AcDbSymbolTableRecord
100
AcDbBlockTableRecord
  2
FXTIP_ARCHITECT_S
  0
BLOCK_RECORD
  5
76
330
1
100
AcDbSymbolTableRecord
100
AcDbBlockTableRecord
  2
FXTIP_ARCHITECT_E
  0
BLOCK_RECORD
  5
7C
330
1
100
AcDbSymbolTableRecord
100
AcDbBlockTableRecord
  2
FXTIP_CIVIL_S
  0
BLOCK_RECORD
  5
82
330
1
100
AcDbSymbolTableRecord
100
AcDbBlockTableRecord
  2
FXTIP_CIVIL_E
  0
BLOCK_RECORD
  5
88
330
1
100
AcDbSymbolTableRecord
100
AcDbBlockTableRecord
  2
FXTIP_WHITEDOT_S
  0
BLOCK_RECORD
  5
8D
330
1
100
AcDbSymbolTableRecord
100
AcDbBlockTableRecord
  2
FXTIP_WHITEDOT_E
  0
BLOCK_RECORD
  5
92
330
1
100
AcDbSymbolTableRecord
100
AcDbBlockTableRecord
  2
FXTIP_UPARROW_S
  0
BLOCK_RECORD
  5
97
330
1
100
AcDbSymbolTableRecord
100
AcDbBlockTableRecord
  2
FXTIP_UPARROW_E
  0
BLOCK_RECORD
  5
9C
330
1
100
AcDbSymbolTableRecord
100
AcDbBlockTableRecord
  2
FXTIP_DOWNARROW_S
  0
BLOCK_RECORD
  5
A1
330
1
100
AcDbSymbolTableRecord
100
AcDbBlockTableRecord
  2
FXTIP_DOWNARROW_E
  0
BLOCK_RECORD
  5
A6
330
1
100
AcDbSymbolTableRecord
100
AcDbBlockTableRecord
  2
FXTIP_BLACKTRIANGLE_S
  0
BLOCK_RECORD
  5
AB
330
1
100
AcDbSymbolTableRecord
100
AcDbBlockTableRecord
  2
FXTIP_BLACKTRIANGLE_E
  0
BLOCK_RECORD
  5
B3
330
1
100
AcDbSymbolTableRecord
100
AcDbBlockTableRecord
  2
BLKF023
  0
BLOCK_RECORD
  5
C0
330
1
100
AcDbSymbolTableRecord
100
AcDbBlockTableRecord
  2
BLKF024
  0
BLOCK_RECORD
  5
C8
330
1
100
AcDbSymbolTableRecord
100
AcDbBlockTableRecord
  2
BLKF025
  0
BLOCK_RECORD
  5
1FF
330
1
100
AcDbSymbolTableRecord
100
AcDbBlockTableRecord
  2
BLKF026
  0
BLOCK_RECORD
  5
225
330
1
100
AcDbSymbolTableRecord
100
AcDbBlockTableRecord
  2
BLKF027
  0
BLOCK_RECORD
  5
343
330
1
100
AcDbSymbolTableRecord
100
AcDbBlockTableRecord
  2
BLKF028
  0
BLOCK_RECORD
  5
399
330
1
100
AcDbSymbolTableRecord
100
AcDbBlockTableRecord
  2
BLKF029
  0
ENDTAB
  0
ENDSEC
  0
SECTION
  2
BLOCKS
  0
BLOCK
  5
20
330
1F
100
AcDbEntity
  8
0
100
AcDbBlockBegin
  2
*MODEL_SPACE
 70
     0
 10
0.0
 20
0.0
 30
0.0
  3
*MODEL_SPACE
  1

  0
ENDBLK
  5
21
330
1F
100
AcDbEntity
  8
0
100
AcDbBlockEnd
  0
BLOCK
  5
1C
330
1B
100
AcDbEntity
 67
     1
  8
0
100
AcDbBlockBegin
  2
*PAPER_SPACE
 70
     0
 10
0.0
 20
0.0
 30
0.0
  3
*PAPER_SPACE
  1

  0
ENDBLK
  5
1D
330
1B
100
AcDbEntity
 67
     1
  8
0
100
AcDbBlockEnd
  0
BLOCK
  5
48
330
47
100
AcDbEntity
  8
0
100
AcDbBlockBegin
  2
FXTIP_NONE
 70
     0
 10
0.0
 20
0.0
 30
0.0
  3
FXTIP_NONE
  1

  0
ENDBLK
  5
49
330
47
100
AcDbEntity
  8
0
100
AcDbBlockEnd
  0
BLOCK
  5
4B
330
4A
100
AcDbEntity
  8
0
100
AcDbBlockBegin
  2
FXTIP_ARROW_S
 70
     0
 10
0.0
 20
0.0
 30
0.0
  3
FXTIP_ARROW_S
  1

  0
LINE
  5
4D
330
4A
100
AcDbEntity
  8
0
  6
CONTINUOUS
 62
     0
100
AcDbLine
 10
0.0
 20
0.0
 30
0.0
 11
-1.0
 21
0.0000000000000001
 31
0.0
  0
LINE
  5
4E
330
4A
100
AcDbEntity
  8
0
  6
CONTINUOUS
 62
     0
100
AcDbLine
 10
0.0
 20
0.0
 30
0.0
 11
-0.9659258262890683
 21
-0.2588190451025206
 31
0.0
  0
LINE
  5
4F
330
4A
100
AcDbEntity
  8
0
  6
CONTINUOUS
 62
     0
100
AcDbLine
 10
0.0
 20
0.0
 30
0.0
 11
-0.9659258262890683
 21
0.2588190451025209
 31
0.0
  0
ENDBLK
  5
4C
330
4A
100
AcDbEntity
  8
0
100
AcDbBlockEnd
  0
BLOCK
  5
51
330
50
100
AcDbEntity
  8
0
100
AcDbBlockBegin
  2
FXTIP_ARROW_E
 70
     0
 10
0.0
 20
0.0
 30
0.0
  3
FXTIP_ARROW_E
  1

  0
LINE
  5
53
330
50
100
AcDbEntity
  8
0
  6
CONTINUOUS
 62
     0
100
AcDbLine
 10
0.0
 20
0.0
 30
0.0
 11
-1.0
 21
0.0
 31
0.0
  0
LINE
  5
54
330
50
100
AcDbEntity
  8
0
  6
CONTINUOUS
 62
     0
100
AcDbLine
 10
0.0
 20
0.0
 30
0.0
 11
-0.9659258262890683
 21
0.2588190451025207
 31
0.0
  0
LINE
  5
55
330
50
100
AcDbEntity
  8
0
  6
CONTINUOUS
 62
     0
100
AcDbLine
 10
0.0
 20
0.0
 30
0.0
 11
-0.9659258262890683
 21
-0.2588190451025207
 31
0.0
  0
ENDBLK
  5
52
330
50
100
AcDbEntity
  8
0
100
AcDbBlockEnd
  0
BLOCK
  5
57
330
56
100
AcDbEntity
  8
0
100
AcDbBlockBegin
  2
FXTIP_BLACKDOT_S
 70
     0
 10
0.0
 20
0.0
 30
0.0
  3
FXTIP_BLACKDOT_S
  1

  0
LINE
  5
59
330
56
100
AcDbEntity
  8
0
  6
CONTINUOUS
 62
     0
100
AcDbLine
 10
0.0
 20
0.0
 30
0.0
 11
-1.0
 21
0.0000000000000001
 31
0.0
  0
LWPOLYLINE
  5
5A
330
56
100
AcDbEntity
  8
0
  6
CONTINUOUS
 62
     0
100
AcDbPolyline
 90
        2
 70
     1
 10
-0.125
 20
0.0
 40
0.25
 41
0.25
 42
1.0
 10
0.125
 20
0.0
 40
0.25
 41
0.25
 42
1.0
  0
CIRCLE
  5
5B
330
56
100
AcDbEntity
  8
0
  6
CONTINUOUS
 62
     0
100
AcDbCircle
 10
0.0
 20
0.0
 30
0.0
 40
0.25
  0
ENDBLK
  5
58
330
56
100
AcDbEntity
  8
0
100
AcDbBlockEnd
  0
BLOCK
  5
5D
330
5C
100
AcDbEntity
  8
0
100
AcDbBlockBegin
  2
FXTIP_BLACKDOT_E
 70
     0
 10
0.0
 20
0.0
 30
0.0
  3
FXTIP_BLACKDOT_E
  1

  0
LINE
  5
5F
330
5C
100
AcDbEntity
  8
0
  6
CONTINUOUS
 62
     0
100
AcDbLine
 10
0.0
 20
0.0
 30
0.0
 11
-1.0
 21
0.0
 31
0.0
  0
LWPOLYLINE
  5
60
330
5C
100
AcDbEntity
  8
0
  6
CONTINUOUS
 62
     0
100
AcDbPolyline
 90
        2
 70
     1
 10
-0.125
 20
0.0
 40
0.25
 41
0.25
 42
1.0
 10
0.125
 20
0.0
 40
0.25
 41
0.25
 42
1.0
  0
CIRCLE
  5
61
330
5C
100
AcDbEntity
  8
0
  6
CONTINUOUS
 62
     0
100
AcDbCircle
 10
0.0
 20
0.0
 30
0.0
 40
0.25
  0
ENDBLK
  5
5E
330
5C
100
AcDbEntity
  8
0
100
AcDbBlockEnd
  0
BLOCK
  5
63
330
62
100
AcDbEntity
  8
0
100
AcDbBlockBegin
  2
FXTIP_TRIANGLE_S
 70
     0
 10
0.0
 20
0.0
 30
0.0
  3
FXTIP_TRIANGLE_S
  1

  0
LINE
  5
65
330
62
100
AcDbEntity
  8
0
  6
CONTINUOUS
 62
     0
100
AcDbLine
 10
0.0
 20
0.0
 30
0.0
 11
-1.0
 21
0.0000000000000001
 31
0.0
  0
LINE
  5
66
330
62
100
AcDbEntity
  8
0
  6
CONTINUOUS
 62
     0
100
AcDbLine
 10
0.0
 20
0.0
 30
0.0
 11
-0.9659258262890683
 21
-0.2588190451025206
 31
0.0
  0
LINE
  5
67
330
62
100
AcDbEntity
  8
0
  6
CONTINUOUS
 62
     0
100
AcDbLine
 10
0.0
 20
0.0
 30
0.0
 11
-0.9659258262890683
 21
0.2588190451025209
 31
0.0
  0
LINE
  5
68
330
62
100
AcDbEntity
  8
0
  6
CONTINUOUS
 62
     0
100
AcDbLine
 10
-0.9659258262890683
 20
-0.2588190451025206
 30
0.0
 11
-0.9659258262890683
 21
0.2588190451025209
 31
0.0
  0
ENDBLK
  5
64
330
62
100
AcDbEntity
  8
0
100
AcDbBlockEnd
  0
BLOCK
  5
6A
330
69
100
AcDbEntity
  8
0
100
AcDbBlockBegin
  2
FXTIP_TRIANGLE_E
 70
     0
 10
0.0
 20
0.0
 30
0.0
  3
FXTIP_TRIANGLE_E
  1

  0
LINE
  5
6C
330
69
100
AcDbEntity
  8
0
  6
CONTINUOUS
 62
     0
100
AcDbLine
 10
0.0
 20
0.0
 30
0.0
 11
-1.0
 21
0.0
 31
0.0
  0
LINE
  5
6D
330
69
100
AcDbEntity
  8
0
  6
CONTINUOUS
 62
     0
100
AcDbLine
 10
0.0
 20
0.0
 30
0.0
 11
-0.9659258262890683
 21
0.2588190451025207
 31
0.0
  0
LINE
  5
6E
330
69
100
AcDbEntity
  8
0
  6
CONTINUOUS
 62
     0
100
AcDbLine
 10
0.0
 20
0.0
 30
0.0
 11
-0.9659258262890683
 21
-0.2588190451025207
 31
0.0
  0
LINE
  5
6F
330
69
100
AcDbEntity
  8
0
  6
CONTINUOUS
 62
     0
100
AcDbLine
 10
-0.9659258262890683
 20
0.2588190451025207
 30
0.0
 11
-0.9659258262890683
 21
-0.2588190451025207
 31
0.0
  0
ENDBLK
  5
6B
330
69
100
AcDbEntity
  8
0
100
AcDbBlockEnd
  0
BLOCK
  5
71
330
70
100
AcDbEntity
  8
0
100
AcDbBlockBegin
  2
FXTIP_ARCHITECT_S
 70
     0
 10
0.0
 20
0.0
 30
0.0
  3
FXTIP_ARCHITECT_S
  1

  0
LINE
  5
73
330
70
100
AcDbEntity
  8
0
  6
CONTINUOUS
 62
     0
100
AcDbLine
 10
0.0
 20
0.0
 30
0.0
 11
-1.0
 21
0.0000000000000001
 31
0.0
  0
LINE
  5
74
330
70
100
AcDbEntity
  8
0
  6
CONTINUOUS
 62
     0
100
AcDbLine
 10
0.0
 20
0.0
 30
0.0
 11
-0.7071067811865476
 21
-0.7071067811865474
 31
0.0
  0
LINE
  5
75
330
70
100
AcDbEntity
  8
0
  6
CONTINUOUS
 62
     0
100
AcDbLine
 10
0.0
 20
0.0
 30
0.0
 11
0.7071067811865476
 21
0.7071067811865474
 31
0.0
  0
ENDBLK
  5
72
330
70
100
AcDbEntity
  8
0
100
AcDbBlockEnd
  0
BLOCK
  5
77
330
76
100
AcDbEntity
  8
0
100
AcDbBlockBegin
  2
FXTIP_ARCHITECT_E
 70
     0
 10
0.0
 20
0.0
 30
0.0
  3
FXTIP_ARCHITECT_E
  1

  0
LINE
  5
79
330
76
100
AcDbEntity
  8
0
  6
CONTINUOUS
 62
     0
100
AcDbLine
 10
0.0
 20
0.0
 30
0.0
 11
-1.0
 21
0.0
 31
0.0
  0
LINE
  5
7A
330
76
100
AcDbEntity
  8
0
  6
CONTINUOUS
 62
     0
100
AcDbLine
 10
0.0
 20
0.0
 30
0.0
 11
0.7071067811865475
 21
0.7071067811865475
 31
0.0
  0
LINE
  5
7B
330
76
100
AcDbEntity
  8
0
  6
CONTINUOUS
 62
     0
100
AcDbLine
 10
0.0
 20
0.0
 30
0.0
 11
-0.7071067811865475
 21
-0.7071067811865475
 31
0.0
  0
ENDBLK
  5
78
330
76
100
AcDbEntity
  8
0
100
AcDbBlockEnd
  0
BLOCK
  5
7D
330
7C
100
AcDbEntity
  8
0
100
AcDbBlockBegin
  2
FXTIP_CIVIL_S
 70
     0
 10
0.0
 20
0.0
 30
0.0
  3
FXTIP_CIVIL_S
  1

  0
LINE
  5
7F
330
7C
100
AcDbEntity
  8
0
  6
CONTINUOUS
 62
     0
100
AcDbLine
 10
0.0
 20
0.0
 30
0.0
 11
-1.0
 21
0.0000000000000001
 31
0.0
  0
LINE
  5
80
330
7C
100
AcDbEntity
  8
0
  6
CONTINUOUS
 62
     0
100
AcDbLine
 10
0.0
 20
-0.0625
 30
0.0
 11
-1.0
 21
-0.0624999999999999
 31
0.0
  0
LINE
  5
81
330
7C
100
AcDbEntity
  8
0
  6
CONTINUOUS
 62
     0
100
AcDbLine
 10
0.0
 20
-0.125
 30
0.0
 11
-1.0
 21
-0.1249999999999999
 31
0.0
  0
ENDBLK
  5
7E
330
7C
100
AcDbEntity
  8
0
100
AcDbBlockEnd
  0
BLOCK
  5
83
330
82
100
AcDbEntity
  8
0
100
AcDbBlockBegin
  2
FXTIP_CIVIL_E
 70
     0
 10
0.0
 20
0.0
 30
0.0
  3
FXTIP_CIVIL_E
  1

  0
LINE
  5
85
330
82
100
AcDbEntity
  8
0
  6
CONTINUOUS
 62
     0
100
AcDbLine
 10
0.0
 20
0.0
 30
0.0
 11
-1.0
 21
0.0
 31
0.0
  0
LINE
  5
86
330
82
100
AcDbEntity
  8
0
  6
CONTINUOUS
 62
     0
100
AcDbLine
 10
0.0
 20
0.0625
 30
0.0
 11
-1.0
 21
0.0625
 31
0.0
  0
LINE
  5
87
330
82
100
AcDbEntity
  8
0
  6
CONTINUOUS
 62
     0
100
AcDbLine
 10
0.0
 20
0.125
 30
0.0
 11
-1.0
 21
0.125
 31
0.0
  0
ENDBLK
  5
84
330
82
100
AcDbEntity
  8
0
100
AcDbBlockEnd
  0
BLOCK
  5
89
330
88
100
AcDbEntity
  8
0
100
AcDbBlockBegin
  2
FXTIP_WHITEDOT_S
 70
     0
 10
0.0
 20
0.0
 30
0.0
  3
FXTIP_WHITEDOT_S
  1

  0
LINE
  5
8B
330
88
100
AcDbEntity
  8
0
  6
CONTINUOUS
 62
     0
100
AcDbLine
 10
0.0
 20
0.0
 30
0.0
 11
-1.0
 21
0.0000000000000001
 31
0.0
  0
CIRCLE
  5
8C
330
88
100
AcDbEntity
  8
0
  6
CONTINUOUS
 62
     0
100
AcDbCircle
 10
0.0
 20
0.0
 30
0.0
 40
0.25
  0
ENDBLK
  5
8A
330
88
100
AcDbEntity
  8
0
100
AcDbBlockEnd
  0
BLOCK
  5
8E
330
8D
100
AcDbEntity
  8
0
100
AcDbBlockBegin
  2
FXTIP_WHITEDOT_E
 70
     0
 10
0.0
 20
0.0
 30
0.0
  3
FXTIP_WHITEDOT_E
  1

  0
LINE
  5
90
330
8D
100
AcDbEntity
  8
0
  6
CONTINUOUS
 62
     0
100
AcDbLine
 10
0.0
 20
0.0
 30
0.0
 11
-1.0
 21
0.0
 31
0.0
  0
CIRCLE
  5
91
330
8D
100
AcDbEntity
  8
0
  6
CONTINUOUS
 62
     0
100
AcDbCircle
 10
0.0
 20
0.0
 30
0.0
 40
0.25
  0
ENDBLK
  5
8F
330
8D
100
AcDbEntity
  8
0
100
AcDbBlockEnd
  0
BLOCK
  5
93
330
92
100
AcDbEntity
  8
0
100
AcDbBlockBegin
  2
FXTIP_UPARROW_S
 70
     0
 10
0.0
 20
0.0
 30
0.0
  3
FXTIP_UPARROW_S
  1

  0
LINE
  5
95
330
92
100
AcDbEntity
  8
0
  6
CONTINUOUS
 62
     0
100
AcDbLine
 10
0.0
 20
0.0
 30
0.0
 11
-1.0
 21
0.0000000000000001
 31
0.0
  0
LINE
  5
96
330
92
100
AcDbEntity
  8
0
  6
CONTINUOUS
 62
     0
100
AcDbLine
 10
0.0
 20
0.0
 30
0.0
 11
-0.9659258262890683
 21
-0.2588190451025206
 31
0.0
  0
ENDBLK
  5
94
330
92
100
AcDbEntity
  8
0
100
AcDbBlockEnd
  0
BLOCK
  5
98
330
97
100
AcDbEntity
  8
0
100
AcDbBlockBegin
  2
FXTIP_UPARROW_E
 70
     0
 10
0.0
 20
0.0
 30
0.0
  3
FXTIP_UPARROW_E
  1

  0
LINE
  5
9A
330
97
100
AcDbEntity
  8
0
  6
CONTINUOUS
 62
     0
100
AcDbLine
 10
0.0
 20
0.0
 30
0.0
 11
-1.0
 21
0.0
 31
0.0
  0
LINE
  5
9B
330
97
100
AcDbEntity
  8
0
  6
CONTINUOUS
 62
     0
100
AcDbLine
 10
0.0
 20
0.0
 30
0.0
 11
-0.9659258262890683
 21
0.2588190451025207
 31
0.0
  0
ENDBLK
  5
99
330
97
100
AcDbEntity
  8
0
100
AcDbBlockEnd
  0
BLOCK
  5
9D
330
9C
100
AcDbEntity
  8
0
100
AcDbBlockBegin
  2
FXTIP_DOWNARROW_S
 70
     0
 10
0.0
 20
0.0
 30
0.0
  3
FXTIP_DOWNARROW_S
  1

  0
LINE
  5
9F
330
9C
100
AcDbEntity
  8
0
  6
CONTINUOUS
 62
     0
100
AcDbLine
 10
0.0
 20
0.0
 30
0.0
 11
-1.0
 21
0.0000000000000001
 31
0.0
  0
LINE
  5
A0
330
9C
100
AcDbEntity
  8
0
  6
CONTINUOUS
 62
     0
100
AcDbLine
 10
0.0
 20
0.0
 30
0.0
 11
-0.9659258262890683
 21
0.2588190451025209
 31
0.0
  0
ENDBLK
  5
9E
330
9C
100
AcDbEntity
  8
0
100
AcDbBlockEnd
  0
BLOCK
  5
A2
330
A1
100
AcDbEntity
  8
0
100
AcDbBlockBegin
  2
FXTIP_DOWNARROW_E
 70
     0
 10
0.0
 20
0.0
 30
0.0
  3
FXTIP_DOWNARROW_E
  1

  0
LINE
  5
A4
330
A1
100
AcDbEntity
  8
0
  6
CONTINUOUS
 62
     0
100
AcDbLine
 10
0.0
 20
0.0
 30
0.0
 11
-1.0
 21
0.0
 31
0.0
  0
LINE
  5
A5
330
A1
100
AcDbEntity
  8
0
  6
CONTINUOUS
 62
     0
100
AcDbLine
 10
0.0
 20
0.0
 30
0.0
 11
-0.9659258262890683
 21
-0.2588190451025207
 31
0.0
  0
ENDBLK
  5
A3
330
A1
100
AcDbEntity
  8
0
100
AcDbBlockEnd
  0
BLOCK
  5
A7
330
A6
100
AcDbEntity
  8
0
100
AcDbBlockBegin
  2
FXTIP_BLACKTRIANGLE_S
 70
     0
 10
0.0
 20
0.0
 30
0.0
  3
FXTIP_BLACKTRIANGLE_S
  1

  0
LINE
  5
A9
330
A6
100
AcDbEntity
  8
0
  6
CONTINUOUS
 62
     0
100
AcDbLine
 10
0.0
 20
0.0
 30
0.0
 11
-1.0
 21
0.0000000000000001
 31
0.0
  0
SOLID
  5
AA
330
A6
100
AcDbEntity
  8
0
  6
CONTINUOUS
 62
     0
100
AcDbTrace
 10
0.0
 20
0.0
 30
0.0
 11
-0.9659258262890683
 21
-0.2588190451025206
 31
0.0
 12
-0.9659258262890683
 22
0.2588190451025209
 32
0.0
 13
-0.9659258262890683
 23
0.2588190451025209
 33
0.0
  0
ENDBLK
  5
A8
330
A6
100
AcDbEntity
  8
0
100
AcDbBlockEnd
  0
BLOCK
  5
AC
330
AB
100
AcDbEntity
  8
0
100
AcDbBlockBegin
  2
FXTIP_BLACKTRIANGLE_E
 70
     0
 10
0.0
 20
0.0
 30
0.0
  3
FXTIP_BLACKTRIANGLE_E
  1

  0
LINE
  5
AE
330
AB
100
AcDbEntity
  8
0
  6
CONTINUOUS
 62
     0
100
AcDbLine
 10
0.0
 20
0.0
 30
0.0
 11
-1.0
 21
0.0
 31
0.0
  0
SOLID
  5
AF
330
AB
100
AcDbEntity
  8
0
  6
CONTINUOUS
 62
     0
100
AcDbTrace
 10
0.0
 20
0.0
 30
0.0
 11
-0.9659258262890683
 21
0.2588190451025207
 31
0.0
 12
-0.9659258262890683
 22
-0.2588190451025207
 32
0.0
 13
-0.9659258262890683
 23
-0.2588190451025207
 33
0.0
  0
ENDBLK
  5
AD
330
AB
100
AcDbEntity
  8
0
100
AcDbBlockEnd
  0
BLOCK
  5
B4
330
B3
100
AcDbEntity
  8
0
100
AcDbBlockBegin
  2
BLKF023
 70
     0
 10
0.0
 20
0.0
 30
0.0
  3
BLKF023
  1

  0
LINE
  5
B8
330
B3
100
AcDbEntity
  8
図面枠ﾚｲﾔ
  6
CONTINUOUS
 62
     7
100
AcDbLine
 10
20.0
 20
20.0
 30
0.0
 11
821.0
 21
20.0
 31
0.0
  0
LINE
  5
B9
330
B3
100
AcDbEntity
  8
図面枠ﾚｲﾔ
  6
CONTINUOUS
 62
     7
100
AcDbLine
 10
20.0
 20
20.0
 30
0.0
 11
20.0
 21
574.0
 31
0.0
  0
LINE
  5
BA
330
B3
100
AcDbEntity
  8
図面枠ﾚｲﾔ
  6
CONTINUOUS
 62
     7
100
AcDbLine
 10
20.0
 20
574.0
 30
0.0
 11
821.0
 21
574.0
 31
0.0
  0
LINE
  5
BB
330
B3
100
AcDbEntity
  8
図面枠ﾚｲﾔ
  6
CONTINUOUS
 62
     7
100
AcDbLine
 10
821.0
 20
574.0
 30
0.0
 11
821.0
 21
20.0
 31
0.0
  0
LINE
  5
BC
330
B3
100
AcDbEntity
  8
図面枠ﾚｲﾔ
  6
CONTINUOUS
 62
     7
100
AcDbLine
 10
564.0
 20
20.0
 30
0.0
 11
564.0
 21
30.0
 31
0.0
  0
TEXT
  5
BD
330
B3
100
AcDbEntity
  8
図面枠ﾚｲﾔ
  6
CONTINUOUS
 62
     7
100
AcDbText
 10
548.7388305664062
 20
21.59687805175781
 30
0.0
 40
6.648748874664307
  1
品名
 41
1.083413404130886
  7
FX_VECTOR
 72
     5
 11
560.05837059021
 21
21.59687805175781
 31
0.0
100
AcDbText
  0
LINE
  5
BE
330
B3
100
AcDbEntity
  8
図面枠ﾚｲﾔ
  6
CONTINUOUS
 62
     7
100
AcDbLine
 10
644.0
 20
30.0
 30
0.0
 11
644.0
 21
20.0
 31
0.0
  0
LINE
  5
BF
330
B3
100
AcDbEntity
  8
図面枠ﾚｲﾔ
  6
CONTINUOUS
 62
     7
100
AcDbLine
 10
544.0
 20
30.0
 30
0.0
 11
821.0
 21
30.0
 31
0.0
  0
INSERT
  5
C3
330
B3
100
AcDbEntity
  8
0
  6
CONTINUOUS
 62
     7
100
AcDbBlockReference
  2
BLKF024
 10
0.0
 20
0.0
 30
0.0
  0
INSERT
  5
CB
330
B3
100
AcDbEntity
  8
0
  6
CONTINUOUS
 62
     7
100
AcDbBlockReference
  2
BLKF025
 10
0.0
 20
0.0
 30
0.0
  0
HATCH
  5
DC
330
B3
100
AcDbEntity
  8
GR1
  6
CONTINUOUS
 62
     7
100
AcDbHatch
 10
0.0
 20
0.0
 30
0.0
210
0.0
220
0.0
230
1.0
  2
_USER
 70
     0
 71
     0
 91
        2
 92
        0
 93
        4
 72
     1
 10
749.8018997861325
 20
27.91346152
 11
755.8018997861325
 21
27.91346152
 72
     1
 10
755.8018997861325
 20
27.91346152
 11
755.8018997861325
 21
21.91346152
 72
     1
 10
755.8018997861325
 20
21.91346152
 11
749.8018997861325
 21
21.91346152
 72
     1
 10
749.8018997861325
 20
21.91346152
 11
749.8018997861325
 21
27.91346152
 97
        0
 92
        0
 93
       15
 72
     1
 10
752.8018997861325
 20
27.76923076000002
 11
749.9461305461325
 21
24.91346152
 72
     1
 10
749.9461305461325
 20
24.91346152
 11
752.8018997861325
 21
22.05769228000001
 72
     1
 10
752.8018997861325
 20
22.05769228000001
 11
754.3595920661326
 21
23.61538462
 72
     1
 10
754.3595920661326
 20
23.61538462
 11
754.3595920661326
 21
22.98076924
 72
     1
 10
754.3595920661326
 20
22.98076924
 11
755.2249766861325
 21
22.98076924
 72
     1
 10
755.2249766861325
 20
22.98076924
 11
755.2249766861325
 21
25.00000000000001
 72
     1
 10
755.2249766861325
 20
25.00000000000001
 11
752.8018997861325
 21
25.00000000000001
 72
     1
 10
752.8018997861325
 20
25.00000000000001
 11
752.8018997861325
 21
24.13461538000001
 72
     1
 10
752.8018997861325
 20
24.13461538000001
 11
753.2461305461325
 21
24.13461538000001
 72
     1
 10
753.2461305461325
 20
24.13461538000001
 11
752.8018997861325
 21
23.69038462
 72
     1
 10
752.8018997861325
 20
23.69038462
 11
751.5788228861325
 21
24.91346152
 72
     1
 10
751.5788228861325
 20
24.91346152
 11
752.8018997861325
 21
26.13653842000003
 72
     1
 10
752.8018997861325
 20
26.13653842000003
 11
753.5922844061325
 21
25.3461538
 72
     1
 10
753.5922844061325
 20
25.3461538
 11
755.2249766861325
 21
25.3461538
 72
     1
 10
755.2249766861325
 20
25.3461538
 11
752.8018997861325
 21
27.76923076000002
 97
        0
 75
     0
 76
     0
 52
45.0
 41
0.05
 77
     0
 78
     1
 53
45.0
 43
0.0
 44
0.0
 45
-0.0353553390593274
 46
0.0353553390593274
 79
     0
 98
        0
  0
TEXT
  5
DD
330
B3
100
AcDbEntity
  8
図面枠ﾚｲﾔ
  6
CONTINUOUS
 62
     7
100
AcDbText
 10
760.2257690429688
 20
21.46128463745117
 30
0.0
 40
7.170907974243164
  1
ＧＯＬＤ　ＣＡＳＴＥＲ
 41
0.702117011671778
  7
FX_VECTOR
 72
     5
 11
806.9776363372803
 21
21.46128463745117
 31
0.0
100
AcDbText
  0
LINE
  5
DE
330
B3
100
AcDbEntity
  8
図面枠ﾚｲﾔ
  6
CONTINUOUS
 62
     7
100
AcDbLine
 10
664.0
 20
20.0
 30
0.0
 11
664.0
 21
30.0
 31
0.0
  0
TEXT
  5
DF
330
B3
100
AcDbEntity
  8
図面枠ﾚｲﾔ
  6
CONTINUOUS
 62
     7
100
AcDbText
 10
648.7388305664062
 20
21.59687805175781
 30
0.0
 40
6.648748874664307
  1
図番
 41
1.083413404130886
  7
FX_VECTOR
 72
     5
 11
660.05837059021
 21
21.59687805175781
 31
0.0
100
AcDbText
  0
LINE
  5
E0
330
B3
100
AcDbEntity
  8
図面枠ﾚｲﾔ
  6
CONTINUOUS
 62
     7
100
AcDbLine
 10
744.0
 20
30.0
 30
0.0
 11
744.0
 21
20.0
 31
0.0
  0
LINE
  5
E1
330
B3
100
AcDbEntity
  8
図面枠ﾚｲﾔ
  6
CONTINUOUS
 62
     7
100
AcDbLine
 10
544.0
 20
30.0
 30
0.0
 11
544.0
 21
20.0
 31
0.0
  0
ENDBLK
  5
B5
330
B3
100
AcDbEntity
  8
0
100
AcDbBlockEnd
  0
BLOCK
  5
C1
330
C0
100
AcDbEntity
  8
0
100
AcDbBlockBegin
  2
BLKF024
 70
     0
 10
0.0
 20
0.0
 30
0.0
  3
BLKF024
  1

  0
LINE
  5
C4
330
C0
100
AcDbEntity
  8
0
  6
CONTINUOUS
 62
     7
100
AcDbLine
 10
755.8018997861325
 20
27.91346152
 30
0.0
 11
749.8018997861325
 21
27.91346152
 31
0.0
  0
LINE
  5
C5
330
C0
100
AcDbEntity
  8
0
  6
CONTINUOUS
 62
     7
100
AcDbLine
 10
749.8018997861325
 20
27.91346152
 30
0.0
 11
749.8018997861325
 21
21.91346152
 31
0.0
  0
LINE
  5
C6
330
C0
100
AcDbEntity
  8
0
  6
CONTINUOUS
 62
     7
100
AcDbLine
 10
749.8018997861325
 20
21.91346152
 30
0.0
 11
755.8018997861325
 21
21.91346152
 31
0.0
  0
LINE
  5
C7
330
C0
100
AcDbEntity
  8
0
  6
CONTINUOUS
 62
     7
100
AcDbLine
 10
755.8018997861325
 20
21.91346152
 30
0.0
 11
755.8018997861325
 21
27.91346152
 31
0.0
  0
ENDBLK
  5
C2
330
C0
100
AcDbEntity
  8
0
100
AcDbBlockEnd
  0
BLOCK
  5
C9
330
C8
100
AcDbEntity
  8
0
100
AcDbBlockBegin
  2
BLKF025
 70
     0
 10
0.0
 20
0.0
 30
0.0
  3
BLKF025
  1

  0
LINE
  5
CC
330
C8
100
AcDbEntity
  8
0
  6
CONTINUOUS
 62
     7
100
AcDbLine
 10
755.2249766861325
 20
25.3461538
 30
0.0
 11
752.8018997861325
 21
27.76923076000002
 31
0.0
  0
LINE
  5
CD
330
C8
100
AcDbEntity
  8
0
  6
CONTINUOUS
 62
     7
100
AcDbLine
 10
752.8018997861325
 20
27.76923076000002
 30
0.0
 11
749.9461305461325
 21
24.91346152
 31
0.0
  0
LINE
  5
CE
330
C8
100
AcDbEntity
  8
0
  6
CONTINUOUS
 62
     7
100
AcDbLine
 10
749.9461305461325
 20
24.91346152
 30
0.0
 11
752.8018997861325
 21
22.05769228000001
 31
0.0
  0
LINE
  5
CF
330
C8
100
AcDbEntity
  8
0
  6
CONTINUOUS
 62
     7
100
AcDbLine
 10
752.8018997861325
 20
22.05769228000001
 30
0.0
 11
754.3595920661326
 21
23.61538462
 31
0.0
  0
LINE
  5
D0
330
C8
100
AcDbEntity
  8
0
  6
CONTINUOUS
 62
     7
100
AcDbLine
 10
754.3595920661326
 20
23.61538462
 30
0.0
 11
754.3595920661326
 21
22.98076924
 31
0.0
  0
LINE
  5
D1
330
C8
100
AcDbEntity
  8
0
  6
CONTINUOUS
 62
     7
100
AcDbLine
 10
754.3595920661326
 20
22.98076924
 30
0.0
 11
755.2249766861325
 21
22.98076924
 31
0.0
  0
LINE
  5
D2
330
C8
100
AcDbEntity
  8
0
  6
CONTINUOUS
 62
     7
100
AcDbLine
 10
755.2249766861325
 20
22.98076924
 30
0.0
 11
755.2249766861325
 21
25.00000000000001
 31
0.0
  0
LINE
  5
D3
330
C8
100
AcDbEntity
  8
0
  6
CONTINUOUS
 62
     7
100
AcDbLine
 10
755.2249766861325
 20
25.00000000000001
 30
0.0
 11
752.8018997861325
 21
25.00000000000001
 31
0.0
  0
LINE
  5
D4
330
C8
100
AcDbEntity
  8
0
  6
CONTINUOUS
 62
     7
100
AcDbLine
 10
752.8018997861325
 20
25.00000000000001
 30
0.0
 11
752.8018997861325
 21
24.13461538000001
 31
0.0
  0
LINE
  5
D5
330
C8
100
AcDbEntity
  8
0
  6
CONTINUOUS
 62
     7
100
AcDbLine
 10
752.8018997861325
 20
24.13461538000001
 30
0.0
 11
753.2461305461325
 21
24.13461538000001
 31
0.0
  0
LINE
  5
D6
330
C8
100
AcDbEntity
  8
0
  6
CONTINUOUS
 62
     7
100
AcDbLine
 10
753.2461305461325
 20
24.13461538000001
 30
0.0
 11
752.8018997861325
 21
23.69038462
 31
0.0
  0
LINE
  5
D7
330
C8
100
AcDbEntity
  8
0
  6
CONTINUOUS
 62
     7
100
AcDbLine
 10
752.8018997861325
 20
23.69038462
 30
0.0
 11
751.5788228861325
 21
24.91346152
 31
0.0
  0
LINE
  5
D8
330
C8
100
AcDbEntity
  8
0
  6
CONTINUOUS
 62
     7
100
AcDbLine
 10
751.5788228861325
 20
24.91346152
 30
0.0
 11
752.8018997861325
 21
26.13653842000003
 31
0.0
  0
LINE
  5
D9
330
C8
100
AcDbEntity
  8
0
  6
CONTINUOUS
 62
     7
100
AcDbLine
 10
752.8018997861325
 20
26.13653842000003
 30
0.0
 11
753.5922844061325
 21
25.3461538
 31
0.0
  0
LINE
  5
DA
330
C8
100
AcDbEntity
  8
0
  6
CONTINUOUS
 62
     7
100
AcDbLine
 10
753.5922844061325
 20
25.3461538
 30
0.0
 11
755.2249766861325
 21
25.3461538
 31
0.0
  0
ENDBLK
  5
CA
330
C8
100
AcDbEntity
  8
0
100
AcDbBlockEnd
  0
BLOCK
  5
200
330
1FF
100
AcDbEntity
  8
0
100
AcDbBlockBegin
  2
BLKF026
 70
     0
 10
0.0
 20
0.0
 30
0.0
  3
BLKF026
  1

  0
LINE
  5
203
330
1FF
100
AcDbEntity
  8
GR1
  6
CONTINUOUS
 62
     6
100
AcDbLine
 10
459.1485005392421
 20
377.7561303343311
 30
0.0
 11
459.3836921194675
 21
377.5209387541057
 31
0.0
  0
LINE
  5
204
330
1FF
100
AcDbEntity
  8
GR1
  6
CONTINUOUS
 62
     6
100
AcDbLine
 10
459.03444971455
 20
382.8199286273291
 30
0.0
 11
459.3836921194675
 21
382.4706862224116
 31
0.0
  0
LINE
  5
205
330
1FF
100
AcDbEntity
  8
GR1
  6
CONTINUOUS
 62
     6
100
AcDbLine
 10
459.03444971455
 20
387.769676095635
 30
0.0
 11
459.3836921194675
 21
387.4204336907175
 31
0.0
  0
LINE
  5
206
330
1FF
100
AcDbEntity
  8
GR1
  6
CONTINUOUS
 62
     6
100
AcDbLine
 10
459.03444971455
 20
392.7194235639407
 30
0.0
 11
459.3836921194675
 21
392.3701811590232
 31
0.0
  0
LINE
  5
207
330
1FF
100
AcDbEntity
  8
GR1
  6
CONTINUOUS
 62
     6
100
AcDbLine
 10
459.0660931406795
 20
397.637527606117
 30
0.0
 11
459.3836921194675
 21
397.3199286273291
 31
0.0
  0
LINE
  5
208
330
1FF
100
AcDbEntity
  8
GR1
  6
CONTINUOUS
 62
     6
100
AcDbLine
 10
460.3426458394789
 20
401.3107223756235
 30
0.0
 11
461.8585658536204
 21
399.794802361482
 31
0.0
  0
LINE
  5
209
330
1FF
100
AcDbEntity
  8
GR1
  6
CONTINUOUS
 62
     6
100
AcDbLine
 10
462.5656726348069
 20
374.3389582387663
 30
0.0
 11
463.8701463581637
 21
373.0344845154095
 31
0.0
  0
LINE
  5
20A
330
1FF
100
AcDbEntity
  8
GR1
  6
CONTINUOUS
 62
     6
100
AcDbLine
 10
460.090798900654
 20
376.8138319729192
 30
0.0
 11
461.8585658536203
 21
375.0460650199528
 31
0.0
  0
LINE
  5
20B
330
1FF
100
AcDbEntity
  8
GR1
  6
CONTINUOUS
 62
     6
100
AcDbLine
 10
467.5154201031128
 20
374.3389582387663
 30
0.0
 11
468.0947895513193
 21
373.7595887905599
 31
0.0
  0
LINE
  5
20C
330
1FF
100
AcDbEntity
  8
GR1
  6
CONTINUOUS
 62
     6
100
AcDbLine
 10
465.03444971455
 20
376.8199286273291
 30
0.0
 11
466.8083133219263
 21
375.0460650199528
 31
0.0
  0
LINE
  5
20D
330
1FF
100
AcDbEntity
  8
GR1
  6
CONTINUOUS
 62
     6
100
AcDbLine
 10
462.5656726348069
 20
379.2887057070722
 30
0.0
 11
464.3334395877733
 21
377.5209387541058
 31
0.0
  0
LINE
  5
20E
330
1FF
100
AcDbEntity
  8
GR1
  6
CONTINUOUS
 62
     6
100
AcDbLine
 10
460.03444971455
 20
381.8199286273291
 30
0.0
 11
461.8585658536204
 21
379.9958124882587
 31
0.0
  0
LINE
  5
20F
330
1FF
100
AcDbEntity
  8
GR1
  6
CONTINUOUS
 62
     6
100
AcDbLine
 10
470.03444971455
 20
376.769676095635
 30
0.0
 11
470.4553760141584
 21
376.3487497960265
 31
0.0
  0
LINE
  5
210
330
1FF
100
AcDbEntity
  8
GR1
  6
CONTINUOUS
 62
     6
100
AcDbLine
 10
467.5154201031127
 20
379.2887057070722
 30
0.0
 11
469.2831870560791
 21
377.5209387541058
 31
0.0
  0
LINE
  5
211
330
1FF
100
AcDbEntity
  8
GR1
  6
CONTINUOUS
 62
     6
100
AcDbLine
 10
465.0405463689598
 20
381.763579441225
 30
0.0
 11
466.8083133219262
 21
379.9958124882587
 31
0.0
  0
LINE
  5
212
330
1FF
100
AcDbEntity
  8
GR1
  6
CONTINUOUS
 62
     6
100
AcDbLine
 10
462.565672634807
 20
384.2384531753779
 30
0.0
 11
464.3334395877733
 21
382.4706862224116
 31
0.0
  0
LINE
  5
213
330
1FF
100
AcDbEntity
  8
GR1
  6
CONTINUOUS
 62
     6
100
AcDbLine
 10
460.03444971455
 20
386.769676095635
 30
0.0
 11
461.8585658536203
 21
384.9455599565646
 31
0.0
  0
LINE
  5
214
330
1FF
100
AcDbEntity
  8
GR1
  6
CONTINUOUS
 62
     6
100
AcDbLine
 10
470.03444971455
 20
381.7194235639407
 30
0.0
 11
471.03444971455
 21
380.7194235639407
 31
0.0
  0
LINE
  5
215
330
1FF
100
AcDbEntity
  8
GR1
  6
CONTINUOUS
 62
     6
100
AcDbLine
 10
467.5154201031128
 20
384.2384531753779
 30
0.0
 11
469.2831870560791
 21
382.4706862224116
 31
0.0
  0
LINE
  5
216
330
1FF
100
AcDbEntity
  8
GR1
  6
CONTINUOUS
 62
     6
100
AcDbLine
 10
465.03444971455
 20
386.7194235639407
 30
0.0
 11
466.8083133219262
 21
384.9455599565646
 31
0.0
  0
LINE
  5
217
330
1FF
100
AcDbEntity
  8
GR1
  6
CONTINUOUS
 62
     6
100
AcDbLine
 10
462.5656726348069
 20
389.1882006436838
 30
0.0
 11
464.3334395877733
 21
387.4204336907175
 31
0.0
  0
LINE
  5
218
330
1FF
100
AcDbEntity
  8
GR1
  6
CONTINUOUS
 62
     6
100
AcDbLine
 10
460.03444971455
 20
391.7194235639407
 30
0.0
 11
461.8585658536204
 21
389.8953074248703
 31
0.0
  0
LINE
  5
219
330
1FF
100
AcDbEntity
  8
GR1
  6
CONTINUOUS
 62
     6
100
AcDbLine
 10
470.03444971455
 20
386.6691710322466
 30
0.0
 11
471.03444971455
 21
385.6691710322466
 31
0.0
  0
LINE
  5
21A
330
1FF
100
AcDbEntity
  8
GR1
  6
CONTINUOUS
 62
     6
100
AcDbLine
 10
467.5154201031127
 20
389.1882006436838
 30
0.0
 11
469.2831870560791
 21
387.4204336907175
 31
0.0
  0
LINE
  5
21B
330
1FF
100
AcDbEntity
  8
GR1
  6
CONTINUOUS
 62
     6
100
AcDbLine
 10
465.0344497145499
 20
391.6691710322466
 30
0.0
 11
466.8083133219262
 21
389.8953074248703
 31
0.0
  0
LINE
  5
21C
330
1FF
100
AcDbEntity
  8
GR1
  6
CONTINUOUS
 62
     6
100
AcDbLine
 10
462.5656726348069
 20
394.1379481119897
 30
0.0
 11
464.3334395877733
 21
392.3701811590232
 31
0.0
  0
LINE
  5
21D
330
1FF
100
AcDbEntity
  8
GR1
  6
CONTINUOUS
 62
     6
100
AcDbLine
 10
460.03444971455
 20
396.6691710322466
 30
0.0
 11
461.8585658536203
 21
394.8450548931762
 31
0.0
  0
LINE
  5
21E
330
1FF
100
AcDbEntity
  8
GR1
  6
CONTINUOUS
 62
     6
100
AcDbLine
 10
470.03444971455
 20
391.6189185005525
 30
0.0
 11
471.03444971455
 21
390.6189185005525
 31
0.0
  0
LINE
  5
21F
330
1FF
100
AcDbEntity
  8
GR1
  6
CONTINUOUS
 62
     6
100
AcDbLine
 10
467.5154201031128
 20
394.1379481119897
 30
0.0
 11
469.2831870560792
 21
392.3701811590232
 31
0.0
  0
LINE
  5
220
330
1FF
100
AcDbEntity
  8
GR1
  6
CONTINUOUS
 62
     6
100
AcDbLine
 10
465.03444971455
 20
396.6189185005525
 30
0.0
 11
466.8083133219262
 21
394.8450548931762
 31
0.0
  0
LINE
  5
221
330
1FF
100
AcDbEntity
  8
GR1
  6
CONTINUOUS
 62
     6
100
AcDbLine
 10
462.565672634807
 20
399.0876955802954
 30
0.0
 11
464.3334395877733
 21
397.3199286273291
 31
0.0
  0
LINE
  5
222
330
1FF
100
AcDbEntity
  8
GR1
  6
CONTINUOUS
 62
     6
100
AcDbLine
 10
470.03444971455
 20
396.5686659688582
 30
0.0
 11
471.03444971455
 21
395.5686659688582
 31
0.0
  0
LINE
  5
223
330
1FF
100
AcDbEntity
  8
GR1
  6
CONTINUOUS
 62
     6
100
AcDbLine
 10
467.5154201031128
 20
399.0876955802954
 30
0.0
 11
469.2831870560791
 21
397.3199286273291
 31
0.0
  0
LINE
  5
224
330
1FF
100
AcDbEntity
  8
GR1
  6
CONTINUOUS
 62
     6
100
AcDbLine
 10
465.0405463689598
 20
401.5625693144484
 30
0.0
 11
466.8083133219262
 21
399.794802361482
 31
0.0
  0
ENDBLK
  5
201
330
1FF
100
AcDbEntity
  8
0
100
AcDbBlockEnd
  0
BLOCK
  5
226
330
225
100
AcDbEntity
  8
0
100
AcDbBlockBegin
  2
BLKF027
 70
     0
 10
0.0
 20
0.0
 30
0.0
  3
BLKF027
  1

  0
LINE
  5
229
330
225
100
AcDbEntity
  8
GR1
  6
CONTINUOUS
 62
     6
100
AcDbLine
 10
463.9841971828558
 20
401.9204336907175
 30
0.0
 11
462.565672634807
 21
400.5019091426686
 31
0.0
  0
LINE
  5
22A
330
225
100
AcDbEntity
  8
GR1
  6
CONTINUOUS
 62
     6
100
AcDbLine
 10
468.9339446511617
 20
401.9204336907175
 30
0.0
 11
467.5154201031128
 21
400.5019091426685
 31
0.0
  0
LINE
  5
22B
330
225
100
AcDbEntity
  8
GR1
  6
CONTINUOUS
 62
     6
100
AcDbLine
 10
470.8024758318658
 20
398.8392174031158
 30
0.0
 11
469.9902938372657
 21
398.0270354085156
 31
0.0
  0
LINE
  5
22C
330
225
100
AcDbEntity
  8
GR1
  6
CONTINUOUS
 62
     6
100
AcDbLine
 10
471.03444971455
 20
394.1214438174941
 30
0.0
 11
470.03444971455
 21
393.1214438174941
 31
0.0
  0
LINE
  5
22D
330
225
100
AcDbEntity
  8
GR1
  6
CONTINUOUS
 62
     6
100
AcDbLine
 10
471.03444971455
 20
389.1716963491883
 30
0.0
 11
470.03444971455
 21
388.1716963491883
 31
0.0
  0
LINE
  5
22E
330
225
100
AcDbEntity
  8
GR1
  6
CONTINUOUS
 62
     6
100
AcDbLine
 10
471.03444971455
 20
384.2219488808825
 30
0.0
 11
469.9902938372657
 21
383.1777930035981
 31
0.0
  0
LINE
  5
22F
330
225
100
AcDbEntity
  8
GR1
  6
CONTINUOUS
 62
     6
100
AcDbLine
 10
471.03444971455
 20
379.2722014125766
 30
0.0
 11
469.9902938372657
 21
378.2280455352923
 31
0.0
  0
LINE
  5
230
330
225
100
AcDbEntity
  8
GR1
  6
CONTINUOUS
 62
     6
100
AcDbLine
 10
461.8585658536204
 20
399.794802361482
 30
0.0
 11
460.090798900654
 21
398.0270354085156
 31
0.0
  0
LINE
  5
231
330
225
100
AcDbEntity
  8
GR1
  6
CONTINUOUS
 62
     6
100
AcDbLine
 10
459.3836921194674
 20
397.3199286273291
 30
0.0
 11
459.0345713779411
 21
396.9708078858026
 31
0.0
  0
LINE
  5
232
330
225
100
AcDbEntity
  8
GR1
  6
CONTINUOUS
 62
     6
100
AcDbLine
 10
466.8083133219262
 20
399.794802361482
 30
0.0
 11
465.0405463689598
 21
398.0270354085156
 31
0.0
  0
LINE
  5
233
330
225
100
AcDbEntity
  8
GR1
  6
CONTINUOUS
 62
     6
100
AcDbLine
 10
464.3334395877733
 20
397.3199286273291
 30
0.0
 11
462.565672634807
 21
395.5521616743627
 31
0.0
  0
LINE
  5
234
330
225
100
AcDbEntity
  8
GR1
  6
CONTINUOUS
 62
     6
100
AcDbLine
 10
461.8585658536204
 20
394.8450548931762
 30
0.0
 11
460.090798900654
 21
393.0772879402098
 31
0.0
  0
LINE
  5
235
330
225
100
AcDbEntity
  8
GR1
  6
CONTINUOUS
 62
     6
100
AcDbLine
 10
459.3836921194675
 20
392.3701811590232
 30
0.0
 11
459.03444971455
 21
392.0209387541057
 31
0.0
  0
LINE
  5
236
330
225
100
AcDbEntity
  8
GR1
  6
CONTINUOUS
 62
     6
100
AcDbLine
 10
469.2831870560791
 20
397.3199286273291
 30
0.0
 11
467.5154201031128
 21
395.5521616743628
 31
0.0
  0
LINE
  5
237
330
225
100
AcDbEntity
  8
GR1
  6
CONTINUOUS
 62
     6
100
AcDbLine
 10
466.8083133219262
 20
394.8450548931762
 30
0.0
 11
465.0405463689598
 21
393.0772879402098
 31
0.0
  0
LINE
  5
238
330
225
100
AcDbEntity
  8
GR1
  6
CONTINUOUS
 62
     6
100
AcDbLine
 10
464.3334395877733
 20
392.3701811590232
 30
0.0
 11
462.5656726348069
 21
390.6024142060569
 31
0.0
  0
LINE
  5
239
330
225
100
AcDbEntity
  8
GR1
  6
CONTINUOUS
 62
     6
100
AcDbLine
 10
461.8585658536203
 20
389.8953074248703
 30
0.0
 11
460.090798900654
 21
388.127540471904
 31
0.0
  0
LINE
  5
23A
330
225
100
AcDbEntity
  8
GR1
  6
CONTINUOUS
 62
     6
100
AcDbLine
 10
459.3836921194675
 20
387.4204336907175
 30
0.0
 11
459.03444971455
 21
387.0711912858
 31
0.0
  0
LINE
  5
23B
330
225
100
AcDbEntity
  8
GR1
  6
CONTINUOUS
 62
     6
100
AcDbLine
 10
469.2831870560791
 20
392.3701811590232
 30
0.0
 11
467.5154201031127
 21
390.6024142060569
 31
0.0
  0
LINE
  5
23C
330
225
100
AcDbEntity
  8
GR1
  6
CONTINUOUS
 62
     6
100
AcDbLine
 10
466.8083133219262
 20
389.8953074248703
 30
0.0
 11
465.0405463689598
 21
388.127540471904
 31
0.0
  0
LINE
  5
23D
330
225
100
AcDbEntity
  8
GR1
  6
CONTINUOUS
 62
     6
100
AcDbLine
 10
464.3334395877733
 20
387.4204336907175
 30
0.0
 11
462.5656726348069
 21
385.652666737751
 31
0.0
  0
LINE
  5
23E
330
225
100
AcDbEntity
  8
GR1
  6
CONTINUOUS
 62
     6
100
AcDbLine
 10
461.8585658536204
 20
384.9455599565646
 30
0.0
 11
460.090798900654
 21
383.1777930035981
 31
0.0
  0
LINE
  5
23F
330
225
100
AcDbEntity
  8
GR1
  6
CONTINUOUS
 62
     6
100
AcDbLine
 10
459.3836921194675
 20
382.4706862224116
 30
0.0
 11
459.03444971455
 21
382.1214438174941
 31
0.0
  0
LINE
  5
240
330
225
100
AcDbEntity
  8
GR1
  6
CONTINUOUS
 62
     6
100
AcDbLine
 10
469.2831870560791
 20
387.4204336907175
 30
0.0
 11
467.5154201031128
 21
385.6526667377511
 31
0.0
  0
LINE
  5
241
330
225
100
AcDbEntity
  8
GR1
  6
CONTINUOUS
 62
     6
100
AcDbLine
 10
466.8083133219262
 20
384.9455599565646
 30
0.0
 11
465.0405463689598
 21
383.1777930035981
 31
0.0
  0
LINE
  5
242
330
225
100
AcDbEntity
  8
GR1
  6
CONTINUOUS
 62
     6
100
AcDbLine
 10
464.3334395877733
 20
382.4706862224116
 30
0.0
 11
462.565672634807
 21
380.7029192694453
 31
0.0
  0
LINE
  5
243
330
225
100
AcDbEntity
  8
GR1
  6
CONTINUOUS
 62
     6
100
AcDbLine
 10
461.8585658536203
 20
379.9958124882587
 30
0.0
 11
460.090798900654
 21
378.2280455352924
 31
0.0
  0
LINE
  5
244
330
225
100
AcDbEntity
  8
GR1
  6
CONTINUOUS
 62
     6
100
AcDbLine
 10
459.3836921194675
 20
377.5209387541058
 30
0.0
 11
459.2370760942254
 21
377.3743227288637
 31
0.0
  0
LINE
  5
245
330
225
100
AcDbEntity
  8
GR1
  6
CONTINUOUS
 62
     6
100
AcDbLine
 10
469.2831870560791
 20
382.4706862224116
 30
0.0
 11
467.5154201031128
 21
380.7029192694453
 31
0.0
  0
LINE
  5
246
330
225
100
AcDbEntity
  8
GR1
  6
CONTINUOUS
 62
     6
100
AcDbLine
 10
466.8083133219262
 20
379.9958124882587
 30
0.0
 11
465.0405463689598
 21
378.2280455352924
 31
0.0
  0
LINE
  5
247
330
225
100
AcDbEntity
  8
GR1
  6
CONTINUOUS
 62
     6
100
AcDbLine
 10
464.3334395877733
 20
377.5209387541058
 30
0.0
 11
462.5656726348069
 21
375.7531718011394
 31
0.0
  0
LINE
  5
248
330
225
100
AcDbEntity
  8
GR1
  6
CONTINUOUS
 62
     6
100
AcDbLine
 10
461.8585658536203
 20
375.0460650199528
 30
0.0
 11
461.155450198455
 21
374.3429493647875
 31
0.0
  0
LINE
  5
249
330
225
100
AcDbEntity
  8
GR1
  6
CONTINUOUS
 62
     6
100
AcDbLine
 10
469.2831870560792
 20
377.5209387541058
 30
0.0
 11
467.5154201031127
 21
375.7531718011394
 31
0.0
  0
LINE
  5
24A
330
225
100
AcDbEntity
  8
GR1
  6
CONTINUOUS
 62
     6
100
AcDbLine
 10
466.8083133219262
 20
375.0460650199528
 30
0.0
 11
465.0405463689598
 21
373.2782980669865
 31
0.0
  0
ENDBLK
  5
227
330
225
100
AcDbEntity
  8
0
100
AcDbBlockEnd
  0
BLOCK
  5
344
330
343
100
AcDbEntity
  8
0
100
AcDbBlockBegin
  2
BLKF028
 70
     0
 10
0.0
 20
0.0
 30
0.0
  3
BLKF028
  1

  0
LINE
  5
347
330
343
100
AcDbEntity
  8
GR1
  6
CONTINUOUS
 62
     3
100
AcDbLine
 10
212.9377434663391
 20
279.6605363984675
 30
0.0
 11
212.9377434663391
 21
273.4233797184871
 31
0.0
  0
LINE
  5
348
330
343
100
AcDbEntity
  8
基準ﾚｲﾔｸ_ﾙ_ﾌ_
  6
CONTINUOUS
 62
     3
100
AcDbLine
 10
212.9377434663389
 20
193.2605363984675
 30
0.0
 11
212.9377434663391
 21
273.4233797184871
 31
0.0
  0
LINE
  5
349
330
343
100
AcDbEntity
  8
GR1
  6
CONTINUOUS
 62
     3
100
AcDbLine
 10
209.4377434663391
 20
228.0273897276199
 30
0.0
 11
209.4377434663391
 21
193.2605363984675
 31
0.0
  0
ARC
  5
34A
330
343
100
AcDbEntity
  8
基準ﾚｲﾔｸ_ﾙ_ﾌ_
  6
CONTINUOUS
 62
     3
100
AcDbCircle
 10
213.4377434663391
 20
228.0273897276199
 30
0.0
 40
4.0
100
AcDbArc
 50
161.0902215042835
 51
179.9999999999996
  0
LINE
  5
34B
330
343
100
AcDbEntity
  8
基準ﾚｲﾔｸ_ﾙ_ﾌ_
  6
CONTINUOUS
 62
     3
100
AcDbLine
 10
209.6555132138164
 20
229.3230386133839
 30
0.0
 11
212.937743466339
 21
238.6286695365825
 31
0.0
  0
LINE
  5
34C
330
343
100
AcDbEntity
  8
基準ﾚｲﾔｸ_ﾙ_ﾌ_
  6
CONTINUOUS
 62
     3
100
AcDbLine
 10
206.437743466339
 20
193.2605363984675
 30
0.0
 11
206.437743466339
 21
207.7605363984676
 31
0.0
  0
LINE
  5
34D
330
343
100
AcDbEntity
  8
基準ﾚｲﾔｸ_ﾙ_ﾌ_
  6
CONTINUOUS
 62
     3
100
AcDbLine
 10
209.4377434663391
 20
207.7605363984676
 30
0.0
 11
209.4377434663391
 21
215.7605363984676
 31
0.0
  0
LINE
  5
34E
330
343
100
AcDbEntity
  8
基準ﾚｲﾔｸ_ﾙ_ﾌ_
  6
CONTINUOUS
 62
     3
100
AcDbLine
 10
209.4377434663391
 20
207.7605363984676
 30
0.0
 11
206.437743466339
 21
207.7605363984676
 31
0.0
  0
LINE
  5
34F
330
343
100
AcDbEntity
  8
基準ﾚｲﾔｸ_ﾙ_ﾌ_
  6
CONTINUOUS
 62
     3
100
AcDbLine
 10
212.937743466339
 20
283.2605363984674
 30
0.0
 11
218.1338958890456
 21
292.2605363984676
 31
0.0
  0
LINE
  5
350
330
343
100
AcDbEntity
  8
基準ﾚｲﾔｸ_ﾙ_ﾌ_
  6
CONTINUOUS
 62
     3
100
AcDbLine
 10
219.8659466966146
 20
293.2605363984676
 30
0.0
 11
248.0095402360635
 21
293.2605363984676
 31
0.0
  0
ARC
  5
351
330
343
100
AcDbEntity
  8
基準ﾚｲﾔｸ_ﾙ_ﾌ_
  6
CONTINUOUS
 62
     3
100
AcDbCircle
 10
219.8659466966146
 20
291.2605363984676
 30
0.0
 40
2.0
100
AcDbArc
 50
90.0
 51
150.0000000000001
  0
LINE
  5
352
330
343
100
AcDbEntity
  8
基準ﾚｲﾔｸ_ﾙ_ﾌ_
  6
CONTINUOUS
 62
     3
100
AcDbLine
 10
254.937743466339
 20
283.2605363984674
 30
0.0
 11
249.7415910436324
 21
292.2605363984676
 31
0.0
  0
ARC
  5
353
330
343
100
AcDbEntity
  8
基準ﾚｲﾔｸ_ﾙ_ﾌ_
  6
CONTINUOUS
 62
     3
100
AcDbCircle
 10
248.0095402360635
 20
291.2605363984676
 30
0.0
 40
2.0
100
AcDbArc
 50
29.99999999999993
 51
90.0
  0
LINE
  5
354
330
343
100
AcDbEntity
  8
基準ﾚｲﾔｸ_ﾙ_ﾌ_
  6
CONTINUOUS
 62
     3
100
AcDbLine
 10
212.9441021842791
 20
279.8744109782438
 30
0.0
 11
212.9377434663391
 21
283.2605363984674
 31
0.0
  0
LINE
  5
355
330
343
100
AcDbEntity
  8
GR1
  6
CONTINUOUS
 62
     6
100
AcDbLine
 10
218.9377434663391
 20
293.0321003299435
 30
0.0
 11
218.9377434663391
 21
193.2605363984675
 31
0.0
  0
LINE
  5
356
330
343
100
AcDbEntity
  8
GR1
  6
CONTINUOUS
 62
     3
100
AcDbLine
 10
254.9377434663391
 20
279.6605363984675
 30
0.0
 11
254.9377434663391
 21
273.4233797184871
 31
0.0
  0
LINE
  5
357
330
343
100
AcDbEntity
  8
基準ﾚｲﾔｸ_ﾙ_ﾌ_
  6
CONTINUOUS
 62
     3
100
AcDbLine
 10
254.9377434663394
 20
193.2605363984675
 30
0.0
 11
254.9377434663391
 21
273.4233797184871
 31
0.0
  0
LINE
  5
358
330
343
100
AcDbEntity
  8
GR1
  6
CONTINUOUS
 62
     3
100
AcDbLine
 10
258.4377434663393
 20
228.0273897276199
 30
0.0
 11
258.4377434663393
 21
193.2605363984675
 31
0.0
  0
ARC
  5
359
330
343
100
AcDbEntity
  8
基準ﾚｲﾔｸ_ﾙ_ﾌ_
  6
CONTINUOUS
 62
     3
100
AcDbCircle
 10
254.4377434663392
 20
228.0273897276199
 30
0.0
 40
4.0
100
AcDbArc
 50
0.0000000000004071
 51
18.90977849571659
  0
LINE
  5
35A
330
343
100
AcDbEntity
  8
基準ﾚｲﾔｸ_ﾙ_ﾌ_
  6
CONTINUOUS
 62
     3
100
AcDbLine
 10
258.219973718862
 20
229.3230386133839
 30
0.0
 11
254.9377434663394
 21
238.6286695365825
 31
0.0
  0
LINE
  5
35B
330
343
100
AcDbEntity
  8
基準ﾚｲﾔｸ_ﾙ_ﾌ_
  6
CONTINUOUS
 62
     3
100
AcDbLine
 10
261.4377434663393
 20
193.2605363984676
 30
0.0
 11
261.4377434663393
 21
207.7605363984676
 31
0.0
  0
LINE
  5
35C
330
343
100
AcDbEntity
  8
基準ﾚｲﾔｸ_ﾙ_ﾌ_
  6
CONTINUOUS
 62
     3
100
AcDbLine
 10
258.4377434663393
 20
207.7605363984676
 30
0.0
 11
258.4377434663393
 21
215.7605363984676
 31
0.0
  0
LINE
  5
35D
330
343
100
AcDbEntity
  8
基準ﾚｲﾔｸ_ﾙ_ﾌ_
  6
CONTINUOUS
 62
     3
100
AcDbLine
 10
258.4377434663393
 20
207.7605363984676
 30
0.0
 11
261.4377434663393
 21
207.7605363984676
 31
0.0
  0
LINE
  5
35E
330
343
100
AcDbEntity
  8
基準ﾚｲﾔｸ_ﾙ_ﾌ_
  6
CONTINUOUS
 62
     3
100
AcDbLine
 10
254.9377434663391
 20
283.2605363984674
 30
0.0
 11
249.7415910436325
 21
292.2605363984677
 31
0.0
  0
ARC
  5
35F
330
343
100
AcDbEntity
  8
基準ﾚｲﾔｸ_ﾙ_ﾌ_
  6
CONTINUOUS
 62
     3
100
AcDbCircle
 10
248.0095402360637
 20
291.2605363984677
 30
0.0
 40
2.0
100
AcDbArc
 50
29.99999999999973
 51
90.0
  0
LINE
  5
360
330
343
100
AcDbEntity
  8
基準ﾚｲﾔｸ_ﾙ_ﾌ_
  6
CONTINUOUS
 62
     3
100
AcDbLine
 10
254.931384748399
 20
279.8744109782438
 30
0.0
 11
254.9377434663391
 21
283.2605363984674
 31
0.0
  0
LINE
  5
361
330
343
100
AcDbEntity
  8
GR1
  6
CONTINUOUS
 62
     6
100
AcDbLine
 10
248.937743466339
 20
293.0321003299435
 30
0.0
 11
248.9377434663391
 21
193.2605363984675
 31
0.0
  0
LINE
  5
362
330
343
100
AcDbEntity
  8
GR1
  6
CONTINUOUS
 62
     3
100
AcDbLine
 10
212.9377434663395
 20
106.8605363984676
 30
0.0
 11
212.9377434663395
 21
113.0976930784479
 31
0.0
  0
LINE
  5
363
330
343
100
AcDbEntity
  8
基準ﾚｲﾔｸ_ﾙ_ﾌ_
  6
CONTINUOUS
 62
     3
100
AcDbLine
 10
212.9377434663389
 20
193.2605363984675
 30
0.0
 11
212.9377434663395
 21
113.0976930784479
 31
0.0
  0
LINE
  5
364
330
343
100
AcDbEntity
  8
GR1
  6
CONTINUOUS
 62
     3
100
AcDbLine
 10
209.4377434663392
 20
158.4936830693151
 30
0.0
 11
209.4377434663391
 21
193.2605363984675
 31
0.0
  0
ARC
  5
365
330
343
100
AcDbEntity
  8
基準ﾚｲﾔｸ_ﾙ_ﾌ_
  6
CONTINUOUS
 62
     3
100
AcDbCircle
 10
213.4377434663392
 20
158.4936830693152
 30
0.0
 40
4.0
100
AcDbArc
 50
180.0000000000004
 51
198.9097784957173
  0
LINE
  5
366
330
343
100
AcDbEntity
  8
基準ﾚｲﾔｸ_ﾙ_ﾌ_
  6
CONTINUOUS
 62
     3
100
AcDbLine
 10
209.6555132138165
 20
157.1980341835512
 30
0.0
 11
212.9377434663392
 21
147.8924032603526
 31
0.0
  0
LINE
  5
367
330
343
100
AcDbEntity
  8
基準ﾚｲﾔｸ_ﾙ_ﾌ_
  6
CONTINUOUS
 62
     3
100
AcDbLine
 10
206.437743466339
 20
193.2605363984675
 30
0.0
 11
206.437743466339
 21
178.7605363984675
 31
0.0
  0
LINE
  5
368
330
343
100
AcDbEntity
  8
基準ﾚｲﾔｸ_ﾙ_ﾌ_
  6
CONTINUOUS
 62
     3
100
AcDbLine
 10
209.4377434663391
 20
178.7605363984675
 30
0.0
 11
209.4377434663392
 21
170.7605363984675
 31
0.0
  0
LINE
  5
369
330
343
100
AcDbEntity
  8
基準ﾚｲﾔｸ_ﾙ_ﾌ_
  6
CONTINUOUS
 62
     3
100
AcDbLine
 10
209.4377434663391
 20
178.7605363984675
 30
0.0
 11
206.437743466339
 21
178.7605363984675
 31
0.0
  0
LINE
  5
36A
330
343
100
AcDbEntity
  8
基準ﾚｲﾔｸ_ﾙ_ﾌ_
  6
CONTINUOUS
 62
     3
100
AcDbLine
 10
212.9377434663394
 20
103.2605363984677
 30
0.0
 11
218.133895889046
 21
94.26053639846748
 31
0.0
  0
LINE
  5
36B
330
343
100
AcDbEntity
  8
基準ﾚｲﾔｸ_ﾙ_ﾌ_
  6
CONTINUOUS
 62
     3
100
AcDbLine
 10
219.8659466966149
 20
93.26053639846748
 30
0.0
 11
248.0095402360639
 21
93.2605363984676
 31
0.0
  0
ARC
  5
36C
330
343
100
AcDbEntity
  8
基準ﾚｲﾔｸ_ﾙ_ﾌ_
  6
CONTINUOUS
 62
     3
100
AcDbCircle
 10
219.8659466966149
 20
95.26053639846748
 30
0.0
 40
2.0
100
AcDbArc
 50
209.9999999999997
 51
270.0
  0
LINE
  5
36D
330
343
100
AcDbEntity
  8
基準ﾚｲﾔｸ_ﾙ_ﾌ_
  6
CONTINUOUS
 62
     3
100
AcDbLine
 10
254.9377434663394
 20
103.2605363984678
 30
0.0
 11
249.7415910436327
 21
94.2605363984676
 31
0.0
  0
ARC
  5
36E
330
343
100
AcDbEntity
  8
基準ﾚｲﾔｸ_ﾙ_ﾌ_
  6
CONTINUOUS
 62
     3
100
AcDbCircle
 10
248.0095402360639
 20
95.2605363984676
 30
0.0
 40
2.0
100
AcDbArc
 50
270.0
 51
330.0000000000002
  0
LINE
  5
36F
330
343
100
AcDbEntity
  8
基準ﾚｲﾔｸ_ﾙ_ﾌ_
  6
CONTINUOUS
 62
     3
100
AcDbLine
 10
212.9441021842794
 20
106.6466618186912
 30
0.0
 11
212.9377434663395
 21
103.2605363984677
 31
0.0
  0
LINE
  5
370
330
343
100
AcDbEntity
  8
GR1
  6
CONTINUOUS
 62
     6
100
AcDbLine
 10
218.9377434663395
 20
93.48897246699153
 30
0.0
 11
218.9377434663391
 21
193.2605363984675
 31
0.0
  0
LINE
  5
371
330
343
100
AcDbEntity
  8
GR1
  6
CONTINUOUS
 62
     3
100
AcDbLine
 10
254.9377434663395
 20
106.8605363984677
 30
0.0
 11
254.9377434663395
 21
113.0976930784481
 31
0.0
  0
LINE
  5
372
330
343
100
AcDbEntity
  8
基準ﾚｲﾔｸ_ﾙ_ﾌ_
  6
CONTINUOUS
 62
     3
100
AcDbLine
 10
254.9377434663394
 20
193.2605363984677
 30
0.0
 11
254.9377434663395
 21
113.0976930784481
 31
0.0
  0
LINE
  5
373
330
343
100
AcDbEntity
  8
GR1
  6
CONTINUOUS
 62
     3
100
AcDbLine
 10
258.4377434663394
 20
158.4936830693154
 30
0.0
 11
258.4377434663393
 21
193.2605363984677
 31
0.0
  0
ARC
  5
374
330
343
100
AcDbEntity
  8
基準ﾚｲﾔｸ_ﾙ_ﾌ_
  6
CONTINUOUS
 62
     3
100
AcDbCircle
 10
254.4377434663394
 20
158.4936830693153
 30
0.0
 40
4.0
100
AcDbArc
 50
341.0902215042834
 51
0.0000000000004071
  0
LINE
  5
375
330
343
100
AcDbEntity
  8
基準ﾚｲﾔｸ_ﾙ_ﾌ_
  6
CONTINUOUS
 62
     3
100
AcDbLine
 10
258.2199737188621
 20
157.1980341835513
 30
0.0
 11
254.9377434663396
 21
147.8924032603527
 31
0.0
  0
LINE
  5
376
330
343
100
AcDbEntity
  8
基準ﾚｲﾔｸ_ﾙ_ﾌ_
  6
CONTINUOUS
 62
     3
100
AcDbLine
 10
261.4377434663393
 20
193.2605363984677
 30
0.0
 11
261.4377434663393
 21
178.7605363984676
 31
0.0
  0
LINE
  5
377
330
343
100
AcDbEntity
  8
基準ﾚｲﾔｸ_ﾙ_ﾌ_
  6
CONTINUOUS
 62
     3
100
AcDbLine
 10
258.4377434663393
 20
178.7605363984677
 30
0.0
 11
258.4377434663394
 21
170.7605363984677
 31
0.0
  0
LINE
  5
378
330
343
100
AcDbEntity
  8
基準ﾚｲﾔｸ_ﾙ_ﾌ_
  6
CONTINUOUS
 62
     3
100
AcDbLine
 10
258.4377434663393
 20
178.7605363984677
 30
0.0
 11
261.4377434663393
 21
178.7605363984676
 31
0.0
  0
LINE
  5
379
330
343
100
AcDbEntity
  8
基準ﾚｲﾔｸ_ﾙ_ﾌ_
  6
CONTINUOUS
 62
     3
100
AcDbLine
 10
254.9377434663395
 20
103.2605363984678
 30
0.0
 11
249.7415910436328
 21
94.2605363984676
 31
0.0
  0
ARC
  5
37A
330
343
100
AcDbEntity
  8
基準ﾚｲﾔｸ_ﾙ_ﾌ_
  6
CONTINUOUS
 62
     3
100
AcDbCircle
 10
248.009540236064
 20
95.2605363984676
 30
0.0
 40
2.0
100
AcDbArc
 50
270.0
 51
330.0000000000002
  0
LINE
  5
37B
330
343
100
AcDbEntity
  8
基準ﾚｲﾔｸ_ﾙ_ﾌ_
  6
CONTINUOUS
 62
     3
100
AcDbLine
 10
254.9313847483994
 20
106.6466618186914
 30
0.0
 11
254.9377434663395
 21
103.2605363984678
 31
0.0
  0
LINE
  5
37C
330
343
100
AcDbEntity
  8
GR1
  6
CONTINUOUS
 62
     6
100
AcDbLine
 10
248.9377434663394
 20
93.48897246699164
 30
0.0
 11
248.9377434663391
 21
193.2605363984677
 31
0.0
  0
ENDBLK
  5
345
330
343
100
AcDbEntity
  8
0
100
AcDbBlockEnd
  0
BLOCK
  5
39A
330
399
100
AcDbEntity
  8
0
100
AcDbBlockBegin
  2
BLKF029
 70
     0
 10
0.0
 20
0.0
 30
0.0
  3
BLKF029
  1

  0
LINE
  5
39D
330
399
100
AcDbEntity
  8
GR1
  6
CONTINUOUS
 62
     7
100
AcDbLine
 10
461.5223919805061
 20
146.7254114507467
 30
0.0
 11
461.1446456679166
 21
146.5938526299668
 31
0.0
  0
LINE
  5
39E
330
399
100
AcDbEntity
  8
GR1
  6
CONTINUOUS
 62
     7
100
AcDbLine
 10
461.7770445471908
 20
146.602317704842
 30
0.0
 11
461.0215519220118
 21
146.339200063282
 31
0.0
  0
LINE
  5
39F
330
399
100
AcDbEntity
  8
GR1
  6
CONTINUOUS
 62
     7
100
AcDbLine
 10
462.0316971138757
 20
146.4792239589373
 30
0.0
 11
460.8984581761071
 21
146.0845474965972
 31
0.0
  0
LINE
  5
3A0
330
399
100
AcDbEntity
  8
GR1
  6
CONTINUOUS
 62
     7
100
AcDbLine
 10
462.2863496805604
 20
146.3561302130325
 30
0.0
 11
460.7753644302023
 21
145.8298949299125
 31
0.0
  0
LINE
  5
3A1
330
399
100
AcDbEntity
  8
GR1
  6
CONTINUOUS
 62
     7
100
AcDbLine
 10
462.5410022472452
 20
146.2330364671278
 30
0.0
 11
461.2379483885023
 21
145.7792180621409
 31
0.0
  0
LINE
  5
3A2
330
399
100
AcDbEntity
  8
GR1
  6
CONTINUOUS
 62
     7
100
AcDbLine
 10
460.8814122464065
 20
145.6550461699043
 30
0.0
 11
460.6522706842977
 21
145.5752423632276
 31
0.0
  0
LINE
  5
3A3
330
399
100
AcDbEntity
  8
GR1
  6
CONTINUOUS
 62
     7
100
AcDbLine
 10
462.7956548139298
 20
146.109942721223
 30
0.0
 11
461.492600955187
 21
145.6561243162361
 31
0.0
  0
LINE
  5
3A4
330
399
100
AcDbEntity
  8
GR1
  6
CONTINUOUS
 62
     7
100
AcDbLine
 10
460.7583185005016
 20
145.4003936032196
 30
0.0
 11
460.5291769383929
 21
145.3205897965429
 31
0.0
  0
LINE
  5
3A5
330
399
100
AcDbEntity
  8
GR1
  6
CONTINUOUS
 62
     7
100
AcDbLine
 10
463.0503073806146
 20
145.9868489753183
 30
0.0
 11
461.7472535218718
 21
145.5330305703313
 31
0.0
  0
LINE
  5
3A6
330
399
100
AcDbEntity
  8
GR1
  6
CONTINUOUS
 62
     7
100
AcDbLine
 10
460.6352247545969
 20
145.1457410365348
 30
0.0
 11
460.4060831924882
 21
145.0659372298582
 31
0.0
  0
LINE
  5
3A7
330
399
100
AcDbEntity
  8
GR1
  6
CONTINUOUS
 62
     7
100
AcDbLine
 10
463.3049599472994
 20
145.8637552294135
 30
0.0
 11
461.8476659046934
 21
145.3562191413423
 31
0.0
  0
LINE
  5
3A8
330
399
100
AcDbEntity
  8
GR1
  6
CONTINUOUS
 62
     7
100
AcDbLine
 10
460.5121310086922
 20
144.89108846985
 30
0.0
 11
460.2829894465834
 21
144.8112846631734
 31
0.0
  0
LINE
  5
3A9
330
399
100
AcDbEntity
  8
GR1
  6
CONTINUOUS
 62
     7
100
AcDbLine
 10
463.5596125139842
 20
145.7406614835088
 30
0.0
 11
461.7245721587886
 21
145.1015665746576
 31
0.0
  0
LINE
  5
3AA
330
399
100
AcDbEntity
  8
GR1
  6
CONTINUOUS
 62
     7
100
AcDbLine
 10
460.3890372627874
 20
144.6364359031652
 30
0.0
 11
460.1598957006786
 21
144.5566320964886
 31
0.0
  0
LINE
  5
3AB
330
399
100
AcDbEntity
  8
GR1
  6
CONTINUOUS
 62
     7
100
AcDbLine
 10
463.814265080669
 20
145.6175677376041
 30
0.0
 11
461.6014784128839
 21
144.8469140079728
 31
0.0
  0
LINE
  5
3AC
330
399
100
AcDbEntity
  8
GR1
  6
CONTINUOUS
 62
     7
100
AcDbLine
 10
460.2659435168827
 20
144.3817833364805
 30
0.0
 11
460.036801954774
 21
144.3019795298038
 31
0.0
  0
LINE
  5
3AD
330
399
100
AcDbEntity
  8
GR1
  6
CONTINUOUS
 62
     7
100
AcDbLine
 10
464.0689176473537
 20
145.4944739916994
 30
0.0
 11
461.5887495166836
 21
144.6306985325283
 31
0.0
  0
LINE
  5
3AE
330
399
100
AcDbEntity
  8
GR1
  6
CONTINUOUS
 62
     7
100
AcDbLine
 10
460.1428497709779
 20
144.1271307697958
 30
0.0
 11
459.9137082088692
 21
144.0473269631191
 31
0.0
  0
LINE
  5
3AF
330
399
100
AcDbEntity
  8
GR1
  6
CONTINUOUS
 62
     7
100
AcDbLine
 10
464.3235702140385
 20
145.3713802457946
 30
0.0
 11
463.945823901449
 21
145.2398214250145
 31
0.0
  0
LINE
  5
3B0
330
399
100
AcDbEntity
  8
GR1
  6
CONTINUOUS
 62
     7
100
AcDbLine
 10
460.3169655260347
 20
143.9759882313177
 30
0.0
 11
459.7906144629644
 21
143.7926743964343
 31
0.0
  0
LINE
  5
3B1
330
399
100
AcDbEntity
  8
GR1
  6
CONTINUOUS
 62
     7
100
AcDbLine
 10
464.5782227807232
 20
145.2482864998898
 30
0.0
 11
464.0116033118391
 21
145.0509482687198
 31
0.0
  0
LINE
  5
3B2
330
399
100
AcDbEntity
  8
GR1
  6
CONTINUOUS
 62
     7
100
AcDbLine
 10
460.5716180927195
 20
143.852894485413
 30
0.0
 11
459.6675207170597
 21
143.5380218297496
 31
0.0
  0
LINE
  5
3B3
330
399
100
AcDbEntity
  8
GR1
  6
CONTINUOUS
 62
     7
100
AcDbLine
 10
464.832875347408
 20
145.1251927539851
 30
0.0
 11
464.0773827222291
 21
144.862075112425
 31
0.0
  0
LINE
  5
3B4
330
399
100
AcDbEntity
  8
GR1
  6
CONTINUOUS
 62
     7
100
AcDbLine
 10
460.8262706594042
 20
143.7298007395082
 30
0.0
 11
460.4256101906038
 21
143.5902615380605
 31
0.0
  0
LINE
  5
3B5
330
399
100
AcDbEntity
  8
GR1
  6
CONTINUOUS
 62
     7
100
AcDbLine
 10
460.299919596334
 20
143.5464869046249
 30
0.0
 11
459.5444269711549
 21
143.2833692630647
 31
0.0
  0
LINE
  5
3B6
330
399
100
AcDbEntity
  8
GR1
  6
CONTINUOUS
 62
     7
100
AcDbLine
 10
465.0875279140928
 20
145.0020990080804
 30
0.0
 11
464.143162132619
 21
144.6732019561302
 31
0.0
  0
LINE
  5
3B7
330
399
100
AcDbEntity
  8
GR1
  6
CONTINUOUS
 62
     7
100
AcDbLine
 10
461.0809232260889
 20
143.6067069936034
 30
0.0
 11
460.6802627572886
 21
143.4671677921558
 31
0.0
  0
LINE
  5
3B8
330
399
100
AcDbEntity
  8
GR1
  6
CONTINUOUS
 62
     7
100
AcDbLine
 10
460.365699006724
 20
143.3576137483301
 30
0.0
 11
459.4213332252502
 21
143.0287166963801
 31
0.0
  0
LINE
  5
3B9
330
399
100
AcDbEntity
  8
GR1
  6
CONTINUOUS
 62
     7
100
AcDbLine
 10
465.3421804807776
 20
144.8790052621756
 30
0.0
 11
464.208941543009
 21
144.4843287998356
 31
0.0
  0
LINE
  5
3BA
330
399
100
AcDbEntity
  8
GR1
  6
CONTINUOUS
 62
     7
100
AcDbLine
 10
461.3355757927737
 20
143.4836132476988
 30
0.0
 11
460.9349153239734
 21
143.3440740462511
 31
0.0
  0
LINE
  5
3BB
330
399
100
AcDbEntity
  8
GR1
  6
CONTINUOUS
 62
     7
100
AcDbLine
 10
460.431478417114
 20
143.1687405920354
 30
0.0
 11
459.2982394793455
 21
142.7740641296953
 31
0.0
  0
LINE
  5
3BC
330
399
100
AcDbEntity
  8
GR1
  6
CONTINUOUS
 62
     7
100
AcDbLine
 10
465.5968330474623
 20
144.7559115162709
 30
0.0
 11
464.274720953399
 21
144.2954556435408
 31
0.0
  0
LINE
  5
3BD
330
399
100
AcDbEntity
  8
GR1
  6
CONTINUOUS
 62
     7
100
AcDbLine
 10
463.3303551719253
 20
143.9665585915907
 30
0.0
 11
462.2600243124968
 21
143.5937913109637
 31
0.0
  0
LINE
  5
3BE
330
399
100
AcDbEntity
  8
GR1
  6
CONTINUOUS
 62
     7
100
AcDbLine
 10
461.5902283594585
 20
143.360519501794
 30
0.0
 11
461.1895678906581
 21
143.2209803003464
 31
0.0
  0
LINE
  5
3BF
330
399
100
AcDbEntity
  8
GR1
  6
CONTINUOUS
 62
     7
100
AcDbLine
 10
460.497257827504
 20
142.9798674357406
 30
0.0
 11
459.1751457334407
 21
142.5194115630105
 31
0.0
  0
LINE
  5
3C0
330
399
100
AcDbEntity
  8
GR1
  6
CONTINUOUS
 62
     7
100
AcDbLine
 10
465.851485614147
 20
144.6328177703662
 30
0.0
 11
464.3405003637891
 21
144.106582487246
 31
0.0
  0
LINE
  5
3C1
330
399
100
AcDbEntity
  8
GR1
  6
CONTINUOUS
 62
     7
100
AcDbLine
 10
463.3961345823154
 20
143.777685435296
 30
0.0
 11
462.5126483741439
 21
143.4699910916354
 31
0.0
  0
LINE
  5
3C2
330
399
100
AcDbEntity
  8
GR1
  6
CONTINUOUS
 62
     7
100
AcDbLine
 10
461.8448809261433
 20
143.2374257558893
 30
0.0
 11
461.444220457343
 21
143.0978865544416
 31
0.0
  0
LINE
  5
3C3
330
399
100
AcDbEntity
  8
GR1
  6
CONTINUOUS
 62
     7
100
AcDbLine
 10
460.563037237894
 20
142.7909942794458
 30
0.0
 11
459.052051987536
 21
142.2647589963257
 31
0.0
  0
LINE
  5
3C4
330
399
100
AcDbEntity
  8
GR1
  6
CONTINUOUS
 62
     7
100
AcDbLine
 10
466.1061381808318
 20
144.5097240244614
 30
0.0
 11
464.406279774179
 21
143.9177093309513
 31
0.0
  0
LINE
  5
3C5
330
399
100
AcDbEntity
  8
GR1
  6
CONTINUOUS
 62
     7
100
AcDbLine
 10
463.4619139927054
 20
143.5888122790012
 30
0.0
 11
462.7673009408286
 21
143.3468973457306
 31
0.0
  0
LINE
  5
3C6
330
399
100
AcDbEntity
  8
GR1
  6
CONTINUOUS
 62
     7
100
AcDbLine
 10
462.099533492828
 20
143.1143320099845
 30
0.0
 11
461.5731824297578
 21
142.9310181751011
 31
0.0
  0
LINE
  5
3C7
330
399
100
AcDbEntity
  8
GR1
  6
CONTINUOUS
 62
     7
100
AcDbLine
 10
460.628816648284
 20
142.6021211231511
 30
0.0
 11
458.9289582416313
 21
142.0101064296409
 31
0.0
  0
LINE
  5
3C8
330
399
100
AcDbEntity
  8
GR1
  6
CONTINUOUS
 62
     7
100
AcDbLine
 10
466.3607907475166
 20
144.3866302785567
 30
0.0
 11
464.4720591845691
 21
143.7288361746566
 31
0.0
  0
LINE
  5
3C9
330
399
100
AcDbEntity
  8
GR1
  6
CONTINUOUS
 62
     7
100
AcDbLine
 10
463.5276934030953
 20
143.3999391227065
 30
0.0
 11
462.8124691837303
 21
143.1508458774331
 31
0.0
  0
LINE
  5
3CA
330
399
100
AcDbEntity
  8
GR1
  6
CONTINUOUS
 62
     7
100
AcDbLine
 10
462.3541860595129
 20
142.9912382640798
 30
0.0
 11
461.6389618401478
 21
142.7421450188064
 31
0.0
  0
LINE
  5
3CB
330
399
100
AcDbEntity
  8
GR1
  6
CONTINUOUS
 62
     7
100
AcDbLine
 10
460.6945960586741
 20
142.4132479668564
 30
0.0
 11
458.8058644957265
 21
141.7554538629562
 31
0.0
  0
LINE
  5
3CC
330
399
100
AcDbEntity
  8
GR1
  6
CONTINUOUS
 62
     7
100
AcDbLine
 10
466.6154433142014
 20
144.2635365326519
 30
0.0
 11
464.5378385949591
 21
143.5399630183618
 31
0.0
  0
LINE
  5
3CD
330
399
100
AcDbEntity
  8
GR1
  6
CONTINUOUS
 62
     7
100
AcDbLine
 10
463.5934728134853
 20
143.2110659664118
 30
0.0
 11
462.6893754378256
 21
142.8961933107483
 31
0.0
  0
LINE
  5
3CE
330
399
100
AcDbEntity
  8
GR1
  6
CONTINUOUS
 62
     7
100
AcDbLine
 10
462.6088386261976
 20
142.868144518175
 30
0.0
 11
461.7047412505378
 21
142.5532718625116
 31
0.0
  0
LINE
  5
3CF
330
399
100
AcDbEntity
  8
GR1
  6
CONTINUOUS
 62
     7
100
AcDbLine
 10
460.7603754690641
 20
142.2243748105616
 30
0.0
 11
458.6827707498218
 21
141.5008012962714
 31
0.0
  0
LINE
  5
3D0
330
399
100
AcDbEntity
  8
GR1
  6
CONTINUOUS
 62
     7
100
AcDbLine
 10
466.5728863799246
 20
144.0369327585404
 30
0.0
 11
464.6036180053491
 21
143.3510898620671
 31
0.0
  0
LINE
  5
3D1
330
399
100
AcDbEntity
  8
GR1
  6
CONTINUOUS
 62
     7
100
AcDbLine
 10
463.6592522238753
 20
143.022192810117
 30
0.0
 11
461.7705206609278
 21
142.3643987062169
 31
0.0
  0
LINE
  5
3D2
330
399
100
AcDbEntity
  8
GR1
  6
CONTINUOUS
 62
     7
100
AcDbLine
 10
460.8261548794541
 20
142.0355016542669
 30
0.0
 11
458.8568865048786
 21
141.3496587577933
 31
0.0
  0
LINE
  5
3D3
330
399
100
AcDbEntity
  8
GR1
  6
CONTINUOUS
 62
     7
100
AcDbLine
 10
466.4497926340199
 20
143.7822801918556
 30
0.0
 11
464.6693974157392
 21
143.1622167057723
 31
0.0
  0
LINE
  5
3D4
330
399
100
AcDbEntity
  8
GR1
  6
CONTINUOUS
 62
     7
100
AcDbLine
 10
463.7250316342654
 20
142.8333196538222
 30
0.0
 11
461.8363000713179
 21
142.1755255499221
 31
0.0
  0
LINE
  5
3D5
330
399
100
AcDbEntity
  8
GR1
  6
CONTINUOUS
 62
     7
100
AcDbLine
 10
460.8919342898441
 20
141.8466284979721
 30
0.0
 11
459.1115390715634
 21
141.2265650118886
 31
0.0
  0
LINE
  5
3D6
330
399
100
AcDbEntity
  8
GR1
  6
CONTINUOUS
 62
     7
100
AcDbLine
 10
466.3266988881151
 20
143.5276276251709
 30
0.0
 11
464.7351768261291
 21
142.9733435494775
 31
0.0
  0
LINE
  5
3D7
330
399
100
AcDbEntity
  8
GR1
  6
CONTINUOUS
 62
     7
100
AcDbLine
 10
463.7908110446554
 20
142.6444464975274
 30
0.0
 11
461.9020794817079
 21
141.9866523936273
 31
0.0
  0
LINE
  5
3D8
330
399
100
AcDbEntity
  8
GR1
  6
CONTINUOUS
 62
     7
100
AcDbLine
 10
460.9577137002341
 20
141.6577553416773
 30
0.0
 11
459.3661916382481
 21
141.1034712659839
 31
0.0
  0
LINE
  5
3D9
330
399
100
AcDbEntity
  8
GR1
  6
CONTINUOUS
 62
     7
100
AcDbLine
 10
466.2036051422103
 20
143.2729750584862
 30
0.0
 11
464.8009562365191
 21
142.7844703931828
 31
0.0
  0
LINE
  5
3DA
330
399
100
AcDbEntity
  8
GR1
  6
CONTINUOUS
 62
     7
100
AcDbLine
 10
463.8565904550454
 20
142.4555733412327
 30
0.0
 11
461.9678588920978
 21
141.7977792373326
 31
0.0
  0
LINE
  5
3DB
330
399
100
AcDbEntity
  8
GR1
  6
CONTINUOUS
 62
     7
100
AcDbLine
 10
461.0234931106241
 20
141.4688821853825
 30
0.0
 11
459.6208442049329
 21
140.9803775200791
 31
0.0
  0
LINE
  5
3DC
330
399
100
AcDbEntity
  8
GR1
  6
CONTINUOUS
 62
     7
100
AcDbLine
 10
466.0805113963057
 20
143.0183224918014
 30
0.0
 11
464.8667356469092
 21
142.595597236888
 31
0.0
  0
LINE
  5
3DD
330
399
100
AcDbEntity
  8
GR1
  6
CONTINUOUS
 62
     7
100
AcDbLine
 10
463.9223698654354
 20
142.266700184938
 30
0.0
 11
462.0336383024878
 21
141.6089060810378
 31
0.0
  0
LINE
  5
3DE
330
399
100
AcDbEntity
  8
GR1
  6
CONTINUOUS
 62
     7
100
AcDbLine
 10
461.0892725210141
 20
141.2800090290878
 30
0.0
 11
459.8754967716176
 21
140.8572837741744
 31
0.0
  0
LINE
  5
3DF
330
399
100
AcDbEntity
  8
GR1
  6
CONTINUOUS
 62
     7
100
AcDbLine
 10
465.9574176504009
 20
142.7636699251166
 30
0.0
 11
464.9325150572992
 21
142.4067240805932
 31
0.0
  0
LINE
  5
3E0
330
399
100
AcDbEntity
  8
GR1
  6
CONTINUOUS
 62
     7
100
AcDbLine
 10
461.1550519314041
 20
141.0911358727931
 30
0.0
 11
460.1301493383024
 21
140.7341900282697
 31
0.0
  0
LINE
  5
3E1
330
399
100
AcDbEntity
  8
GR1
  6
CONTINUOUS
 62
     7
100
AcDbLine
 10
465.8343239044961
 20
142.5090173584318
 30
0.0
 11
464.9982944676892
 21
142.2178509242985
 31
0.0
  0
LINE
  5
3E2
330
399
100
AcDbEntity
  8
GR1
  6
CONTINUOUS
 62
     7
100
AcDbLine
 10
461.2208313417941
 20
140.9022627164983
 30
0.0
 11
460.3848019049871
 21
140.6110962823649
 31
0.0
  0
LINE
  5
3E3
330
399
100
AcDbEntity
  8
GR1
  6
CONTINUOUS
 62
     7
100
AcDbLine
 10
465.7112301585914
 20
142.2543647917471
 30
0.0
 11
465.0640738780792
 21
142.0289777680038
 31
0.0
  0
LINE
  5
3E4
330
399
100
AcDbEntity
  8
GR1
  6
CONTINUOUS
 62
     7
100
AcDbLine
 10
461.2866107521841
 20
140.7133895602035
 30
0.0
 11
460.6394544716719
 21
140.4880025364602
 31
0.0
  0
LINE
  5
3E5
330
399
100
AcDbEntity
  8
GR1
  6
CONTINUOUS
 62
     7
100
AcDbLine
 10
465.5881364126867
 20
141.9997122250623
 30
0.0
 11
465.1298532884692
 21
141.840104611709
 31
0.0
  0
LINE
  5
3E6
330
399
100
AcDbEntity
  8
GR1
  6
CONTINUOUS
 62
     7
100
AcDbLine
 10
461.3523901625741
 20
140.5245164039087
 30
0.0
 11
460.8941070383567
 21
140.3649087905554
 31
0.0
  0
LINE
  5
3E7
330
399
100
AcDbEntity
  8
GR1
  6
CONTINUOUS
 62
     7
100
AcDbLine
 10
465.4650426667819
 20
141.7450596583776
 30
0.0
 11
465.1956326988592
 21
141.6512314554142
 31
0.0
  0
LINE
  5
3E8
330
399
100
AcDbEntity
  8
GR1
  6
CONTINUOUS
 62
     7
100
AcDbLine
 10
461.4181695729641
 20
140.335643247614
 30
0.0
 11
461.1487596050414
 21
140.2418150446507
 31
0.0
  0
LINE
  5
3E9
330
399
100
AcDbEntity
  8
GR1
  6
CONTINUOUS
 62
     7
100
AcDbLine
 10
465.3419489208772
 20
141.4904070916928
 30
0.0
 11
461.4034121717262
 21
140.118721298746
 31
0.0
  0
LINE
  5
3EA
330
399
100
AcDbEntity
  8
GR1
  6
CONTINUOUS
 62
     7
100
AcDbLine
 10
465.2188551749724
 20
141.235754525008
 30
0.0
 11
461.6580647384109
 21
139.9956275528413
 31
0.0
  0
LINE
  5
3EB
330
399
100
AcDbEntity
  8
GR1
  6
CONTINUOUS
 62
     7
100
AcDbLine
 10
465.0957614290677
 20
140.9811019583232
 30
0.0
 11
461.9127173050958
 21
139.8725338069364
 31
0.0
  0
LINE
  5
3EC
330
399
100
AcDbEntity
  8
GR1
  6
CONTINUOUS
 62
     7
100
AcDbLine
 10
464.972667683163
 20
140.7264493916385
 30
0.0
 11
462.1673698717805
 21
139.7494400610317
 31
0.0
  0
LINE
  5
3ED
330
399
100
AcDbEntity
  8
GR1
  6
CONTINUOUS
 62
     7
100
AcDbLine
 10
464.8495739372582
 20
140.4717968249537
 30
0.0
 11
462.4220224384654
 21
139.626346315127
 31
0.0
  0
LINE
  5
3EE
330
399
100
AcDbEntity
  8
GR1
  6
CONTINUOUS
 62
     7
100
AcDbLine
 10
464.7264801913535
 20
140.2171442582689
 30
0.0
 11
462.6766750051501
 21
139.5032525692222
 31
0.0
  0
LINE
  5
3EF
330
399
100
AcDbEntity
  8
GR1
  6
CONTINUOUS
 62
     7
100
AcDbLine
 10
464.6033864454487
 20
139.9624916915842
 30
0.0
 11
462.9313275718349
 21
139.3801588233175
 31
0.0
  0
LINE
  5
3F0
330
399
100
AcDbEntity
  8
GR1
  6
CONTINUOUS
 62
     7
100
AcDbLine
 10
464.480292699544
 20
139.7078391248995
 30
0.0
 11
463.1859801385196
 21
139.2570650774128
 31
0.0
  0
LINE
  5
3F1
330
399
100
AcDbEntity
  8
GR1
  6
CONTINUOUS
 62
     7
100
AcDbLine
 10
464.3571989536392
 20
139.4531865582147
 30
0.0
 11
463.4406327052042
 21
139.1339713315081
 31
0.0
  0
LINE
  5
3F2
330
399
100
AcDbEntity
  8
GR1
  6
CONTINUOUS
 62
     7
100
AcDbLine
 10
464.2341052077346
 20
139.19853399153
 30
0.0
 11
463.695285271889
 21
139.0108775856032
 31
0.0
  0
LINE
  5
3F3
330
399
100
AcDbEntity
  8
GR1
  6
CONTINUOUS
 62
     7
100
AcDbLine
 10
464.1110114618298
 20
138.9438814248451
 30
0.0
 11
463.9499378385739
 21
138.8877838396986
 31
0.0
  0
ENDBLK
  5
39B
330
399
100
AcDbEntity
  8
0
100
AcDbBlockEnd
  0
ENDSEC
  0
SECTION
  2
ENTITIES
  0
INSERT
  5
B7
330
1F
100
AcDbEntity
  8
図面枠ﾚｲﾔ
  6
CONTINUOUS
 62
     7
100
AcDbBlockReference
  2
BLKF023
 10
0.0
 20
0.0
 30
0.0
  0
TEXT
  5
E2
330
1F
100
AcDbEntity
  8
図面枠ﾚｲﾔ
  6
CONTINUOUS
 62
     7
100
AcDbText
 10
566.0
 20
22.0
 30
0.0
 40
6.0
  1
ＷＪ－２００　ＵＢ　ＷＳＲ
 41
0.7878787878787881
  7
FX_VECTOR
 72
     5
 11
618.0
 21
22.0
 31
0.0
100
AcDbText
  0
TEXT
  5
E3
330
1F
100
AcDbEntity
  8
図面枠ﾚｲﾔ
  6
CONTINUOUS
 62
     7
100
AcDbText
 10
666.0
 20
22.0
 30
0.0
 40
6.0
  1
Ｗ５０Ａ２ＢＥＡ－Ｃ０２
 41
0.7887323943661974
  7
FX_VECTOR
 72
     5
 11
714.0
 21
22.0
 31
0.0
100
AcDbText
  0
TEXT
  5
E4
330
1F
100
AcDbEntity
  8
GR1
  6
CONTINUOUS
 62
     7
100
AcDbText
 10
540.5344848632812
 20
382.9467468261719
 30
0.0
 40
4.0
  1
１４０
 41
0.9264705882352942
  7
FX_VECTOR
 72
     5
 11
549.5344848632812
 21
382.9467468261719
 31
0.0
100
AcDbText
  0
LINE
  5
E5
330
1F
100
AcDbEntity
  8
GR1
  6
CONTINUOUS
 62
     7
100
AcDbLine
 10
475.03444971455
 20
424.6704336907175
 30
0.0
 11
475.03444971455
 21
380.9467511738319
 31
0.0
  0
LINE
  5
E6
330
1F
100
AcDbEntity
  8
GR1
  6
CONTINUOUS
 62
     7
100
AcDbLine
 10
615.03444971455
 20
424.6704336907175
 30
0.0
 11
615.03444971455
 21
380.9467511738319
 31
0.0
  0
LINE
  5
E7
330
1F
100
AcDbEntity
  8
GR1
  6
CONTINUOUS
 62
     7
100
AcDbLine
 10
475.03444971455
 20
381.9467511738319
 30
0.0
 11
615.03444971455
 21
381.9467511738319
 31
0.0
  0
INSERT
  5
E8
330
1F
100
AcDbEntity
  8
GR1
  6
CONTINUOUS
 62
     7
100
AcDbBlockReference
  2
FXTIP_ARROW_S
 10
475.03444971455
 20
381.9467511738319
 30
0.0
 41
4.0
 42
4.0
 50
180.0
  0
INSERT
  5
E9
330
1F
100
AcDbEntity
  8
GR1
  6
CONTINUOUS
 62
     7
100
AcDbBlockReference
  2
FXTIP_ARROW_E
 10
615.03444971455
 20
381.9467511738319
 30
0.0
 41
4.0
 42
4.0
 50
360.0
  0
TEXT
  5
EA
330
1F
100
AcDbEntity
  8
GR1
  6
CONTINUOUS
 62
     7
100
AcDbText
 10
540.5344848632812
 20
392.9467468261719
 30
0.0
 40
4.0
  1
１１２
 41
0.9264705882352942
  7
FX_VECTOR
 72
     5
 11
549.5344848632812
 21
392.9467468261719
 31
0.0
100
AcDbText
  0
LINE
  5
EB
330
1F
100
AcDbEntity
  8
GR1
  6
CONTINUOUS
 62
     7
100
AcDbLine
 10
489.03444971455
 20
418.1798739392093
 30
0.0
 11
489.03444971455
 21
390.9467511738319
 31
0.0
  0
LINE
  5
EC
330
1F
100
AcDbEntity
  8
GR1
  6
CONTINUOUS
 62
     7
100
AcDbLine
 10
601.03444971455
 20
417.8235575203095
 30
0.0
 11
601.03444971455
 21
390.9467511738319
 31
0.0
  0
LINE
  5
ED
330
1F
100
AcDbEntity
  8
GR1
  6
CONTINUOUS
 62
     7
100
AcDbLine
 10
489.03444971455
 20
391.9467511738319
 30
0.0
 11
601.03444971455
 21
391.9467511738319
 31
0.0
  0
INSERT
  5
EE
330
1F
100
AcDbEntity
  8
GR1
  6
CONTINUOUS
 62
     7
100
AcDbBlockReference
  2
FXTIP_ARROW_S
 10
489.03444971455
 20
391.9467511738319
 30
0.0
 41
4.0
 42
4.0
 50
180.0
  0
INSERT
  5
EF
330
1F
100
AcDbEntity
  8
GR1
  6
CONTINUOUS
 62
     7
100
AcDbBlockReference
  2
FXTIP_ARROW_E
 10
601.03444971455
 20
391.9467511738319
 30
0.0
 41
4.0
 42
4.0
 50
360.0
  0
TEXT
  5
F0
330
1F
100
AcDbEntity
  8
GR1
  6
CONTINUOUS
 62
     7
100
AcDbText
 10
540.5344848632812
 20
402.9467468261719
 30
0.0
 40
4.0
  1
１００
 41
0.9264705882352942
  7
FX_VECTOR
 72
     5
 11
549.5344848632812
 21
402.9467468261719
 31
0.0
100
AcDbText
  0
LINE
  5
F1
330
1F
100
AcDbEntity
  8
GR1
  6
CONTINUOUS
 62
     7
100
AcDbLine
 10
495.03444971455
 20
424.2329806813822
 30
0.0
 11
495.03444971455
 21
400.9467511738319
 31
0.0
  0
LINE
  5
F2
330
1F
100
AcDbEntity
  8
GR1
  6
CONTINUOUS
 62
     7
100
AcDbLine
 10
595.03444971455
 20
424.0109843385136
 30
0.0
 11
595.03444971455
 21
400.9467511738319
 31
0.0
  0
LINE
  5
F3
330
1F
100
AcDbEntity
  8
GR1
  6
CONTINUOUS
 62
     7
100
AcDbLine
 10
495.03444971455
 20
401.9467511738319
 30
0.0
 11
595.03444971455
 21
401.9467511738319
 31
0.0
  0
INSERT
  5
F4
330
1F
100
AcDbEntity
  8
GR1
  6
CONTINUOUS
 62
     7
100
AcDbBlockReference
  2
FXTIP_ARROW_S
 10
495.03444971455
 20
401.9467511738319
 30
0.0
 41
4.0
 42
4.0
 50
180.0
  0
INSERT
  5
F5
330
1F
100
AcDbEntity
  8
GR1
  6
CONTINUOUS
 62
     7
100
AcDbBlockReference
  2
FXTIP_ARROW_E
 10
595.03444971455
 20
401.9467511738319
 30
0.0
 41
4.0
 42
4.0
 50
360.0
  0
TEXT
  5
F6
330
1F
100
AcDbEntity
  8
GR1
  6
CONTINUOUS
 62
     7
100
AcDbText
 10
625.5245300424247
 20
393.659844983831
 30
0.0
 40
4.528974533081055
  1
４－１１．５
 50
44.99999999999957
 41
0.4650122110586429
  7
FX_VECTOR
 72
     5
 11
632.9704650747628
 21
401.105780016169
 31
0.0
100
AcDbText
  0
LINE
  5
F7
330
1F
100
AcDbEntity
  8
GR1
  6
CONTINUOUS
 62
     7
100
AcDbLine
 10
597.6756925039139
 20
420.8974629177083
 30
0.0
 11
626.8147238374835
 21
391.7584315841385
 31
0.0
  0
LINE
  5
F8
330
1F
100
AcDbEntity
  8
GR1
  6
CONTINUOUS
 62
     7
100
AcDbLine
 10
605.8074204875592
 20
429.0291909013536
 30
0.0
 11
634.9464518211289
 21
399.8901595677838
 31
0.0
  0
LINE
  5
F9
330
1F
100
AcDbEntity
  8
GR1
  6
CONTINUOUS
 62
     7
100
AcDbLine
 10
626.107617056297
 20
392.4655383653251
 30
0.0
 11
634.2393450399424
 21
400.5972663489704
 31
0.0
  0
INSERT
  5
FA
330
1F
100
AcDbEntity
  8
GR1
  6
CONTINUOUS
 62
     7
100
AcDbBlockReference
  2
FXTIP_ARROW_S
 10
626.107617056297
 20
392.4655383653251
 30
0.0
 41
4.0
 42
4.0
 50
225.0
  0
INSERT
  5
FB
330
1F
100
AcDbEntity
  8
GR1
  6
CONTINUOUS
 62
     7
100
AcDbBlockReference
  2
FXTIP_ARROW_E
 10
634.2393450399424
 20
400.5972663489704
 30
0.0
 41
4.0
 42
4.0
 50
45.0
  0
LWPOLYLINE
  5
FC
330
1F
100
AcDbEntity
  8
GR1
  6
CONTINUOUS
 62
     3
100
AcDbPolyline
 90
        2
 70
     0
 43
0.0
 10
555.4242625217685
 20
258.1985363984672
 42
0.0339553303251687
 10
520.7850923954963
 20
200.5496795548808
  0
TEXT
  5
FD
330
1F
100
AcDbEntity
  8
GR1
  6
CONTINUOUS
 62
     7
100
AcDbText
 10
633.8926391601562
 20
213.7605590820312
 30
0.0
 40
4.0
  1
２５０
 50
90.0
 41
0.9264705882352942
  7
FX_VECTOR
 72
     5
 11
633.8926391601562
 21
222.7605590820312
 31
0.0
100
AcDbText
  0
LINE
  5
FE
330
1F
100
AcDbEntity
  8
GR1
  6
CONTINUOUS
 62
     7
100
AcDbLine
 10
616.03444971455
 20
343.2605363984674
 30
0.0
 11
635.892638712815
 21
343.2605363984674
 31
0.0
  0
LINE
  5
FF
330
1F
100
AcDbEntity
  8
GR1
  6
CONTINUOUS
 62
     7
100
AcDbLine
 10
488.03444971455
 20
93.2605363807753
 30
0.0
 11
635.892638712815
 21
93.2605363807753
 31
0.0
  0
LINE
  5
100
330
1F
100
AcDbEntity
  8
GR1
  6
CONTINUOUS
 62
     7
100
AcDbLine
 10
634.892638712815
 20
343.2605363984674
 30
0.0
 11
634.892638712815
 21
93.2605363807753
 31
0.0
  0
INSERT
  5
101
330
1F
100
AcDbEntity
  8
GR1
  6
CONTINUOUS
 62
     7
100
AcDbBlockReference
  2
FXTIP_ARROW_S
 10
634.892638712815
 20
343.2605363984674
 30
0.0
 41
4.0
 42
4.0
 50
90.0
  0
INSERT
  5
102
330
1F
100
AcDbEntity
  8
GR1
  6
CONTINUOUS
 62
     7
100
AcDbBlockReference
  2
FXTIP_ARROW_E
 10
634.892638712815
 20
93.2605363807753
 30
0.0
 41
4.0
 42
4.0
 50
270.0
  0
TEXT
  5
103
330
1F
100
AcDbEntity
  8
GR1
  6
CONTINUOUS
 62
     7
100
AcDbText
 10
623.8926391601562
 20
263.7605285644531
 30
0.0
 40
4.0
  1
１５０
 50
90.0
 41
0.9264705882352942
  7
FX_VECTOR
 72
     5
 11
623.8926391601562
 21
272.7605285644531
 31
0.0
100
AcDbText
  0
LINE
  5
104
330
1F
100
AcDbEntity
  8
GR1
  6
CONTINUOUS
 62
     7
100
AcDbLine
 10
591.6558493253964
 20
193.2605363984674
 30
0.0
 11
625.892638712815
 21
193.2605363984674
 31
0.0
  0
LINE
  5
105
330
1F
100
AcDbEntity
  8
GR1
  6
CONTINUOUS
 62
     7
100
AcDbLine
 10
624.892638712815
 20
193.2605363984674
 30
0.0
 11
624.892638712815
 21
343.2605363984674
 31
0.0
  0
INSERT
  5
106
330
1F
100
AcDbEntity
  8
GR1
  6
CONTINUOUS
 62
     7
100
AcDbBlockReference
  2
FXTIP_ARROW_S
 10
624.892638712815
 20
193.2605363984674
 30
0.0
 41
4.0
 42
4.0
 50
270.0
  0
INSERT
  5
107
330
1F
100
AcDbEntity
  8
GR1
  6
CONTINUOUS
 62
     7
100
AcDbBlockReference
  2
FXTIP_ARROW_E
 10
624.892638712815
 20
343.2605363984674
 30
0.0
 41
4.0
 42
4.0
 50
90.0
  0
TEXT
  5
108
330
1F
100
AcDbEntity
  8
GR1
  6
CONTINUOUS
 62
     7
100
AcDbText
 10
513.0344848632812
 20
83.9241943359375
 30
0.0
 40
4.0
  1
５８
 41
0.9545454545454547
  7
FX_VECTOR
 72
     5
 11
519.0344848632812
 21
83.9241943359375
 31
0.0
100
AcDbText
  0
LINE
  5
109
330
1F
100
AcDbEntity
  8
GR1
  6
CONTINUOUS
 62
     7
100
AcDbLine
 10
487.03444971455
 20
89.13024664202385
 30
0.0
 11
487.03444971455
 21
81.9241965504865
 31
0.0
  0
LINE
  5
10A
330
1F
100
AcDbEntity
  8
GR1
  6
CONTINUOUS
 62
     7
100
AcDbLine
 10
545.03444971455
 20
224.9085974990576
 30
0.0
 11
545.03444971455
 21
81.9241965504865
 31
0.0
  0
LINE
  5
10B
330
1F
100
AcDbEntity
  8
GR1
  6
CONTINUOUS
 62
     7
100
AcDbLine
 10
487.03444971455
 20
82.9241965504865
 30
0.0
 11
545.03444971455
 21
82.9241965504865
 31
0.0
  0
INSERT
  5
10C
330
1F
100
AcDbEntity
  8
GR1
  6
CONTINUOUS
 62
     7
100
AcDbBlockReference
  2
FXTIP_ARROW_S
 10
487.03444971455
 20
82.9241965504865
 30
0.0
 41
4.0
 42
4.0
 50
180.0
  0
INSERT
  5
10D
330
1F
100
AcDbEntity
  8
GR1
  6
CONTINUOUS
 62
     7
100
AcDbBlockReference
  2
FXTIP_ARROW_E
 10
545.03444971455
 20
82.9241965504865
 30
0.0
 41
4.0
 42
4.0
 50
360.0
  0
LINE
  5
10E
330
1F
100
AcDbEntity
  8
GR1
  6
CONTINUOUS
 62
     3
100
AcDbLine
 10
163.9377434663392
 20
343.2605363984674
 30
0.0
 11
303.9377434663392
 21
343.2605363984674
 31
0.0
  0
LINE
  5
10F
330
1F
100
AcDbEntity
  8
GR1
  6
CONTINUOUS
 62
     3
100
AcDbLine
 10
303.9377434663392
 20
343.2605363984674
 30
0.0
 11
303.9377434663392
 21
339.2605363984674
 31
0.0
  0
LINE
  5
110
330
1F
100
AcDbEntity
  8
GR1
  6
CONTINUOUS
 62
     3
100
AcDbLine
 10
303.9377434663392
 20
339.2605363984674
 30
0.0
 11
163.9377434663392
 21
339.2605363984674
 31
0.0
  0
LINE
  5
111
330
1F
100
AcDbEntity
  8
GR1
  6
CONTINUOUS
 62
     3
100
AcDbLine
 10
163.9377434663392
 20
339.2605363984674
 30
0.0
 11
163.9377434663392
 21
343.2605363984674
 31
0.0
  0
ARC
  5
112
330
1F
100
AcDbEntity
  8
GR1
  6
CONTINUOUS
 62
     3
100
AcDbCircle
 10
186.368490764177
 20
342.4105363984674
 30
0.0
 40
9.0
100
AcDbArc
 50
200.4873151147226
 51
270.0
  0
LINE
  5
113
330
1F
100
AcDbEntity
  8
GR1
  6
CONTINUOUS
 62
     3
100
AcDbLine
 10
186.368490764177
 20
333.4105363984674
 30
0.0
 11
281.5069961685014
 21
333.4105363984674
 31
0.0
  0
ARC
  5
114
330
1F
100
AcDbEntity
  8
GR1
  6
CONTINUOUS
 62
     3
100
AcDbCircle
 10
281.5069961685013
 20
342.4105363984674
 30
0.0
 40
9.0
100
AcDbArc
 50
270.0
 51
339.5126848852775
  0
LINE
  5
115
330
1F
100
AcDbEntity
  8
GR1
  6
CONTINUOUS
 62
     3
100
AcDbLine
 10
285.9377434663392
 20
332.3126827482973
 30
0.0
 11
181.9377434663392
 21
332.3126827482973
 31
0.0
  0
LINE
  5
116
330
1F
100
AcDbEntity
  8
GR1
  6
CONTINUOUS
 62
     3
100
AcDbLine
 10
181.9377434663392
 20
332.3126827482973
 30
0.0
 11
182.298200454542
 21
325.599909984388
 31
0.0
  0
ARC
  5
117
330
1F
100
AcDbEntity
  8
GR1
  6
CONTINUOUS
 62
     3
100
AcDbCircle
 10
189.2761404943182
 20
326.1985363984674
 30
0.0
 40
7.0
100
AcDbArc
 50
183.0736700374617
 51
270.0
  0
LINE
  5
118
330
1F
100
AcDbEntity
  8
GR1
  6
CONTINUOUS
 62
     3
100
AcDbLine
 10
189.2761404943182
 20
319.1985363984674
 30
0.0
 11
278.5993464383602
 21
319.1985363984674
 31
0.0
  0
ARC
  5
119
330
1F
100
AcDbEntity
  8
GR1
  6
CONTINUOUS
 62
     3
100
AcDbCircle
 10
278.5993464383602
 20
326.1985363984674
 30
0.0
 40
7.0
100
AcDbArc
 50
270.0
 51
356.9263299625382
  0
LINE
  5
11A
330
1F
100
AcDbEntity
  8
GR1
  6
CONTINUOUS
 62
     3
100
AcDbLine
 10
285.5772864781363
 20
325.599909984388
 30
0.0
 11
285.9377434663392
 21
332.3126827482973
 31
0.0
  0
ARC
  5
11B
330
1F
100
AcDbEntity
  8
GR1
  6
CONTINUOUS
 62
     3
100
AcDbCircle
 10
271.9377434663392
 20
312.1985363984673
 30
0.0
 40
7.0
100
AcDbArc
 50
0.0
 51
90.0
  0
LINE
  5
11C
330
1F
100
AcDbEntity
  8
GR1
  6
CONTINUOUS
 62
     3
100
AcDbLine
 10
278.9377434663392
 20
312.1985363984673
 30
0.0
 11
279.7377434663391
 21
244.8985363984676
 31
0.0
  0
LINE
  5
11D
330
1F
100
AcDbEntity
  8
GR1
  6
CONTINUOUS
 62
     3
100
AcDbLine
 10
262.7377434663392
 20
167.8985363984674
 30
0.0
 11
266.7377434663392
 21
167.8985363984674
 31
0.0
  0
LINE
  5
11E
330
1F
100
AcDbEntity
  8
GR1
  6
CONTINUOUS
 62
     3
100
AcDbLine
 10
266.7377434663392
 20
167.8985363984674
 30
0.0
 11
265.9377434663392
 21
302.1985363984674
 31
0.0
  0
ARC
  5
11F
330
1F
100
AcDbEntity
  8
GR1
  6
CONTINUOUS
 62
     3
100
AcDbCircle
 10
256.9377434663392
 20
302.1985363984674
 30
0.0
 40
9.0
100
AcDbArc
 50
0.0
 51
90.0
  0
LINE
  5
120
330
1F
100
AcDbEntity
  8
GR1
  6
CONTINUOUS
 62
     3
100
AcDbLine
 10
256.9377434663392
 20
311.1985363984674
 30
0.0
 11
210.9377434663392
 21
311.1985363984674
 31
0.0
  0
ARC
  5
121
330
1F
100
AcDbEntity
  8
GR1
  6
CONTINUOUS
 62
     3
100
AcDbCircle
 10
210.9377434663392
 20
302.1985363984674
 30
0.0
 40
9.0
100
AcDbArc
 50
90.0
 51
180.0
  0
LINE
  5
122
330
1F
100
AcDbEntity
  8
GR1
  6
CONTINUOUS
 62
     3
100
AcDbLine
 10
201.9377434663392
 20
302.1985363984674
 30
0.0
 11
201.1377434663392
 21
167.8985363984674
 31
0.0
  0
LINE
  5
123
330
1F
100
AcDbEntity
  8
GR1
  6
CONTINUOUS
 62
     3
100
AcDbLine
 10
201.1377434663392
 20
167.8985363984674
 30
0.0
 11
205.1378144329544
 21
167.8985363984674
 31
0.0
  0
LINE
  5
124
330
1F
100
AcDbEntity
  8
GR1
  6
CONTINUOUS
 62
     3
100
AcDbLine
 10
205.1378144329544
 20
167.8985363984674
 30
0.0
 11
205.9139871805344
 21
298.1985363984674
 31
0.0
  0
LINE
  5
125
330
1F
100
AcDbEntity
  8
GR1
  6
CONTINUOUS
 62
     3
100
AcDbLine
 10
201.9377434663392
 20
298.1985363984674
 30
0.0
 11
265.9377434663392
 21
298.1985363984674
 31
0.0
  0
LINE
  5
126
330
1F
100
AcDbEntity
  8
GR1
  6
CONTINUOUS
 62
     3
100
AcDbLine
 10
261.9614997521439
 20
298.1985363984674
 30
0.0
 11
262.7378144316953
 21
167.8747095687748
 31
0.0
  0
LINE
  5
127
330
1F
100
AcDbEntity
  8
GR1
  6
CONTINUOUS
 62
     3
100
AcDbLine
 10
266.5866667723704
 20
180.2587275901808
 30
0.0
 11
269.5866667723704
 21
180.2587275901808
 31
0.0
  0
LINE
  5
128
330
1F
100
AcDbEntity
  8
GR1
  6
CONTINUOUS
 62
     3
100
AcDbLine
 10
269.5866667723704
 20
180.2587275901808
 30
0.0
 11
271.0866667723704
 21
183.2587275901808
 31
0.0
  0
LINE
  5
129
330
1F
100
AcDbEntity
  8
GR1
  6
CONTINUOUS
 62
     3
100
AcDbLine
 10
271.0866667723704
 20
183.2587275901808
 30
0.0
 11
271.0866667723704
 21
203.2587275901808
 31
0.0
  0
LINE
  5
12A
330
1F
100
AcDbEntity
  8
GR1
  6
CONTINUOUS
 62
     3
100
AcDbLine
 10
271.0866667723704
 20
203.2587275901808
 30
0.0
 11
269.5866667723704
 21
206.2587275901808
 31
0.0
  0
LINE
  5
12B
330
1F
100
AcDbEntity
  8
GR1
  6
CONTINUOUS
 62
     3
100
AcDbLine
 10
269.5866667723704
 20
206.2587275901808
 30
0.0
 11
266.5866667723704
 21
206.2587275901808
 31
0.0
  0
LINE
  5
12C
330
1F
100
AcDbEntity
  8
GR1
  6
CONTINUOUS
 62
     3
100
AcDbLine
 10
266.5866667723704
 20
206.2587275901808
 30
0.0
 11
266.5866667723704
 21
180.2587275901808
 31
0.0
  0
ARC
  5
12D
330
1F
100
AcDbEntity
  8
GR1
  6
CONTINUOUS
 62
     3
100
AcDbCircle
 10
313.3746550176235
 20
187.9548276840312
 30
0.0
 40
46.8982065210975
100
AcDbArc
 50
152.4253834018175
 51
157.9081921039511
  0
ARC
  5
12E
330
1F
100
AcDbEntity
  8
GR1
  6
CONTINUOUS
 62
     3
100
AcDbCircle
 10
193.0322969492104
 20
245.9123709736504
 30
0.0
 40
86.71137362699606
100
AcDbArc
 50
335.2895430695359
 51
359.3300790493373
  0
ARC
  5
12F
330
1F
100
AcDbEntity
  8
GR1
  6
CONTINUOUS
 62
     3
100
AcDbCircle
 10
200.7888201603079
 20
204.7605363984674
 30
0.0
 40
0.5
100
AcDbArc
 50
0.0
 51
90.0
  0
LINE
  5
130
330
1F
100
AcDbEntity
  8
GR1
  6
CONTINUOUS
 62
     3
100
AcDbLine
 10
200.7888201603079
 20
205.2605363984674
 30
0.0
 11
198.2888201603079
 21
205.2605363984675
 31
0.0
  0
ARC
  5
131
330
1F
100
AcDbEntity
  8
GR1
  6
CONTINUOUS
 62
     3
100
AcDbCircle
 10
198.2888201603079
 20
204.7605363984675
 30
0.0
 40
0.5
100
AcDbArc
 50
90.0
 51
180.0
  0
LINE
  5
132
330
1F
100
AcDbEntity
  8
GR1
  6
CONTINUOUS
 62
     3
100
AcDbLine
 10
197.7888201603079
 20
204.7605363984675
 30
0.0
 11
197.7888201603079
 21
181.7605363984675
 31
0.0
  0
ARC
  5
133
330
1F
100
AcDbEntity
  8
GR1
  6
CONTINUOUS
 62
     3
100
AcDbCircle
 10
198.2888201603079
 20
181.7605363984675
 30
0.0
 40
0.5
100
AcDbArc
 50
180.0
 51
270.0
  0
LINE
  5
134
330
1F
100
AcDbEntity
  8
GR1
  6
CONTINUOUS
 62
     3
100
AcDbLine
 10
198.2888201603079
 20
181.2605363984675
 30
0.0
 11
200.7888201603079
 21
181.2605363984675
 31
0.0
  0
ARC
  5
135
330
1F
100
AcDbEntity
  8
GR1
  6
CONTINUOUS
 62
     3
100
AcDbCircle
 10
200.7888201603079
 20
181.7605363984675
 30
0.0
 40
0.5
100
AcDbArc
 50
270.0
 51
0.0
  0
LINE
  5
136
330
1F
100
AcDbEntity
  8
GR1
  6
CONTINUOUS
 62
     3
100
AcDbLine
 10
197.7888201603078
 20
182.2605363984675
 30
0.0
 11
196.8063397880603
 21
180.5588304762958
 31
0.0
  0
ARC
  5
137
330
1F
100
AcDbEntity
  8
GR1
  6
CONTINUOUS
 62
     3
100
AcDbCircle
 10
192.1660101137786
 20
183.7342569568389
 30
0.0
 40
5.622810046529507
100
AcDbArc
 50
325.6157525319481
 51
34.38424746805076
  0
LINE
  5
138
330
1F
100
AcDbEntity
  8
GR1
  6
CONTINUOUS
 62
     3
100
AcDbLine
 10
196.8063397880604
 20
186.9096834373814
 30
0.0
 11
190.7713005325551
 21
186.9096834373815
 31
0.0
  0
ARC
  5
139
330
1F
100
AcDbEntity
  8
GR1
  6
CONTINUOUS
 62
     3
100
AcDbCircle
 10
195.4116302068369
 20
183.7342569568389
 30
0.0
 40
5.622810046529507
100
AcDbArc
 50
145.6157525319492
 51
214.3842474680519
  0
LINE
  5
13A
330
1F
100
AcDbEntity
  8
GR1
  6
CONTINUOUS
 62
     3
100
AcDbLine
 10
190.7713005325552
 20
180.558830476296
 30
0.0
 11
189.7888201603077
 21
182.2605363984675
 31
0.0
  0
LINE
  5
13B
330
1F
100
AcDbEntity
  8
GR1
  6
CONTINUOUS
 62
     3
100
AcDbLine
 10
189.7888201603078
 20
182.2605363984674
 30
0.0
 11
189.7888201603078
 21
204.2605363984676
 31
0.0
  0
LINE
  5
13C
330
1F
100
AcDbEntity
  8
GR1
  6
CONTINUOUS
 62
     3
100
AcDbLine
 10
189.7888201603077
 20
204.2605363984675
 30
0.0
 11
190.7713005325552
 21
205.962242320639
 31
0.0
  0
ARC
  5
13D
330
1F
100
AcDbEntity
  8
GR1
  6
CONTINUOUS
 62
     3
100
AcDbCircle
 10
195.4116302068369
 20
202.786815840096
 30
0.0
 40
5.622810046529507
100
AcDbArc
 50
145.6157525319481
 51
214.3842474680508
  0
ARC
  5
13E
330
1F
100
AcDbEntity
  8
GR1
  6
CONTINUOUS
 62
     3
100
AcDbCircle
 10
210.8063397880624
 20
193.2605363984674
 30
0.0
 40
21.01751962775467
100
AcDbArc
 50
162.4120462260082
 51
197.5879537739922
  0
LINE
  5
13F
330
1F
100
AcDbEntity
  8
GR1
  6
CONTINUOUS
 62
     3
100
AcDbLine
 10
189.7888201603079
 20
186.2605363984674
 30
0.0
 11
188.6377434663392
 21
186.2605363984674
 31
0.0
  0
LINE
  5
140
330
1F
100
AcDbEntity
  8
GR1
  6
CONTINUOUS
 62
     3
100
AcDbLine
 10
188.6377434663392
 20
186.2605363984674
 30
0.0
 11
187.6377434663392
 21
187.2605363984674
 31
0.0
  0
LINE
  5
141
330
1F
100
AcDbEntity
  8
GR1
  6
CONTINUOUS
 62
     3
100
AcDbLine
 10
187.6377434663392
 20
187.2605363984674
 30
0.0
 11
187.6377434663392
 21
199.2605363984674
 31
0.0
  0
LINE
  5
142
330
1F
100
AcDbEntity
  8
GR1
  6
CONTINUOUS
 62
     3
100
AcDbLine
 10
187.6377434663392
 20
199.2605363984674
 30
0.0
 11
188.6377434663392
 21
200.2605363984674
 31
0.0
  0
LINE
  5
143
330
1F
100
AcDbEntity
  8
GR1
  6
CONTINUOUS
 62
     3
100
AcDbLine
 10
188.6377434663392
 20
200.2605363984674
 30
0.0
 11
189.7888201603079
 21
200.2605363984674
 31
0.0
  0
LINE
  5
144
330
1F
100
AcDbEntity
  8
GR1
  6
CONTINUOUS
 62
     3
100
AcDbLine
 10
190.7713005325551
 20
199.6113893595532
 30
0.0
 11
196.8063397880604
 21
199.6113893595532
 31
0.0
  0
ARC
  5
145
330
1F
100
AcDbEntity
  8
GR1
  6
CONTINUOUS
 62
     3
100
AcDbCircle
 10
192.1660101137786
 20
202.7868158400961
 30
0.0
 40
5.622810046529507
100
AcDbArc
 50
325.6157525319492
 51
34.38424746805187
  0
LINE
  5
146
330
1F
100
AcDbEntity
  8
GR1
  6
CONTINUOUS
 62
     3
100
AcDbLine
 10
196.8063397880603
 20
205.962242320639
 30
0.0
 11
197.7888201603078
 21
204.2605363984675
 31
0.0
  0
ARC
  5
147
330
1F
100
AcDbEntity
  8
GR1
  6
CONTINUOUS
 62
     3
100
AcDbCircle
 10
154.5008319150548
 20
187.9548276840312
 30
0.0
 40
46.8982065210975
100
AcDbArc
 50
21.56471919813178
 51
27.57461659818252
  0
LINE
  5
148
330
1F
100
AcDbEntity
  8
GR1
  6
CONTINUOUS
 62
     3
100
AcDbLine
 10
196.8063397880604
 20
205.962242320639
 30
0.0
 11
190.7713005325551
 21
205.962242320639
 31
0.0
  0
ARC
  5
149
330
1F
100
AcDbEntity
  8
GR1
  6
CONTINUOUS
 62
     3
100
AcDbCircle
 10
176.7713005325532
 20
193.2605363984675
 30
0.0
 40
21.01751962775467
100
AcDbArc
 50
342.4120462260076
 51
17.5879537739918
  0
LINE
  5
14A
330
1F
100
AcDbEntity
  8
GR1
  6
CONTINUOUS
 62
     3
100
AcDbLine
 10
196.8063397880604
 20
180.5588304762958
 30
0.0
 11
190.7713005325551
 21
180.558830476296
 31
0.0
  0
CIRCLE
  5
14B
330
1F
100
AcDbEntity
  8
GR1
  6
CONTINUOUS
 62
     3
100
AcDbCircle
 10
545.03444971455
 20
481.6704336907175
 30
0.0
 40
26.5
  0
LINE
  5
14C
330
1F
100
AcDbEntity
  8
GR1
  6
CONTINUOUS
 62
     3
100
AcDbLine
 10
508.8273512529685
 20
180.6482530328958
 30
0.0
 11
567.4414749023198
 21
278.1985363984674
 31
0.0
  0
ARC
  5
14D
330
1F
100
AcDbEntity
  8
GR1
  6
CONTINUOUS
 62
     3
100
AcDbCircle
 10
487.03444971455
 20
192.8985363984673
 30
0.0
 40
25.00000000000001
100
AcDbArc
 50
169.0628453779274
 51
330.6586734343936
  0
CIRCLE
  5
14E
330
1F
100
AcDbEntity
  8
GR1
  6
CONTINUOUS
 62
     3
100
AcDbCircle
 10
487.03444971455
 20
193.2605363984674
 30
0.0
 40
12.99819119171332
  0
LINE
  5
14F
330
1F
100
AcDbEntity
  8
GR1
  6
CONTINUOUS
 62
     3
100
AcDbLine
 10
489.03444971455
 20
411.6704336907175
 30
0.0
 11
601.03444971455
 21
411.6704336907175
 31
0.0
  0
ARC
  5
150
330
1F
100
AcDbEntity
  8
GR1
  6
CONTINUOUS
 62
     3
100
AcDbCircle
 10
601.03444971455
 20
425.6704336907175
 30
0.0
 40
14.0
100
AcDbArc
 50
270.0
 51
0.0
  0
LINE
  5
151
330
1F
100
AcDbEntity
  8
GR1
  6
CONTINUOUS
 62
     3
100
AcDbLine
 10
615.03444971455
 20
425.6704336907175
 30
0.0
 11
615.03444971455
 21
537.6704336907175
 31
0.0
  0
LINE
  5
152
330
1F
100
AcDbEntity
  8
GR1
  6
CONTINUOUS
 62
     3
100
AcDbLine
 10
599.1003137063726
 20
435.7362976825401
 30
0.0
 11
605.1003137063726
 21
429.7362976825401
 31
0.0
  0
ARC
  5
153
330
1F
100
AcDbEntity
  8
GR1
  6
CONTINUOUS
 62
     3
100
AcDbCircle
 10
595.03444971455
 20
431.6704336907175
 30
0.0
 40
5.75
100
AcDbArc
 50
44.99999999999999
 51
224.9999999999998
  0
LINE
  5
154
330
1F
100
AcDbEntity
  8
GR1
  6
CONTINUOUS
 62
     3
100
AcDbLine
 10
590.9685857227272
 20
427.6045696988948
 30
0.0
 11
596.9685857227272
 21
421.6045696988948
 31
0.0
  0
ARC
  5
155
330
1F
100
AcDbEntity
  8
GR1
  6
CONTINUOUS
 62
     3
100
AcDbCircle
 10
601.03444971455
 20
425.6704336907175
 30
0.0
 40
5.75
100
AcDbArc
 50
225.0
 51
45.00000000000041
  0
CIRCLE
  5
156
330
1F
100
AcDbEntity
  8
GR1
  6
CONTINUOUS
 62
     3
100
AcDbCircle
 10
545.03444971455
 20
481.6704336907175
 30
0.0
 40
16.75
  0
LINE
  5
157
330
1F
100
AcDbEntity
  8
GR1
  6
CONTINUOUS
 62
     3
100
AcDbLine
 10
499.1003137063727
 20
427.6045696988948
 30
0.0
 11
493.1003137063727
 21
421.6045696988948
 31
0.0
  0
ARC
  5
158
330
1F
100
AcDbEntity
  8
GR1
  6
CONTINUOUS
 62
     3
100
AcDbCircle
 10
495.03444971455
 20
431.6704336907175
 30
0.0
 40
5.75
100
AcDbArc
 50
315.0
 51
134.9999999999999
  0
LINE
  5
159
330
1F
100
AcDbEntity
  8
GR1
  6
CONTINUOUS
 62
     3
100
AcDbLine
 10
490.9685857227273
 20
435.7362976825401
 30
0.0
 11
484.9685857227273
 21
429.7362976825401
 31
0.0
  0
ARC
  5
15A
330
1F
100
AcDbEntity
  8
GR1
  6
CONTINUOUS
 62
     3
100
AcDbCircle
 10
489.03444971455
 20
425.6704336907175
 30
0.0
 40
5.75
100
AcDbArc
 50
134.9999999999996
 51
315.0
  0
LINE
  5
15B
330
1F
100
AcDbEntity
  8
GR1
  6
CONTINUOUS
 62
     3
100
AcDbLine
 10
475.03444971455
 20
425.6704336907175
 30
0.0
 11
475.03444971455
 21
537.6704336907175
 31
0.0
  0
LINE
  5
15C
330
1F
100
AcDbEntity
  8
GR1
  6
CONTINUOUS
 62
     3
100
AcDbLine
 10
474.03444971455
 20
453.6704336907177
 30
0.0
 11
462.03444971455
 21
453.6704336907177
 31
0.0
  0
LINE
  5
15D
330
1F
100
AcDbEntity
  8
GR1
  6
CONTINUOUS
 62
     3
100
AcDbLine
 10
462.03444971455
 20
453.6704336907177
 30
0.0
 11
462.03444971455
 21
449.6704336907177
 31
0.0
  0
LINE
  5
15E
330
1F
100
AcDbEntity
  8
GR1
  6
CONTINUOUS
 62
     3
100
AcDbLine
 10
462.03444971455
 20
449.6704336907177
 30
0.0
 11
475.03444971455
 21
449.6704336907177
 31
0.0
  0
ARC
  5
15F
330
1F
100
AcDbEntity
  8
GR1
  6
CONTINUOUS
 62
     3
100
AcDbCircle
 10
489.03444971455
 20
425.6704336907175
 30
0.0
 40
14.0
100
AcDbArc
 50
180.0
 51
270.0
  0
ARC
  5
160
330
1F
100
AcDbEntity
  8
GR1
  6
CONTINUOUS
 62
     3
100
AcDbCircle
 10
195.9377434663392
 20
312.1985363984673
 30
0.0
 40
7.0
100
AcDbArc
 50
90.0
 51
180.0
  0
LINE
  5
161
330
1F
100
AcDbEntity
  8
GR1
  6
CONTINUOUS
 62
     3
100
AcDbLine
 10
188.9377434663392
 20
312.1985363984673
 30
0.0
 11
188.1377434663392
 21
244.8985363984676
 31
0.0
  0
ARC
  5
162
330
1F
100
AcDbEntity
  8
GR1
  6
CONTINUOUS
 62
     3
100
AcDbCircle
 10
274.8431899834679
 20
245.9123709736504
 30
0.0
 40
86.71137362699606
100
AcDbArc
 50
180.6699209506627
 51
204.7104569304641
  0
LINE
  5
163
330
1F
100
AcDbEntity
  8
GR1
  6
DASHDOT
 62
     6
100
AcDbLine
 10
233.9377434663392
 20
90.00142340016396
 30
0.0
 11
233.9377434663392
 21
348.6784930548142
 31
0.0
  0
LINE
  5
164
330
1F
100
AcDbEntity
  8
GR1
  6
CONTINUOUS
 62
     6
100
AcDbLine
 10
265.7127078537313
 20
304.1985363984674
 30
0.0
 11
202.162779078947
 21
304.1985363984674
 31
0.0
  0
LINE
  5
165
330
1F
100
AcDbEntity
  8
GR1
  6
CONTINUOUS
 62
     6
100
AcDbLine
 10
189.7888201603078
 20
199.4485363984675
 30
0.0
 11
187.8257434663392
 21
199.4485363984675
 31
0.0
  0
LINE
  5
166
330
1F
100
AcDbEntity
  8
GR1
  6
CONTINUOUS
 62
     6
100
AcDbLine
 10
188.6377434663392
 20
200.2605363984674
 30
0.0
 11
188.6377434663392
 21
186.2605363984674
 31
0.0
  0
LINE
  5
167
330
1F
100
AcDbEntity
  8
GR1
  6
CONTINUOUS
 62
     6
100
AcDbLine
 10
187.8257434663392
 20
187.0725363984675
 30
0.0
 11
189.7888201603078
 21
187.0725363984675
 31
0.0
  0
LINE
  5
168
330
1F
100
AcDbEntity
  8
GR1
  6
DASHDOT
 62
     6
100
AcDbLine
 10
182.5242986688647
 20
193.2605363984675
 30
0.0
 11
279.4485793796519
 21
193.2605363984675
 31
0.0
  0
LINE
  5
169
330
1F
100
AcDbEntity
  8
GR1
  6
CONTINUOUS
 62
     6
100
AcDbLine
 10
269.5866667723704
 20
206.2587275901808
 30
0.0
 11
269.5866667723704
 21
180.2587275901808
 31
0.0
  0
LINE
  5
16A
330
1F
100
AcDbEntity
  8
GR1
  6
DASHDOT
 62
     6
100
AcDbLine
 10
381.7689626495919
 20
193.2605363984674
 30
0.0
 11
590.6558493253964
 21
193.2605363984674
 31
0.0
  0
LINE
  5
16B
330
1F
100
AcDbEntity
  8
GR1
  6
DASHDOT
 62
     6
100
AcDbLine
 10
545.03444971455
 20
225.9085974990576
 30
0.0
 11
545.03444971455
 21
347.378183457291
 31
0.0
  0
CIRCLE
  5
16C
330
1F
100
AcDbEntity
  8
GR1
  6
CONTINUOUS
 62
     6
100
AcDbCircle
 10
487.0344497145499
 20
193.2605363984674
 30
0.0
 40
9.998191191713317
  0
LINE
  5
16D
330
1F
100
AcDbEntity
  8
GR1
  6
DASHDOT
 62
     6
100
AcDbLine
 10
487.03444971455
 20
90.13024664202385
 30
0.0
 11
487.03444971455
 21
214.629858446987
 31
0.0
  0
LINE
  5
16E
330
1F
100
AcDbEntity
  8
GR1
  6
DASHDOT
 62
     6
100
AcDbLine
 10
545.03444971455
 20
406.4909551965673
 30
0.0
 11
545.03444971455
 21
556.7577976724458
 31
0.0
  0
CIRCLE
  5
16F
330
1F
100
AcDbEntity
  8
GR1
  6
CONTINUOUS
 62
     6
100
AcDbCircle
 10
545.03444971455
 20
481.6704336907175
 30
0.0
 40
34.5
  0
LINE
  5
170
330
1F
100
AcDbEntity
  8
GR1
  6
DASHDOT
 62
     6
100
AcDbLine
 10
618.8463607509904
 20
481.6704336907175
 30
0.0
 11
382.0932732439617
 21
481.6704336907175
 31
0.0
  0
CIRCLE
  5
171
330
1F
100
AcDbEntity
  8
GR1
  6
CONTINUOUS
 62
     6
100
AcDbCircle
 10
545.03444971455
 20
481.6704336907175
 30
0.0
 40
50.99999999999999
  0
ARC
  5
173
330
1F
100
AcDbEntity
  8
基準ﾚｲﾔｸ_ﾙ_ﾌ_
  6
CONTINUOUS
 62
     3
100
AcDbCircle
 10
233.9377434663393
 20
327.8545363984674
 30
0.0
 40
5.555999999999955
100
AcDbArc
 50
53.36010701956957
 51
126.6398929804304
  0
ARC
  5
174
330
1F
100
AcDbEntity
  8
基準ﾚｲﾔｸ_ﾙ_ﾌ_
  6
CONTINUOUS
 62
     3
100
AcDbCircle
 10
244.9317847442547
 20
327.8545363984673
 30
0.0
 40
5.555999999999955
100
AcDbArc
 50
53.36010701957062
 51
126.6398929804294
  0
ARC
  5
175
330
1F
100
AcDbEntity
  8
基準ﾚｲﾔｸ_ﾙ_ﾌ_
  6
CONTINUOUS
 62
     3
100
AcDbCircle
 10
255.1809708272179
 20
327.8545363984673
 30
0.0
 40
5.555999999999955
100
AcDbArc
 50
53.36010701957062
 51
126.6398929804294
  0
ARC
  5
176
330
1F
100
AcDbEntity
  8
基準ﾚｲﾔｸ_ﾙ_ﾌ_
  6
CONTINUOUS
 62
     3
100
AcDbCircle
 10
263.9909110626066
 20
327.8545363984673
 30
0.0
 40
5.555999999999955
100
AcDbArc
 50
53.36010701957062
 51
126.6398929804294
  0
ARC
  5
177
330
1F
100
AcDbEntity
  8
基準ﾚｲﾔｸ_ﾙ_ﾌ_
  6
CONTINUOUS
 62
     3
100
AcDbCircle
 10
270.7647248688705
 20
327.8545363984673
 30
0.0
 40
5.555999999999955
100
AcDbArc
 50
53.36010701957062
 51
126.6398929804294
  0
ARC
  5
178
330
1F
100
AcDbEntity
  8
基準ﾚｲﾔｸ_ﾙ_ﾌ_
  6
CONTINUOUS
 62
     3
100
AcDbCircle
 10
275.0434808780357
 20
327.8545363984673
 30
0.0
 40
5.555999999999955
100
AcDbArc
 50
53.36010701957062
 51
112.6472936043786
  0
ARC
  5
179
330
1F
100
AcDbEntity
  8
基準ﾚｲﾔｸ_ﾙ_ﾌ_
  6
CONTINUOUS
 62
     3
100
AcDbCircle
 10
276.5372899073355
 20
327.8545363984673
 30
0.0
 40
5.555999999999955
100
AcDbArc
 50
53.36010701957062
 51
97.72577985099112
  0
ARC
  5
17A
330
1F
100
AcDbEntity
  8
基準ﾚｲﾔｸ_ﾙ_ﾌ_
  6
CONTINUOUS
 62
     3
100
AcDbCircle
 10
222.9437021884236
 20
327.8545363984673
 30
0.0
 40
5.555999999999955
100
AcDbArc
 50
53.36010701957062
 51
126.6398929804294
  0
ARC
  5
17B
330
1F
100
AcDbEntity
  8
基準ﾚｲﾔｸ_ﾙ_ﾌ_
  6
CONTINUOUS
 62
     3
100
AcDbCircle
 10
212.6945161054604
 20
327.8545363984673
 30
0.0
 40
5.555999999999955
100
AcDbArc
 50
53.36010701957062
 51
126.6398929804294
  0
ARC
  5
17C
330
1F
100
AcDbEntity
  8
基準ﾚｲﾔｸ_ﾙ_ﾌ_
  6
CONTINUOUS
 62
     3
100
AcDbCircle
 10
203.8845758700717
 20
327.8545363984673
 30
0.0
 40
5.555999999999955
100
AcDbArc
 50
53.36010701957062
 51
126.6398929804294
  0
ARC
  5
17D
330
1F
100
AcDbEntity
  8
基準ﾚｲﾔｸ_ﾙ_ﾌ_
  6
CONTINUOUS
 62
     3
100
AcDbCircle
 10
197.1107620638078
 20
327.8545363984673
 30
0.0
 40
5.555999999999955
100
AcDbArc
 50
53.36010701957062
 51
126.6398929804294
  0
ARC
  5
17E
330
1F
100
AcDbEntity
  8
基準ﾚｲﾔｸ_ﾙ_ﾌ_
  6
CONTINUOUS
 62
     3
100
AcDbCircle
 10
192.8320060546426
 20
327.8545363984673
 30
0.0
 40
5.555999999999955
100
AcDbArc
 50
67.35270639562138
 51
126.6398929804294
  0
ARC
  5
17F
330
1F
100
AcDbEntity
  8
基準ﾚｲﾔｸ_ﾙ_ﾌ_
  6
CONTINUOUS
 62
     3
100
AcDbCircle
 10
191.3381970253428
 20
327.8545363984673
 30
0.0
 40
5.555999999999955
100
AcDbArc
 50
82.27422014900888
 51
126.6398929804294
  0
TEXT
  5
180
330
1F
100
AcDbEntity
  8
GR1
  6
CONTINUOUS
 62
     7
100
AcDbText
 10
173.2382354736328
 20
190.2605590820312
 30
0.0
 40
4.0
  1
２００
 50
90.0
 41
0.9264705882352942
  7
FX_VECTOR
 72
     5
 11
173.2382354736328
 21
199.2605590820312
 31
0.0
100
AcDbText
  0
LINE
  5
181
330
1F
100
AcDbEntity
  8
GR1
  6
CONTINUOUS
 62
     7
100
AcDbLine
 10
232.9377434663392
 20
93.2605363899952
 30
0.0
 11
173.2382351800525
 21
93.2605363899952
 31
0.0
  0
LINE
  5
182
330
1F
100
AcDbEntity
  8
GR1
  6
CONTINUOUS
 62
     7
100
AcDbLine
 10
232.9377434663392
 20
293.2605363899952
 30
0.0
 11
173.2382351800525
 21
293.2605363899952
 31
0.0
  0
LINE
  5
183
330
1F
100
AcDbEntity
  8
GR1
  6
CONTINUOUS
 62
     7
100
AcDbLine
 10
174.2382351800525
 20
93.2605363899952
 30
0.0
 11
174.2382351800525
 21
293.2605363899952
 31
0.0
  0
INSERT
  5
184
330
1F
100
AcDbEntity
  8
GR1
  6
CONTINUOUS
 62
     7
100
AcDbBlockReference
  2
FXTIP_ARROW_S
 10
174.2382351800525
 20
93.2605363899952
 30
0.0
 41
4.0
 42
4.0
 50
270.0
  0
INSERT
  5
185
330
1F
100
AcDbEntity
  8
GR1
  6
CONTINUOUS
 62
     7
100
AcDbBlockReference
  2
FXTIP_ARROW_E
 10
174.2382351800525
 20
293.2605363899952
 30
0.0
 41
4.0
 42
4.0
 50
90.0
  0
TEXT
  5
186
330
1F
100
AcDbEntity
  8
GR1
  6
CONTINUOUS
 62
     7
100
AcDbText
 10
173.2382354736328
 20
187.2605590820312
 30
0.0
 40
4.0
  1
φ
 50
90.0
 41
1.05
  7
FX_VECTOR
 72
     5
 11
173.2382354736328
 21
190.2605590820312
 31
0.0
100
AcDbText
  0
TEXT
  5
187
330
1F
100
AcDbEntity
  8
GR1
  6
CONTINUOUS
 62
     7
100
AcDbText
 10
284.218017578125
 20
354.9081726074219
 30
0.0
 40
4.0
  1
１１０
 41
0.9264705882352942
  7
FX_VECTOR
 72
     5
 11
293.218017578125
 21
354.9081726074219
 31
0.0
100
AcDbText
  0
LINE
  5
188
330
1F
100
AcDbEntity
  8
GR1
  6
CONTINUOUS
 62
     7
100
AcDbLine
 10
233.9377434663392
 20
349.6784930548142
 30
0.0
 11
233.9377434663392
 21
354.9081846089667
 31
0.0
  0
LINE
  5
189
330
1F
100
AcDbEntity
  8
GR1
  6
CONTINUOUS
 62
     7
100
AcDbLine
 10
343.4982872999202
 20
261.2105363984676
 30
0.0
 11
343.4982872999202
 21
354.9081846089667
 31
0.0
  0
LINE
  5
18A
330
1F
100
AcDbEntity
  8
GR1
  6
CONTINUOUS
 62
     7
100
AcDbLine
 10
233.9377434663392
 20
353.9081846089667
 30
0.0
 11
343.4982872999202
 21
353.9081846089667
 31
0.0
  0
INSERT
  5
18B
330
1F
100
AcDbEntity
  8
GR1
  6
CONTINUOUS
 62
     7
100
AcDbBlockReference
  2
FXTIP_ARROW_S
 10
233.9377434663392
 20
353.9081846089667
 30
0.0
 41
4.0
 42
4.0
 50
180.0
  0
INSERT
  5
18C
330
1F
100
AcDbEntity
  8
GR1
  6
CONTINUOUS
 62
     7
100
AcDbBlockReference
  2
FXTIP_ARROW_E
 10
343.4982872999202
 20
353.9081846089667
 30
0.0
 41
4.0
 42
4.0
 50
360.0
  0
LINE
  5
18D
330
1F
100
AcDbEntity
  8
GR1
  6
CONTINUOUS
 62
     3
100
AcDbLine
 10
216.9377434663392
 20
293.4605363984675
 30
0.0
 11
250.9377434663392
 21
293.4605363984675
 31
0.0
  0
LINE
  5
18E
330
1F
100
AcDbEntity
  8
GR1
  6
CONTINUOUS
 62
     3
100
AcDbLine
 10
254.4141380354989
 20
291.2605363984675
 30
0.0
 11
261.9377434663393
 21
291.2605363984675
 31
0.0
  0
LINE
  5
18F
330
1F
100
AcDbEntity
  8
GR1
  6
CONTINUOUS
 62
     3
100
AcDbLine
 10
261.9377434663393
 20
294.7605363984675
 30
0.0
 11
259.4377434663392
 21
294.7605363984675
 31
0.0
  0
LINE
  5
190
330
1F
100
AcDbEntity
  8
GR1
  6
CONTINUOUS
 62
     3
100
AcDbLine
 10
213.4377434663393
 20
291.2605363984675
 30
0.0
 11
205.9377434663393
 21
291.2605363984675
 31
0.0
  0
LINE
  5
191
330
1F
100
AcDbEntity
  8
GR1
  6
CONTINUOUS
 62
     3
100
AcDbLine
 10
205.9377434663392
 20
294.7605363984675
 30
0.0
 11
208.4377434663392
 21
294.7605363984675
 31
0.0
  0
LINE
  5
192
330
1F
100
AcDbEntity
  8
GR1
  6
CONTINUOUS
 62
     3
100
AcDbLine
 10
201.9377434663392
 20
302.7605363984675
 30
0.0
 11
201.491161478954
 21
303.5340390903639
 31
0.0
  0
LINE
  5
193
330
1F
100
AcDbEntity
  8
GR1
  6
CONTINUOUS
 62
     3
100
AcDbLine
 10
201.491161478954
 20
303.5340377444156
 30
0.0
 11
198.7843254537245
 21
303.5340390903638
 31
0.0
  0
ARC
  5
194
330
1F
100
AcDbEntity
  8
GR1
  6
CONTINUOUS
 62
     3
100
AcDbCircle
 10
200.8935662147618
 20
302.0906634173897
 30
0.0
 40
2.555822748422663
100
AcDbArc
 50
145.6157525319512
 51
214.3842474680497
  0
LINE
  5
195
330
1F
100
AcDbEntity
  8
GR1
  6
CONTINUOUS
 62
     3
100
AcDbLine
 10
198.7843254537245
 20
300.6472877444156
 30
0.0
 11
201.491161478954
 21
300.6472877444156
 31
0.0
  0
ARC
  5
196
330
1F
100
AcDbEntity
  8
GR1
  6
CONTINUOUS
 62
     3
100
AcDbCircle
 10
199.3819207179167
 20
302.0906634173897
 30
0.0
 40
2.555822748422663
100
AcDbArc
 50
325.6157525319502
 51
34.38424746804883
  0
LINE
  5
197
330
1F
100
AcDbEntity
  8
GR1
  6
CONTINUOUS
 62
     3
100
AcDbLine
 10
198.7843245326787
 20
303.5340377444156
 30
0.0
 11
198.3377434663392
 21
302.7605363984675
 31
0.0
  0
LINE
  5
198
330
1F
100
AcDbEntity
  8
GR1
  6
CONTINUOUS
 62
     3
100
AcDbLine
 10
198.3377434663392
 20
302.7605363984675
 30
0.0
 11
197.5877434663392
 21
302.7605363984675
 31
0.0
  0
ARC
  5
199
330
1F
100
AcDbEntity
  8
GR1
  6
CONTINUOUS
 62
     3
100
AcDbCircle
 10
197.5877434663392
 20
302.0105363984675
 30
0.0
 40
0.75
100
AcDbArc
 50
90.0
 51
180.0
  0
LINE
  5
19A
330
1F
100
AcDbEntity
  8
GR1
  6
CONTINUOUS
 62
     3
100
AcDbLine
 10
196.8377434663392
 20
302.0105363984675
 30
0.0
 11
196.8377434663392
 21
293.5105363984675
 31
0.0
  0
ARC
  5
19B
330
1F
100
AcDbEntity
  8
GR1
  6
CONTINUOUS
 62
     3
100
AcDbCircle
 10
197.5877434663392
 20
293.5105363984675
 30
0.0
 40
0.75
100
AcDbArc
 50
180.0
 51
270.0
  0
LINE
  5
19C
330
1F
100
AcDbEntity
  8
GR1
  6
CONTINUOUS
 62
     3
100
AcDbLine
 10
197.5877434663392
 20
292.7605363984675
 30
0.0
 11
198.3377434663392
 21
292.7605363984675
 31
0.0
  0
LINE
  5
19D
330
1F
100
AcDbEntity
  8
GR1
  6
CONTINUOUS
 62
     3
100
AcDbLine
 10
198.3377434663392
 20
292.7605363984675
 30
0.0
 11
198.7843254537245
 21
291.9870337065713
 31
0.0
  0
LINE
  5
19E
330
1F
100
AcDbEntity
  8
GR1
  6
CONTINUOUS
 62
     3
100
AcDbLine
 10
198.7843254537245
 20
291.9870337065713
 30
0.0
 11
201.491161478954
 21
291.9870337065713
 31
0.0
  0
ARC
  5
19F
330
1F
100
AcDbEntity
  8
GR1
  6
CONTINUOUS
 62
     3
100
AcDbCircle
 10
199.3819207179167
 20
293.4304093795453
 30
0.0
 40
2.555822748422663
100
AcDbArc
 50
325.6157525319512
 51
34.38424746804974
  0
LINE
  5
1A0
330
1F
100
AcDbEntity
  8
GR1
  6
CONTINUOUS
 62
     3
100
AcDbLine
 10
201.491161478954
 20
294.8737850525193
 30
0.0
 11
198.7843254537245
 21
294.8737850525193
 31
0.0
  0
ARC
  5
1A1
330
1F
100
AcDbEntity
  8
GR1
  6
CONTINUOUS
 62
     3
100
AcDbCircle
 10
200.8935662147618
 20
293.4304093795453
 30
0.0
 40
2.555822748422663
100
AcDbArc
 50
145.6157525319503
 51
214.3842474680489
  0
LINE
  5
1A2
330
1F
100
AcDbEntity
  8
GR1
  6
CONTINUOUS
 62
     3
100
AcDbLine
 10
201.491161478954
 20
291.9870337065712
 30
0.0
 11
201.9377434663392
 21
292.7605363984675
 31
0.0
  0
ARC
  5
1A3
330
1F
100
AcDbEntity
  8
GR1
  6
CONTINUOUS
 62
     3
100
AcDbCircle
 10
192.3843254537247
 20
297.7605363984675
 30
0.0
 40
9.553418012614543
100
AcDbArc
 50
342.4120462260055
 51
17.58795377399449
  0
LINE
  5
1A4
330
1F
100
AcDbEntity
  8
GR1
  6
CONTINUOUS
 62
     3
100
AcDbLine
 10
265.9377434663393
 20
300.6472877444156
 30
0.0
 11
269.2024863443592
 21
300.6472877444156
 31
0.0
  0
ARC
  5
1A5
330
1F
100
AcDbEntity
  8
GR1
  6
CONTINUOUS
 62
     3
100
AcDbCircle
 10
268.1533769567779
 20
302.0906634173897
 30
0.0
 40
1.784366509561449
100
AcDbArc
 50
306.0113151790934
 51
53.98868482090406
  0
LINE
  5
1A6
330
1F
100
AcDbEntity
  8
GR1
  6
CONTINUOUS
 62
     3
100
AcDbLine
 10
269.2024863443592
 20
303.5340390903638
 30
0.0
 11
265.8381048387744
 21
303.5340390903638
 31
0.0
  0
LINE
  5
1A7
330
1F
100
AcDbEntity
  8
GR1
  6
CONTINUOUS
 62
     3
100
AcDbLine
 10
265.9813756411475
 20
294.8737850525195
 30
0.0
 11
269.2024863443592
 21
294.8737850525195
 31
0.0
  0
ARC
  5
1A8
330
1F
100
AcDbEntity
  8
GR1
  6
CONTINUOUS
 62
     3
100
AcDbCircle
 10
263.9031631110627
 20
297.7605363984675
 30
0.0
 40
6.0345803552766
100
AcDbArc
 50
331.4211192439801
 51
28.57888075602055
  0
ARC
  5
1A9
330
1F
100
AcDbEntity
  8
GR1
  6
CONTINUOUS
 62
     3
100
AcDbCircle
 10
207.8911614789538
 20
297.7605363984675
 30
0.0
 40
9.553418012614543
100
AcDbArc
 50
162.4120462260053
 51
197.5879537739948
  0
LINE
  5
1AA
330
1F
100
AcDbEntity
  8
GR1
  6
CONTINUOUS
 62
     3
100
AcDbLine
 10
196.8377434663392
 20
294.7605363984675
 30
0.0
 11
196.4377434663392
 21
294.7605363984675
 31
0.0
  0
LINE
  5
1AB
330
1F
100
AcDbEntity
  8
GR1
  6
CONTINUOUS
 62
     3
100
AcDbLine
 10
196.4377434663392
 20
294.7605363984675
 30
0.0
 11
195.9377434663392
 21
295.3020363984675
 31
0.0
  0
LINE
  5
1AC
330
1F
100
AcDbEntity
  8
GR1
  6
CONTINUOUS
 62
     3
100
AcDbLine
 10
195.9377434663392
 20
295.3020363984675
 30
0.0
 11
195.9377434663392
 21
300.2190363984675
 31
0.0
  0
LINE
  5
1AD
330
1F
100
AcDbEntity
  8
GR1
  6
CONTINUOUS
 62
     3
100
AcDbLine
 10
195.9377434663392
 20
300.2190363984675
 30
0.0
 11
196.4377434663392
 21
300.7605363984675
 31
0.0
  0
LINE
  5
1AE
330
1F
100
AcDbEntity
  8
GR1
  6
CONTINUOUS
 62
     3
100
AcDbLine
 10
196.4377434663392
 20
300.7605363984675
 30
0.0
 11
196.8377434663392
 21
300.7605363984675
 31
0.0
  0
LINE
  5
1AF
330
1F
100
AcDbEntity
  8
GR1
  6
CONTINUOUS
 62
     3
100
AcDbLine
 10
188.7482872999202
 20
301.2605363984676
 30
0.0
 11
188.3017053125349
 21
302.0340390903639
 31
0.0
  0
LINE
  5
1B0
330
1F
100
AcDbEntity
  8
GR1
  6
CONTINUOUS
 62
     3
100
AcDbLine
 10
188.301705312535
 20
302.0340377444157
 30
0.0
 11
185.5948692873054
 21
302.0340390903638
 31
0.0
  0
ARC
  5
1B1
330
1F
100
AcDbEntity
  8
GR1
  6
CONTINUOUS
 62
     3
100
AcDbCircle
 10
187.7041100483428
 20
300.5906634173898
 30
0.0
 40
2.555822748422663
100
AcDbArc
 50
145.6157525319512
 51
214.3842474680497
  0
LINE
  5
1B2
330
1F
100
AcDbEntity
  8
GR1
  6
CONTINUOUS
 62
     3
100
AcDbLine
 10
185.5948692873054
 20
299.1472877444157
 30
0.0
 11
188.3017053125349
 21
299.1472877444157
 31
0.0
  0
ARC
  5
1B3
330
1F
100
AcDbEntity
  8
GR1
  6
CONTINUOUS
 62
     3
100
AcDbCircle
 10
186.1924645514976
 20
300.5906634173898
 30
0.0
 40
2.555822748422663
100
AcDbArc
 50
325.6157525319502
 51
34.38424746804883
  0
LINE
  5
1B4
330
1F
100
AcDbEntity
  8
GR1
  6
CONTINUOUS
 62
     3
100
AcDbLine
 10
185.5948683662596
 20
302.0340377444157
 30
0.0
 11
185.1482872999202
 21
301.2605363984676
 31
0.0
  0
LINE
  5
1B5
330
1F
100
AcDbEntity
  8
GR1
  6
CONTINUOUS
 62
     3
100
AcDbLine
 10
185.1482872999202
 20
301.2605363984676
 30
0.0
 11
184.3982872999202
 21
301.2605363984676
 31
0.0
  0
ARC
  5
1B6
330
1F
100
AcDbEntity
  8
GR1
  6
CONTINUOUS
 62
     3
100
AcDbCircle
 10
184.3982872999202
 20
300.5105363984676
 30
0.0
 40
0.75
100
AcDbArc
 50
90.0
 51
180.0
  0
LINE
  5
1B7
330
1F
100
AcDbEntity
  8
GR1
  6
CONTINUOUS
 62
     3
100
AcDbLine
 10
183.6482872999202
 20
300.5105363984676
 30
0.0
 11
183.6482872999202
 21
292.0105363984676
 31
0.0
  0
ARC
  5
1B8
330
1F
100
AcDbEntity
  8
GR1
  6
CONTINUOUS
 62
     3
100
AcDbCircle
 10
184.3982872999202
 20
292.0105363984676
 30
0.0
 40
0.75
100
AcDbArc
 50
180.0
 51
270.0
  0
LINE
  5
1B9
330
1F
100
AcDbEntity
  8
GR1
  6
CONTINUOUS
 62
     3
100
AcDbLine
 10
184.3982872999202
 20
291.2605363984676
 30
0.0
 11
185.1482872999202
 21
291.2605363984676
 31
0.0
  0
LINE
  5
1BA
330
1F
100
AcDbEntity
  8
GR1
  6
CONTINUOUS
 62
     3
100
AcDbLine
 10
185.1482872999202
 20
291.2605363984676
 30
0.0
 11
185.5948692873054
 21
290.4870337065713
 31
0.0
  0
LINE
  5
1BB
330
1F
100
AcDbEntity
  8
GR1
  6
CONTINUOUS
 62
     3
100
AcDbLine
 10
185.5948692873054
 20
290.4870337065713
 30
0.0
 11
188.301705312535
 21
290.4870337065713
 31
0.0
  0
ARC
  5
1BC
330
1F
100
AcDbEntity
  8
GR1
  6
CONTINUOUS
 62
     3
100
AcDbCircle
 10
186.1924645514976
 20
291.9304093795454
 30
0.0
 40
2.555822748422663
100
AcDbArc
 50
325.6157525319512
 51
34.38424746804974
  0
LINE
  5
1BD
330
1F
100
AcDbEntity
  8
GR1
  6
CONTINUOUS
 62
     3
100
AcDbLine
 10
188.3017053125349
 20
293.3737850525195
 30
0.0
 11
185.5948692873054
 21
293.3737850525195
 31
0.0
  0
ARC
  5
1BE
330
1F
100
AcDbEntity
  8
GR1
  6
CONTINUOUS
 62
     3
100
AcDbCircle
 10
187.7041100483428
 20
291.9304093795454
 30
0.0
 40
2.555822748422663
100
AcDbArc
 50
145.6157525319503
 51
214.3842474680489
  0
LINE
  5
1BF
330
1F
100
AcDbEntity
  8
GR1
  6
CONTINUOUS
 62
     3
100
AcDbLine
 10
188.3017053125349
 20
290.4870337065713
 30
0.0
 11
188.7482872999202
 21
291.2605363984676
 31
0.0
  0
ARC
  5
1C0
330
1F
100
AcDbEntity
  8
GR1
  6
CONTINUOUS
 62
     3
100
AcDbCircle
 10
179.1948692873056
 20
296.2605363984676
 30
0.0
 40
9.553418012614543
100
AcDbArc
 50
342.4120462260055
 51
17.58795377399449
  0
ARC
  5
1C1
330
1F
100
AcDbEntity
  8
GR1
  6
CONTINUOUS
 62
     3
100
AcDbCircle
 10
194.7017053125347
 20
296.2605363984676
 30
0.0
 40
9.553418012614543
100
AcDbArc
 50
162.4120462260053
 51
197.5879537739948
  0
LINE
  5
1C2
330
1F
100
AcDbEntity
  8
GR1
  6
CONTINUOUS
 62
     3
100
AcDbLine
 10
183.6482872999202
 20
293.2605363984677
 30
0.0
 11
183.1877434663392
 21
293.2605363984677
 31
0.0
  0
LINE
  5
1C3
330
1F
100
AcDbEntity
  8
GR1
  6
CONTINUOUS
 62
     3
100
AcDbLine
 10
183.1877434663392
 20
293.2605363984677
 30
0.0
 11
182.6877434663392
 21
293.8020363984676
 31
0.0
  0
LINE
  5
1C4
330
1F
100
AcDbEntity
  8
GR1
  6
CONTINUOUS
 62
     3
100
AcDbLine
 10
182.6877434663392
 20
293.8020363984676
 30
0.0
 11
182.6877434663392
 21
298.7190363984676
 31
0.0
  0
LINE
  5
1C5
330
1F
100
AcDbEntity
  8
GR1
  6
CONTINUOUS
 62
     3
100
AcDbLine
 10
182.6877434663392
 20
298.7190363984676
 30
0.0
 11
183.1877434663392
 21
299.2605363984677
 31
0.0
  0
LINE
  5
1C6
330
1F
100
AcDbEntity
  8
GR1
  6
CONTINUOUS
 62
     3
100
AcDbLine
 10
183.1877434663392
 20
299.2605363984677
 30
0.0
 11
183.6482872999202
 21
299.2605363984677
 31
0.0
  0
LINE
  5
1C7
330
1F
100
AcDbEntity
  8
GR1
  6
CONTINUOUS
 62
     3
100
AcDbLine
 10
342.4982872999202
 20
257.0105363984675
 30
0.0
 11
313.4982872999202
 21
257.0105363984675
 31
0.0
  0
LINE
  5
1C8
330
1F
100
AcDbEntity
  8
GR1
  6
CONTINUOUS
 62
     3
100
AcDbLine
 10
313.4982872999202
 20
257.0105363984675
 30
0.0
 11
311.9982872999202
 21
255.2105363984675
 31
0.0
  0
LINE
  5
1C9
330
1F
100
AcDbEntity
  8
GR1
  6
CONTINUOUS
 62
     3
100
AcDbLine
 10
311.9982872999202
 20
255.2105363984675
 30
0.0
 11
307.9702157929046
 21
255.2105363984675
 31
0.0
  0
LINE
  5
1CA
330
1F
100
AcDbEntity
  8
GR1
  6
CONTINUOUS
 62
     3
100
AcDbLine
 10
313.4982872999202
 20
263.4105363984676
 30
0.0
 11
342.4982872999202
 21
263.4105363984676
 31
0.0
  0
ARC
  5
1CB
330
1F
100
AcDbEntity
  8
GR1
  6
CONTINUOUS
 62
     3
100
AcDbCircle
 10
337.8782872999203
 20
260.2105363984676
 30
0.0
 40
5.619999999999887
100
AcDbArc
 50
325.291950727476
 51
34.70804927252293
  0
LINE
  5
1CC
330
1F
100
AcDbEntity
  8
GR1
  6
CONTINUOUS
 62
     3
100
AcDbLine
 10
313.4982872999202
 20
263.4105363984676
 30
0.0
 11
311.9982872999202
 21
265.2105363984675
 31
0.0
  0
LINE
  5
1CD
330
1F
100
AcDbEntity
  8
GR1
  6
CONTINUOUS
 62
     3
100
AcDbLine
 10
311.9982872999202
 20
265.2105363984675
 30
0.0
 11
309.2162694231663
 21
265.2105363984675
 31
0.0
  0
ARC
  5
1CE
330
1F
100
AcDbEntity
  8
GR1
  6
CONTINUOUS
 62
     3
100
AcDbCircle
 10
309.2162694231663
 20
268.2105363984675
 30
0.0
 40
3.0
100
AcDbArc
 50
181.5880336401508
 51
270.0000000000006
  0
LINE
  5
1CF
330
1F
100
AcDbEntity
  8
GR1
  6
CONTINUOUS
 62
     3
100
AcDbLine
 10
306.2174216489468
 20
268.1273977969705
 30
0.0
 11
305.6223171851093
 21
289.5930908044557
 31
0.0
  0
ARC
  5
1D0
330
1F
100
AcDbEntity
  8
GR1
  6
CONTINUOUS
 62
     3
100
AcDbCircle
 10
293.6269260882314
 20
289.2605363984675
 30
0.0
 40
12.0
100
AcDbArc
 50
1.588033640150837
 51
90.0
  0
LINE
  5
1D1
330
1F
100
AcDbEntity
  8
GR1
  6
CONTINUOUS
 62
     3
100
AcDbLine
 10
293.6269260882314
 20
301.2605363984676
 30
0.0
 11
279.0678673675484
 21
301.2605363984675
 31
0.0
  0
LINE
  5
1D2
330
1F
100
AcDbEntity
  8
GR1
  6
CONTINUOUS
 62
     3
100
AcDbLine
 10
279.1904151571966
 20
291.2605363984675
 30
0.0
 11
292.3808724579697
 21
291.2605363984675
 31
0.0
  0
ARC
  5
1D3
330
1F
100
AcDbEntity
  8
GR1
  6
CONTINUOUS
 62
     3
100
AcDbCircle
 10
292.3808724579697
 20
288.2605363984675
 30
0.0
 40
3.0
100
AcDbArc
 50
1.588033640150797
 51
90.0
  0
LINE
  5
1D4
330
1F
100
AcDbEntity
  8
GR1
  6
CONTINUOUS
 62
     3
100
AcDbLine
 10
295.3797202321892
 20
288.3436749999645
 30
0.0
 11
295.9748246960268
 21
266.8779819924794
 31
0.0
  0
ARC
  5
1D5
330
1F
100
AcDbEntity
  8
GR1
  6
CONTINUOUS
 62
     3
100
AcDbCircle
 10
307.9702157929047
 20
267.2105363984675
 30
0.0
 40
12.0
100
AcDbArc
 50
181.5880336401508
 51
269.9999999999994
  0
ARC
  5
1D6
330
1F
100
AcDbEntity
  8
GR1
  6
CONTINUOUS
 62
     3
100
AcDbCircle
 10
268.1533769567779
 20
293.4304093795453
 30
0.0
 40
1.784366509561449
100
AcDbArc
 50
306.011315179096
 51
53.98868482090659
  0
LINE
  5
1D7
330
1F
100
AcDbEntity
  8
GR1
  6
CONTINUOUS
 62
     3
100
AcDbLine
 10
269.2024863443592
 20
291.9870337065713
 30
0.0
 11
265.9985714793959
 21
291.9870337065713
 31
0.0
  0
LINE
  5
1D8
330
1F
100
AcDbEntity
  8
GR1
  6
CONTINUOUS
 62
     3
100
AcDbLine
 10
198.3377434663392
 20
302.7605363984675
 30
0.0
 11
198.3377434663392
 21
292.7605363984675
 31
0.0
  0
LINE
  5
1D9
330
1F
100
AcDbEntity
  8
GR1
  6
CONTINUOUS
 62
     6
100
AcDbLine
 10
196.4377434663392
 20
294.7605363984675
 30
0.0
 11
196.4377434663392
 21
300.7605363984675
 31
0.0
  0
LINE
  5
1DA
330
1F
100
AcDbEntity
  8
GR1
  6
CONTINUOUS
 62
     6
100
AcDbLine
 10
196.8377434663392
 20
300.2190363984675
 30
0.0
 11
195.9377434663393
 21
300.2190363984675
 31
0.0
  0
LINE
  5
1DB
330
1F
100
AcDbEntity
  8
GR1
  6
DASHDOT
 62
     6
100
AcDbLine
 10
194.430979216415
 20
297.7605363984675
 30
0.0
 11
271.3949518741188
 21
297.7605363984675
 31
0.0
  0
LINE
  5
1DC
330
1F
100
AcDbEntity
  8
GR1
  6
CONTINUOUS
 62
     6
100
AcDbLine
 10
279.1123407917478
 20
297.5105363984675
 30
0.0
 11
281.2988545812159
 21
297.5105363984675
 31
0.0
  0
LINE
  5
1DD
330
1F
100
AcDbEntity
  8
GR1
  6
CONTINUOUS
 62
     6
100
AcDbLine
 10
281.2988545812159
 20
297.5105363984675
 30
0.0
 11
282.7988545812159
 21
299.5105363984675
 31
0.0
  0
LINE
  5
1DE
330
1F
100
AcDbEntity
  8
GR1
  6
CONTINUOUS
 62
     6
100
AcDbLine
 10
282.7988545812159
 20
299.5105363984675
 30
0.0
 11
282.7988545812159
 21
300.5105363984675
 31
0.0
  0
LINE
  5
1DF
330
1F
100
AcDbEntity
  8
GR1
  6
CONTINUOUS
 62
     6
100
AcDbLine
 10
282.7988545812159
 20
300.5105363984675
 30
0.0
 11
279.0766795733228
 21
300.5105363984675
 31
0.0
  0
LINE
  5
1E0
330
1F
100
AcDbEntity
  8
GR1
  6
CONTINUOUS
 62
     6
100
AcDbLine
 10
279.1420584737686
 20
295.0105363984675
 30
0.0
 11
281.2988545812159
 21
295.0105363984675
 31
0.0
  0
LINE
  5
1E1
330
1F
100
AcDbEntity
  8
GR1
  6
CONTINUOUS
 62
     6
100
AcDbLine
 10
281.2988545812159
 20
295.0105363984675
 30
0.0
 11
282.7988545812159
 21
293.0105363984675
 31
0.0
  0
LINE
  5
1E2
330
1F
100
AcDbEntity
  8
GR1
  6
CONTINUOUS
 62
     6
100
AcDbLine
 10
282.7988545812159
 20
293.0105363984675
 30
0.0
 11
282.7988545812159
 21
292.0105363984675
 31
0.0
  0
LINE
  5
1E3
330
1F
100
AcDbEntity
  8
GR1
  6
CONTINUOUS
 62
     6
100
AcDbLine
 10
282.7988545812159
 20
292.0105363984675
 30
0.0
 11
279.1777196921935
 21
292.0105363984675
 31
0.0
  0
LINE
  5
1E4
330
1F
100
AcDbEntity
  8
GR1
  6
DASHDOT
 62
     6
100
AcDbLine
 10
292.6542653804827
 20
296.2605363984675
 30
0.0
 11
177.6926956717982
 21
296.2605363984675
 31
0.0
  0
LINE
  5
1E5
330
1F
100
AcDbEntity
  8
GR1
  6
CONTINUOUS
 62
     6
100
AcDbLine
 10
182.6877434663392
 20
293.8020363984676
 30
0.0
 11
183.6482872999202
 21
293.8020363984676
 31
0.0
  0
LINE
  5
1E6
330
1F
100
AcDbEntity
  8
GR1
  6
CONTINUOUS
 62
     6
100
AcDbLine
 10
183.1877434663392
 20
293.2605363984677
 30
0.0
 11
183.1877434663392
 21
299.2605363984677
 31
0.0
  0
LINE
  5
1E7
330
1F
100
AcDbEntity
  8
GR1
  6
CONTINUOUS
 62
     6
100
AcDbLine
 10
183.6482872999202
 20
298.7190363984676
 30
0.0
 11
182.6877434663392
 21
298.7190363984676
 31
0.0
  0
LINE
  5
1E8
330
1F
100
AcDbEntity
  8
GR1
  6
CONTINUOUS
 62
     3
100
AcDbLine
 10
185.1482872999202
 20
301.2605363984676
 30
0.0
 11
185.1482872999202
 21
291.2605363984676
 31
0.0
  0
LINE
  5
1E9
330
1F
100
AcDbEntity
  8
GR1
  6
CONTINUOUS
 62
     6
100
AcDbLine
 10
195.9377434663393
 20
295.3020363984675
 30
0.0
 11
196.8377434663392
 21
295.3020363984675
 31
0.0
  0
LINE
  5
1EA
330
1F
100
AcDbEntity
  8
GR1
  6
CONTINUOUS
 62
     6
100
AcDbLine
 10
205.9377434663392
 20
295.3020363984675
 30
0.0
 11
208.4377434663392
 21
295.3020363984675
 31
0.0
  0
ARC
  5
1EB
330
1F
100
AcDbEntity
  8
GR1
  6
DASHDOT
 62
     6
100
AcDbCircle
 10
309.2162694231662
 20
268.2105363984675
 30
0.0
 40
8.0
100
AcDbArc
 50
181.5880336401508
 51
270.0
  0
LINE
  5
1EC
330
1F
100
AcDbEntity
  8
GR1
  6
DASHDOT
 62
     6
100
AcDbLine
 10
309.2162694231662
 20
260.2105363984676
 30
0.0
 11
349.9755318819634
 21
260.2105363984676
 31
0.0
  0
LINE
  5
1ED
330
1F
100
AcDbEntity
  8
GR1
  6
DASHDOT
 62
     6
100
AcDbLine
 10
301.2193420252477
 20
267.9888334611421
 30
0.0
 11
300.6511927784013
 21
288.482239335793
 31
0.0
  0
ARC
  5
1EE
330
1F
100
AcDbEntity
  8
GR1
  6
DASHDOT
 62
     6
100
AcDbCircle
 10
292.6542653804827
 20
288.2605363984675
 30
0.0
 40
8.0
100
AcDbArc
 50
1.588033640150968
 51
90.0
  0
LINE
  5
1EF
330
1F
100
AcDbEntity
  8
GR1
  6
CONTINUOUS
 62
     3
100
AcDbLine
 10
543.016881990545
 20
300.8355811227273
 30
0.0
 11
462.9802573010063
 21
264.7690771220039
 31
0.0
  0
LINE
  5
1F0
330
1F
100
AcDbEntity
  8
GR1
  6
CONTINUOUS
 62
     3
100
AcDbLine
 10
459.6344497145499
 20
263.4105363984675
 30
0.0
 11
470.4344497145499
 21
263.4105363984675
 31
0.0
  0
ARC
  5
1F1
330
1F
100
AcDbEntity
  8
GR1
  6
CONTINUOUS
 62
     3
100
AcDbCircle
 10
465.0344497145499
 20
260.2105363984675
 30
0.0
 40
5.0
100
AcDbArc
 50
39.79181949955718
 51
140.2081805004429
  0
ARC
  5
1F2
330
1F
100
AcDbEntity
  8
GR1
  6
CONTINUOUS
 62
     3
100
AcDbCircle
 10
462.0344497145499
 20
260.2105363984675
 30
0.0
 40
4.0
100
AcDbArc
 50
126.8698976458442
 51
233.1301023541559
  0
LINE
  5
1F3
330
1F
100
AcDbEntity
  8
GR1
  6
CONTINUOUS
 62
     3
100
AcDbLine
 10
459.6344497145499
 20
257.0105363984675
 30
0.0
 11
470.4344497145499
 21
257.0105363984675
 31
0.0
  0
ARC
  5
1F4
330
1F
100
AcDbEntity
  8
GR1
  6
CONTINUOUS
 62
     3
100
AcDbCircle
 10
468.0344497145499
 20
260.2105363984675
 30
0.0
 40
4.0
100
AcDbArc
 50
306.869897645844
 51
53.13010235415584
  0
LINE
  5
1F5
330
1F
100
AcDbEntity
  8
GR1
  6
CONTINUOUS
 62
     3
100
AcDbLine
 10
547.0520174385547
 20
291.6854916742077
 30
0.0
 11
470.8075195328435
 21
257.3278148054466
 31
0.0
  0
LINE
  5
1F6
330
1F
100
AcDbEntity
  8
GR1
  6
CONTINUOUS
 62
     3
100
AcDbLine
 10
470.1034343023768
 20
257.0105363984675
 30
0.0
 11
467.0886421280935
 21
255.6519956749311
 31
0.0
  0
ARC
  5
1F7
330
1F
100
AcDbEntity
  8
GR1
  6
CONTINUOUS
 62
     3
100
AcDbCircle
 10
465.0344497145499
 20
260.2105363984675
 30
0.0
 40
5.0
100
AcDbArc
 50
219.791819499557
 51
320.2081805004428
  0
TEXT
  5
1F8
330
1F
100
AcDbEntity
  8
GR1
  6
CONTINUOUS
 62
     7
100
AcDbText
 10
487.4988403320312
 20
271.9197998046875
 30
0.0
 40
9.80255126953125
  1
　－２００
 50
258.9999999999999
 41
1.139524668441206
  7
FX_VECTOR
 72
     5
 11
478.6688209573619
 21
226.4932881696366
 31
0.0
100
AcDbText
  0
LINE
  5
1F9
330
1F
100
AcDbEntity
  8
GR1
  6
CONTINUOUS
 62
     7
100
AcDbLine
 10
487.7232137490508
 20
264.950449511625
 30
0.0
 11
488.54932025643
 21
264.3043911326529
 31
0.0
  0
LINE
  5
1FA
330
1F
100
AcDbEntity
  8
GR1
  6
CONTINUOUS
 62
     7
100
AcDbLine
 10
488.54932025643
 20
264.3043911326529
 30
0.0
 11
494.5328684870364
 21
263.1706662047485
 31
0.0
  0
LINE
  5
1FB
330
1F
100
AcDbEntity
  8
GR1
  6
CONTINUOUS
 62
     6
100
AcDbLine
 10
514.1111575224174
 20
200.9383930059302
 30
0.0
 11
514.1111575224174
 21
276.8415166744983
 31
0.0
  0
LINE
  5
1FC
330
1F
100
AcDbEntity
  8
GR1
  6
DASHDOT
 62
     6
100
AcDbLine
 10
545.0344497145497
 20
296.2605363984675
 30
0.0
 11
465.0344497145499
 21
260.2105363984675
 31
0.0
  0
LINE
  5
1FD
330
1F
100
AcDbEntity
  8
GR1
  6
DASHDOT
 62
     6
100
AcDbLine
 10
465.0344497145499
 20
260.2105363984675
 30
0.0
 11
451.2822479816167
 21
260.2105363984675
 31
0.0
  0
LINE
  5
1FE
330
1F
100
AcDbEntity
  8
GR1
  6
DASHDOT
 62
     6
100
AcDbLine
 10
465.0344497145499
 20
269.2428700321398
 30
0.0
 11
465.0344497145499
 21
250.7722953459714
 31
0.0
  0
INSERT
  5
202
330
1F
100
AcDbEntity
  8
GR1
  6
CONTINUOUS
 62
     6
100
AcDbBlockReference
  2
BLKF026
 10
0.0
 20
0.0
 30
0.0
  0
INSERT
  5
228
330
1F
100
AcDbEntity
  8
GR1
  6
CONTINUOUS
 62
     6
100
AcDbBlockReference
  2
BLKF027
 10
0.0
 20
0.0
 30
0.0
  0
LINE
  5
24B
330
1F
100
AcDbEntity
  8
GR1
  6
CONTINUOUS
 62
     3
100
AcDbLine
 10
472.03444971455
 20
378.9204336907174
 30
0.0
 11
472.03444971455
 21
396.8768734402594
 31
0.0
  0
ARC
  5
24C
330
1F
100
AcDbEntity
  8
GR1
  6
CONTINUOUS
 62
     3
100
AcDbCircle
 10
466.03444971455
 20
397.4482977357179
 30
0.0
 40
6.0
100
AcDbArc
 50
0.0
 51
38.94204453871382
  0
LINE
  5
24D
330
1F
100
AcDbEntity
  8
GR1
  6
CONTINUOUS
 62
     6
100
AcDbLine
 10
470.0345280531538
 20
403.0897733399399
 30
0.0
 11
470.03444971455
 21
403.1204336907174
 31
0.0
  0
ARC
  5
24E
330
1F
100
AcDbEntity
  8
GR1
  6
CONTINUOUS
 62
     3
100
AcDbCircle
 10
473.0344888838519
 20
403.1051035153287
 30
0.0
 40
3.0
100
AcDbArc
 50
180.2927860572381
 51
218.9420445387132
  0
LINE
  5
24F
330
1F
100
AcDbEntity
  8
GR1
  6
CONTINUOUS
 62
     3
100
AcDbLine
 10
476.03444971455
 20
409.1204336907174
 30
0.0
 11
532.012888205948
 21
410.6742754023352
 31
0.0
  0
ARC
  5
250
330
1F
100
AcDbEntity
  8
GR1
  6
CONTINUOUS
 62
     3
100
AcDbCircle
 10
531.5134390843566
 20
428.6673449174274
 30
0.0
 40
18.0
100
AcDbArc
 50
271.59
 51
289.2180280598686
  0
ARC
  5
251
330
1F
100
AcDbEntity
  8
GR1
  6
CONTINUOUS
 62
     3
100
AcDbCircle
 10
476.03444971455
 20
403.1204336907174
 30
0.0
 40
6.0
100
AcDbArc
 50
90.0
 51
180.0
  0
LINE
  5
252
330
1F
100
AcDbEntity
  8
GR1
  6
CONTINUOUS
 62
     6
100
AcDbLine
 10
460.03444971455
 20
403.1204336907174
 30
0.0
 11
460.0343713759461
 21
403.0897733399399
 31
0.0
  0
ARC
  5
253
330
1F
100
AcDbEntity
  8
GR1
  6
CONTINUOUS
 62
     3
100
AcDbCircle
 10
464.03444971455
 20
397.4482977357179
 30
0.0
 40
6.0
100
AcDbArc
 50
141.0579554612862
 51
180.0
  0
LINE
  5
254
330
1F
100
AcDbEntity
  8
GR1
  6
CONTINUOUS
 62
     3
100
AcDbLine
 10
458.03444971455
 20
396.8768734402594
 30
0.0
 11
458.03444971455
 21
378.9204336907174
 31
0.0
  0
ARC
  5
255
330
1F
100
AcDbEntity
  8
GR1
  6
CONTINUOUS
 62
     3
100
AcDbCircle
 10
465.03444971455
 20
378.9204336907175
 30
0.0
 40
7.0
100
AcDbArc
 50
180.0
 51
0.0
  0
ARC
  5
256
330
1F
100
AcDbEntity
  8
GR1
  6
CONTINUOUS
 62
     3
100
AcDbCircle
 10
457.034410545248
 20
403.1051035153287
 30
0.0
 40
3.0
100
AcDbArc
 50
321.0579554612871
 51
359.707213942763
  0
ARC
  5
257
330
1F
100
AcDbEntity
  8
GR1
  6
CONTINUOUS
 62
     3
100
AcDbCircle
 10
476.03444971455
 20
403.1204336907174
 30
0.0
 40
16.0
100
AcDbArc
 50
87.79922557016738
 51
180.0
  0
LINE
  5
258
330
1F
100
AcDbEntity
  8
GR1
  6
CONTINUOUS
 62
     6
100
AcDbLine
 10
470.8343837725242
 20
377.3839556000338
 30
0.0
 11
470.6974006184522
 21
377.5209387541058
 31
0.0
  0
LINE
  5
259
330
1F
100
AcDbEntity
  8
GR1
  6
CONTINUOUS
 62
     6
100
AcDbLine
 10
470.6974006184523
 20
377.5209387541057
 30
0.0
 11
470.9173666385948
 21
377.7409047742483
 31
0.0
  0
LINE
  5
25A
330
1F
100
AcDbEntity
  8
GR1
  6
CONTINUOUS
 62
     6
100
AcDbLine
 10
469.9902938372657
 20
378.2280455352923
 30
0.0
 11
468.2225268842993
 21
379.9958124882587
 31
0.0
  0
LINE
  5
25B
330
1F
100
AcDbEntity
  8
GR1
  6
CONTINUOUS
 62
     6
100
AcDbLine
 10
468.2225268842993
 20
379.9958124882587
 30
0.0
 11
469.9902938372657
 21
381.763579441225
 31
0.0
  0
LINE
  5
25C
330
1F
100
AcDbEntity
  8
GR1
  6
CONTINUOUS
 62
     6
100
AcDbLine
 10
470.6974006184522
 20
382.4706862224116
 30
0.0
 11
471.0344497145499
 21
382.8077353185093
 31
0.0
  0
LINE
  5
25D
330
1F
100
AcDbEntity
  8
GR1
  6
CONTINUOUS
 62
     6
100
AcDbLine
 10
470.6974006184522
 20
382.4706862224116
 30
0.0
 11
471.03444971455
 21
382.1336371263138
 31
0.0
  0
LINE
  5
25E
330
1F
100
AcDbEntity
  8
GR1
  6
CONTINUOUS
 62
     6
100
AcDbLine
 10
470.03444971455
 20
383.1336371263138
 30
0.0
 11
468.2225268842993
 21
384.9455599565645
 31
0.0
  0
LINE
  5
25F
330
1F
100
AcDbEntity
  8
GR1
  6
CONTINUOUS
 62
     6
100
AcDbLine
 10
468.2225268842993
 20
384.9455599565645
 30
0.0
 11
469.9902938372657
 21
386.7133269095309
 31
0.0
  0
LINE
  5
260
330
1F
100
AcDbEntity
  8
GR1
  6
CONTINUOUS
 62
     6
100
AcDbLine
 10
470.6974006184522
 20
387.4204336907175
 30
0.0
 11
471.0344497145499
 21
387.7574827868151
 31
0.0
  0
LINE
  5
261
330
1F
100
AcDbEntity
  8
GR1
  6
CONTINUOUS
 62
     6
100
AcDbLine
 10
470.6974006184522
 20
387.4204336907175
 30
0.0
 11
471.03444971455
 21
387.0833845946197
 31
0.0
  0
LINE
  5
262
330
1F
100
AcDbEntity
  8
GR1
  6
CONTINUOUS
 62
     6
100
AcDbLine
 10
470.03444971455
 20
388.0833845946197
 30
0.0
 11
468.2225268842993
 21
389.8953074248703
 31
0.0
  0
LINE
  5
263
330
1F
100
AcDbEntity
  8
GR1
  6
CONTINUOUS
 62
     6
100
AcDbLine
 10
468.2225268842993
 20
389.8953074248703
 30
0.0
 11
470.03444971455
 21
391.707230255121
 31
0.0
  0
LINE
  5
264
330
1F
100
AcDbEntity
  8
GR1
  6
CONTINUOUS
 62
     6
100
AcDbLine
 10
470.6974006184522
 20
392.3701811590232
 30
0.0
 11
471.03444971455
 21
392.707230255121
 31
0.0
  0
LINE
  5
265
330
1F
100
AcDbEntity
  8
GR1
  6
CONTINUOUS
 62
     6
100
AcDbLine
 10
470.6974006184523
 20
392.3701811590232
 30
0.0
 11
471.03444971455
 21
392.0331320629256
 31
0.0
  0
LINE
  5
266
330
1F
100
AcDbEntity
  8
GR1
  6
CONTINUOUS
 62
     6
100
AcDbLine
 10
470.03444971455
 20
393.0331320629256
 30
0.0
 11
468.2225268842994
 21
394.8450548931761
 31
0.0
  0
LINE
  5
267
330
1F
100
AcDbEntity
  8
GR1
  6
CONTINUOUS
 62
     6
100
AcDbLine
 10
468.2225268842993
 20
394.8450548931761
 30
0.0
 11
469.9902938372657
 21
396.6128218461425
 31
0.0
  0
LINE
  5
268
330
1F
100
AcDbEntity
  8
GR1
  6
CONTINUOUS
 62
     6
100
AcDbLine
 10
470.6974006184522
 20
397.3199286273291
 30
0.0
 11
471.0625456792366
 21
396.9547835665447
 31
0.0
  0
ARC
  5
269
330
1F
100
AcDbEntity
  8
GR1
  6
CONTINUOUS
 62
     6
100
AcDbCircle
 10
463.03444971455
 20
396.926687601858
 30
0.0
 40
8.0
100
AcDbArc
 50
0.0000000000003979
 51
38.62483287305071
  0
ARC
  5
26A
330
1F
100
AcDbEntity
  8
GR1
  6
CONTINUOUS
 62
     6
100
AcDbCircle
 10
465.0344497145499
 20
396.6496003573839
 30
0.0
 40
6.770833333333487
100
AcDbArc
 50
51.11993034364804
 51
128.8800696563511
  0
LINE
  5
26B
330
1F
100
AcDbEntity
  8
GR1
  6
CONTINUOUS
 62
     6
100
AcDbLine
 10
460.78444971455
 20
401.9204336907174
 30
0.0
 11
469.28444971455
 21
401.9204336907174
 31
0.0
  0
LINE
  5
26C
330
1F
100
AcDbEntity
  8
GR1
  6
CONTINUOUS
 62
     6
100
AcDbLine
 10
469.7310764386884
 20
401.3033519158711
 30
0.0
 11
468.2225268842993
 21
399.7948023614821
 31
0.0
  0
LINE
  5
26D
330
1F
100
AcDbEntity
  8
GR1
  6
CONTINUOUS
 62
     6
100
AcDbLine
 10
468.2225268842993
 20
399.794802361482
 30
0.0
 11
470.03444971455
 21
397.9828795312313
 31
0.0
  0
LINE
  5
26E
330
1F
100
AcDbEntity
  8
GR1
  6
CONTINUOUS
 62
     6
100
AcDbLine
 10
470.6974006184523
 20
397.3199286273291
 30
0.0
 11
471.0037976542052
 21
397.6263256630821
 31
0.0
  0
LINE
  5
26F
330
1F
100
AcDbEntity
  8
GR1
  6
CONTINUOUS
 62
     6
100
AcDbLine
 10
471.03444971455
 20
396.926687601858
 30
0.0
 11
471.03444971455
 21
378.9204336907174
 31
0.0
  0
LINE
  5
270
330
1F
100
AcDbEntity
  8
GR1
  6
CONTINUOUS
 62
     6
100
AcDbLine
 10
469.9902938372657
 20
376.8138319729193
 30
0.0
 11
468.2225268842993
 21
375.0460650199528
 31
0.0
  0
LINE
  5
271
330
1F
100
AcDbEntity
  8
GR1
  6
CONTINUOUS
 62
     6
100
AcDbLine
 10
468.2225268842993
 20
375.0460650199528
 30
0.0
 11
468.9200450289349
 21
374.3485468753173
 31
0.0
  0
LINE
  5
272
330
1F
100
AcDbEntity
  8
GR1
  6
CONTINUOUS
 62
     6
100
AcDbLine
 10
467.5154201031128
 20
374.3389582387663
 30
0.0
 11
466.2139786310191
 21
373.0375167666726
 31
0.0
  0
LINE
  5
273
330
1F
100
AcDbEntity
  8
GR1
  6
CONTINUOUS
 62
     6
100
AcDbLine
 10
465.03444971455
 20
373.2843947213963
 30
0.0
 11
463.2727794159935
 21
375.0460650199528
 31
0.0
  0
LINE
  5
274
330
1F
100
AcDbEntity
  8
GR1
  6
CONTINUOUS
 62
     6
100
AcDbLine
 10
463.2727794159935
 20
375.0460650199528
 30
0.0
 11
465.0405463689598
 21
376.8138319729193
 31
0.0
  0
LINE
  5
275
330
1F
100
AcDbEntity
  8
GR1
  6
CONTINUOUS
 62
     6
100
AcDbLine
 10
465.7476531501464
 20
377.5209387541058
 30
0.0
 11
467.5154201031128
 21
379.2887057070722
 31
0.0
  0
LINE
  5
276
330
1F
100
AcDbEntity
  8
GR1
  6
CONTINUOUS
 62
     6
100
AcDbLine
 10
467.5154201031128
 20
380.7029192694453
 30
0.0
 11
465.7476531501464
 21
382.4706862224116
 31
0.0
  0
LINE
  5
277
330
1F
100
AcDbEntity
  8
GR1
  6
CONTINUOUS
 62
     6
100
AcDbLine
 10
465.7476531501464
 20
382.4706862224116
 30
0.0
 11
467.5154201031127
 21
384.2384531753779
 31
0.0
  0
LINE
  5
278
330
1F
100
AcDbEntity
  8
GR1
  6
CONTINUOUS
 62
     6
100
AcDbLine
 10
467.5154201031128
 20
385.652666737751
 30
0.0
 11
465.7476531501464
 21
387.4204336907175
 31
0.0
  0
LINE
  5
279
330
1F
100
AcDbEntity
  8
GR1
  6
CONTINUOUS
 62
     6
100
AcDbLine
 10
465.7476531501464
 20
387.4204336907175
 30
0.0
 11
467.5154201031127
 21
389.1882006436838
 31
0.0
  0
LINE
  5
27A
330
1F
100
AcDbEntity
  8
GR1
  6
CONTINUOUS
 62
     6
100
AcDbLine
 10
467.5154201031128
 20
390.6024142060569
 30
0.0
 11
465.7476531501464
 21
392.3701811590232
 31
0.0
  0
LINE
  5
27B
330
1F
100
AcDbEntity
  8
GR1
  6
CONTINUOUS
 62
     6
100
AcDbLine
 10
465.7476531501464
 20
392.3701811590232
 30
0.0
 11
467.5154201031128
 21
394.1379481119897
 31
0.0
  0
LINE
  5
27C
330
1F
100
AcDbEntity
  8
GR1
  6
CONTINUOUS
 62
     6
100
AcDbLine
 10
467.5154201031128
 20
395.5521616743628
 30
0.0
 11
465.7476531501464
 21
397.3199286273291
 31
0.0
  0
LINE
  5
27D
330
1F
100
AcDbEntity
  8
GR1
  6
CONTINUOUS
 62
     6
100
AcDbLine
 10
465.7476531501464
 20
397.3199286273291
 30
0.0
 11
467.5154201031128
 21
399.0876955802955
 31
0.0
  0
LINE
  5
27E
330
1F
100
AcDbEntity
  8
GR1
  6
CONTINUOUS
 62
     6
100
AcDbLine
 10
467.5154201031128
 20
400.5019091426685
 30
0.0
 11
466.0968955550639
 21
401.9204336907175
 31
0.0
  0
LINE
  5
27F
330
1F
100
AcDbEntity
  8
GR1
  6
CONTINUOUS
 62
     6
100
AcDbLine
 10
465.0405463689598
 20
401.5625693144484
 30
0.0
 11
463.2727794159935
 21
399.794802361482
 31
0.0
  0
LINE
  5
280
330
1F
100
AcDbEntity
  8
GR1
  6
CONTINUOUS
 62
     6
100
AcDbLine
 10
463.2727794159935
 20
399.794802361482
 30
0.0
 11
465.0405463689598
 21
398.0270354085156
 31
0.0
  0
LINE
  5
281
330
1F
100
AcDbEntity
  8
GR1
  6
CONTINUOUS
 62
     6
100
AcDbLine
 10
465.03444971455
 20
396.6067251917327
 30
0.0
 11
463.2727794159935
 21
394.8450548931762
 31
0.0
  0
LINE
  5
282
330
1F
100
AcDbEntity
  8
GR1
  6
CONTINUOUS
 62
     6
100
AcDbLine
 10
463.2727794159935
 20
394.8450548931762
 30
0.0
 11
465.03444971455
 21
393.0833845946197
 31
0.0
  0
LINE
  5
283
330
1F
100
AcDbEntity
  8
GR1
  6
CONTINUOUS
 62
     6
100
AcDbLine
 10
465.0405463689598
 20
391.6630743778367
 30
0.0
 11
463.2727794159935
 21
389.8953074248703
 31
0.0
  0
LINE
  5
284
330
1F
100
AcDbEntity
  8
GR1
  6
CONTINUOUS
 62
     6
100
AcDbLine
 10
463.2727794159935
 20
389.8953074248703
 30
0.0
 11
465.03444971455
 21
388.1336371263138
 31
0.0
  0
LINE
  5
285
330
1F
100
AcDbEntity
  8
GR1
  6
CONTINUOUS
 62
     6
100
AcDbLine
 10
465.03444971455
 20
386.707230255121
 30
0.0
 11
463.2727794159935
 21
384.9455599565645
 31
0.0
  0
LINE
  5
286
330
1F
100
AcDbEntity
  8
GR1
  6
CONTINUOUS
 62
     6
100
AcDbLine
 10
463.2727794159935
 20
384.9455599565646
 30
0.0
 11
465.03444971455
 21
383.1838896580081
 31
0.0
  0
LINE
  5
287
330
1F
100
AcDbEntity
  8
GR1
  6
CONTINUOUS
 62
     6
100
AcDbLine
 10
465.0405463689598
 20
381.763579441225
 30
0.0
 11
463.2727794159935
 21
379.9958124882587
 31
0.0
  0
LINE
  5
288
330
1F
100
AcDbEntity
  8
GR1
  6
CONTINUOUS
 62
     6
100
AcDbLine
 10
463.2727794159935
 20
379.9958124882587
 30
0.0
 11
465.03444971455
 21
378.2341421897022
 31
0.0
  0
LINE
  5
289
330
1F
100
AcDbEntity
  8
GR1
  6
CONTINUOUS
 62
     6
100
AcDbLine
 10
465.7476531501464
 20
377.5209387541058
 30
0.0
 11
467.5154201031128
 21
375.7531718011394
 31
0.0
  0
LINE
  5
28A
330
1F
100
AcDbEntity
  8
GR1
  6
CONTINUOUS
 62
     6
100
AcDbLine
 10
462.565672634807
 20
375.7531718011394
 30
0.0
 11
460.7979056818405
 21
377.5209387541058
 31
0.0
  0
LINE
  5
28B
330
1F
100
AcDbEntity
  8
GR1
  6
CONTINUOUS
 62
     6
100
AcDbLine
 10
460.7979056818406
 20
377.5209387541058
 30
0.0
 11
462.5656726348069
 21
379.2887057070722
 31
0.0
  0
LINE
  5
28C
330
1F
100
AcDbEntity
  8
GR1
  6
CONTINUOUS
 62
     6
100
AcDbLine
 10
462.565672634807
 20
380.7029192694453
 30
0.0
 11
460.7979056818406
 21
382.4706862224116
 31
0.0
  0
LINE
  5
28D
330
1F
100
AcDbEntity
  8
GR1
  6
CONTINUOUS
 62
     6
100
AcDbLine
 10
460.78444971455
 20
382.457230255121
 30
0.0
 11
462.565672634807
 21
384.238453175378
 31
0.0
  0
LINE
  5
28E
330
1F
100
AcDbEntity
  8
GR1
  6
CONTINUOUS
 62
     6
100
AcDbLine
 10
462.565672634807
 20
385.652666737751
 30
0.0
 11
460.7979056818406
 21
387.4204336907175
 31
0.0
  0
LINE
  5
28F
330
1F
100
AcDbEntity
  8
GR1
  6
CONTINUOUS
 62
     6
100
AcDbLine
 10
460.78444971455
 20
387.4069777234267
 30
0.0
 11
462.565672634807
 21
389.1882006436838
 31
0.0
  0
LINE
  5
290
330
1F
100
AcDbEntity
  8
GR1
  6
CONTINUOUS
 62
     6
100
AcDbLine
 10
462.5656726348069
 20
390.6024142060569
 30
0.0
 11
460.78444971455
 21
392.3836371263138
 31
0.0
  0
LINE
  5
291
330
1F
100
AcDbEntity
  8
GR1
  6
CONTINUOUS
 62
     6
100
AcDbLine
 10
460.7979056818406
 20
392.3701811590232
 30
0.0
 11
462.565672634807
 21
394.1379481119897
 31
0.0
  0
LINE
  5
292
330
1F
100
AcDbEntity
  8
GR1
  6
CONTINUOUS
 62
     6
100
AcDbLine
 10
462.565672634807
 20
395.5521616743627
 30
0.0
 11
460.78444971455
 21
397.3333845946197
 31
0.0
  0
LINE
  5
293
330
1F
100
AcDbEntity
  8
GR1
  6
CONTINUOUS
 62
     6
100
AcDbLine
 10
460.7979056818406
 20
397.3199286273291
 30
0.0
 11
462.565672634807
 21
399.0876955802954
 31
0.0
  0
LINE
  5
294
330
1F
100
AcDbEntity
  8
GR1
  6
CONTINUOUS
 62
     6
100
AcDbLine
 10
462.565672634807
 20
400.5019091426685
 30
0.0
 11
461.1471480867581
 21
401.9204336907175
 31
0.0
  0
ARC
  5
295
330
1F
100
AcDbEntity
  8
GR1
  6
CONTINUOUS
 62
     6
100
AcDbCircle
 10
467.03444971455
 20
396.926687601858
 30
0.0
 40
8.0
100
AcDbArc
 50
141.3751671269496
 51
180.0
  0
LINE
  5
296
330
1F
100
AcDbEntity
  8
GR1
  6
CONTINUOUS
 62
     6
100
AcDbLine
 10
459.03444971455
 20
396.926687601858
 30
0.0
 11
459.03444971455
 21
378.9204336907174
 31
0.0
  0
ARC
  5
297
330
1F
100
AcDbEntity
  8
GR1
  6
CONTINUOUS
 62
     6
100
AcDbCircle
 10
465.03444971455
 20
378.9204336907174
 30
0.0
 40
6.0
100
AcDbArc
 50
180.0
 51
0.0
  0
LINE
  5
298
330
1F
100
AcDbEntity
  8
GR1
  6
CONTINUOUS
 62
     6
100
AcDbLine
 10
462.565672634807
 20
374.3389582387663
 30
0.0
 11
461.9817690398453
 21
373.7550546438047
 31
0.0
  0
LINE
  5
299
330
1F
100
AcDbEntity
  8
GR1
  6
CONTINUOUS
 62
     6
100
AcDbLine
 10
459.6174519445597
 20
376.3404850168249
 30
0.0
 11
460.090798900654
 21
376.8138319729192
 31
0.0
  0
LINE
  5
29A
330
1F
100
AcDbEntity
  8
GR1
  6
CONTINUOUS
 62
     6
100
AcDbLine
 10
460.03444971455
 20
378.2843947213964
 30
0.0
 11
459.0344497145499
 21
379.2843947213964
 31
0.0
  0
LINE
  5
29B
330
1F
100
AcDbEntity
  8
GR1
  6
CONTINUOUS
 62
     6
100
AcDbLine
 10
459.03444971455
 20
380.707230255121
 30
0.0
 11
460.03444971455
 21
381.707230255121
 31
0.0
  0
LINE
  5
29C
330
1F
100
AcDbEntity
  8
GR1
  6
CONTINUOUS
 62
     6
100
AcDbLine
 10
460.03444971455
 20
383.2341421897022
 30
0.0
 11
459.03444971455
 21
384.2341421897022
 31
0.0
  0
LINE
  5
29D
330
1F
100
AcDbEntity
  8
GR1
  6
CONTINUOUS
 62
     6
100
AcDbLine
 10
459.0344497145499
 20
385.6569777234267
 30
0.0
 11
460.090798900654
 21
386.7133269095309
 31
0.0
  0
LINE
  5
29E
330
1F
100
AcDbEntity
  8
GR1
  6
CONTINUOUS
 62
     6
100
AcDbLine
 10
460.090798900654
 20
388.127540471904
 30
0.0
 11
459.03444971455
 21
389.1838896580081
 31
0.0
  0
LINE
  5
29F
330
1F
100
AcDbEntity
  8
GR1
  6
CONTINUOUS
 62
     6
100
AcDbLine
 10
459.03444971455
 20
390.6067251917326
 30
0.0
 11
460.090798900654
 21
391.6630743778367
 31
0.0
  0
LINE
  5
2A0
330
1F
100
AcDbEntity
  8
GR1
  6
CONTINUOUS
 62
     6
100
AcDbLine
 10
460.090798900654
 20
393.0772879402098
 30
0.0
 11
459.03444971455
 21
394.1336371263138
 31
0.0
  0
LINE
  5
2A1
330
1F
100
AcDbEntity
  8
GR1
  6
CONTINUOUS
 62
     6
100
AcDbLine
 10
459.03444971455
 20
395.5564726600385
 30
0.0
 11
460.090798900654
 21
396.6128218461425
 31
0.0
  0
LINE
  5
2A2
330
1F
100
AcDbEntity
  8
GR1
  6
CONTINUOUS
 62
     6
100
AcDbLine
 10
460.090798900654
 20
398.0270354085156
 30
0.0
 11
459.2688377970339
 21
398.8489965121357
 31
0.0
  0
LINE
  5
2A3
330
1F
100
AcDbEntity
  8
GR1
  6
DASHDOT
 62
     6
100
AcDbLine
 10
465.0344497145501
 20
405.9968351073167
 30
0.0
 11
465.0344497145501
 21
369.5049995072001
 31
0.0
  0
ARC
  5
2A4
330
1F
100
AcDbEntity
  8
GR1
  6
DASHDOT
 62
     6
100
AcDbCircle
 10
473.0344497145501
 20
405.9968351073167
 30
0.0
 40
8.0
100
AcDbArc
 50
91.65741740198156
 51
180.0
  0
LINE
  5
2A5
330
1F
100
AcDbEntity
  8
GR1
  6
DASHDOT
 62
     6
100
AcDbLine
 10
472.8030628622645
 20
413.9934881649771
 30
0.0
 11
480.9261105692615
 21
414.228532304861
 31
0.0
  0
LINE
  5
2A6
330
1F
100
AcDbEntity
  8
GR1
  6
CONTINUOUS
 62
     3
100
AcDbLine
 10
474.405486053887
 20
258.9491484689918
 30
0.0
 11
462.499017152716
 21
197.6956760674469
 31
0.0
  0
LINE
  5
2A7
330
1F
100
AcDbEntity
  8
GR1
  6
CONTINUOUS
 62
     3
100
AcDbLine
 10
205.1377434663391
 20
202.7605363984674
 30
0.0
 11
205.1377434663391
 21
183.7605363984674
 31
0.0
  0
LINE
  5
2A8
330
1F
100
AcDbEntity
  8
GR1
  6
CONTINUOUS
 62
     3
100
AcDbLine
 10
205.1377434663391
 20
183.7605363984674
 30
0.0
 11
205.6377434663391
 21
183.2605363984674
 31
0.0
  0
LINE
  5
2A9
330
1F
100
AcDbEntity
  8
GR1
  6
CONTINUOUS
 62
     3
100
AcDbLine
 10
205.6377434663391
 20
183.2605363984674
 30
0.0
 11
206.4377434663392
 21
183.2605363984674
 31
0.0
  0
LINE
  5
2AA
330
1F
100
AcDbEntity
  8
GR1
  6
CONTINUOUS
 62
     3
100
AcDbLine
 10
206.4377434663392
 20
203.2605363984674
 30
0.0
 11
205.6377434663391
 21
203.2605363984674
 31
0.0
  0
LINE
  5
2AB
330
1F
100
AcDbEntity
  8
GR1
  6
CONTINUOUS
 62
     3
100
AcDbLine
 10
205.6377434663391
 20
203.2605363984674
 30
0.0
 11
205.1377434663391
 21
202.7605363984674
 31
0.0
  0
LINE
  5
2AC
330
1F
100
AcDbEntity
  8
GR1
  6
CONTINUOUS
 62
     3
100
AcDbLine
 10
473.5344497145501
 20
456.1704336907175
 30
0.0
 11
473.5344497145501
 21
507.1704336907174
 31
0.0
  0
ARC
  5
2AD
330
1F
100
AcDbEntity
  8
GR1
  6
CONTINUOUS
 62
     3
100
AcDbCircle
 10
480.0344497145501
 20
456.1704336907175
 30
0.0
 40
6.5
100
AcDbArc
 50
180.0
 51
219.7151372318255
  0
LINE
  5
2AE
330
1F
100
AcDbEntity
  8
GR1
  6
CONTINUOUS
 62
     3
100
AcDbLine
 10
262.7377434663392
 20
202.7605363984674
 30
0.0
 11
262.7377434663392
 21
183.7605363984674
 31
0.0
  0
LINE
  5
2AF
330
1F
100
AcDbEntity
  8
GR1
  6
CONTINUOUS
 62
     3
100
AcDbLine
 10
262.7377434663392
 20
183.7605363984674
 30
0.0
 11
262.2377434663392
 21
183.2605363984674
 31
0.0
  0
LINE
  5
2B0
330
1F
100
AcDbEntity
  8
GR1
  6
CONTINUOUS
 62
     3
100
AcDbLine
 10
262.2377434663392
 20
183.2605363984674
 30
0.0
 11
261.4377434663392
 21
183.2605363984674
 31
0.0
  0
LINE
  5
2B1
330
1F
100
AcDbEntity
  8
GR1
  6
CONTINUOUS
 62
     3
100
AcDbLine
 10
261.4377434663392
 20
203.2605363984674
 30
0.0
 11
262.2377434663392
 21
203.2605363984674
 31
0.0
  0
LINE
  5
2B2
330
1F
100
AcDbEntity
  8
GR1
  6
CONTINUOUS
 62
     3
100
AcDbLine
 10
262.2377434663392
 20
203.2605363984674
 30
0.0
 11
262.7377434663392
 21
202.7605363984674
 31
0.0
  0
ARC
  5
2B3
330
1F
100
AcDbEntity
  8
GR1
  6
CONTINUOUS
 62
     3
100
AcDbCircle
 10
589.696052686571
 20
326.1985363984673
 30
0.0
 40
7.0
100
AcDbArc
 50
270.0
 51
356.9263299625382
  0
LINE
  5
2B4
330
1F
100
AcDbEntity
  8
GR1
  6
CONTINUOUS
 62
     3
100
AcDbLine
 10
596.6739927263471
 20
325.5999099843879
 30
0.0
 11
597.03444971455
 21
332.3126827482973
 31
0.0
  0
LINE
  5
2B5
330
1F
100
AcDbEntity
  8
GR1
  6
CONTINUOUS
 62
     3
100
AcDbLine
 10
587.53444971455
 20
304.1985363984674
 30
0.0
 11
591.53444971455
 21
304.1985363984674
 31
0.0
  0
LINE
  5
2B6
330
1F
100
AcDbEntity
  8
GR1
  6
CONTINUOUS
 62
     3
100
AcDbLine
 10
591.53444971455
 20
304.1985363984674
 30
0.0
 11
591.53444971455
 21
312.1985363984673
 31
0.0
  0
ARC
  5
2B7
330
1F
100
AcDbEntity
  8
GR1
  6
CONTINUOUS
 62
     3
100
AcDbCircle
 10
584.53444971455
 20
312.1985363984673
 30
0.0
 40
7.0
100
AcDbArc
 50
0.0
 51
90.0
  0
ARC
  5
2B8
330
1F
100
AcDbEntity
  8
GR1
  6
CONTINUOUS
 62
     3
100
AcDbCircle
 10
594.4211311421416
 20
286.0318745804202
 30
0.0
 40
19.42817497081049
100
AcDbArc
 50
110.7608904894721
 51
158.3534501194008
  0
LINE
  5
2B9
330
1F
100
AcDbEntity
  8
GR1
  6
CONTINUOUS
 62
     3
100
AcDbLine
 10
500.372846742529
 20
319.1985363984673
 30
0.0
 11
589.696052686571
 21
319.1985363984673
 31
0.0
  0
ARC
  5
2BA
330
1F
100
AcDbEntity
  8
GR1
  6
CONTINUOUS
 62
     3
100
AcDbCircle
 10
506.9468867247444
 20
316.1985363984673
 30
0.0
 40
3.0
100
AcDbArc
 50
90.0
 51
125.7405893580812
  0
ARC
  5
2BB
330
1F
100
AcDbEntity
  8
GR1
  6
CONTINUOUS
 62
     3
100
AcDbCircle
 10
514.5403993972075
 20
305.646827281308
 30
0.0
 40
16.0
100
AcDbArc
 50
125.7405893580813
 51
157.3317569551214
  0
LINE
  5
2BC
330
1F
100
AcDbEntity
  8
GR1
  6
CONTINUOUS
 62
     3
100
AcDbLine
 10
510.9218635303654
 20
311.1985363984673
 30
0.0
 11
485.1290939773327
 21
311.1985363984673
 31
0.0
  0
ARC
  5
2BD
330
1F
100
AcDbEntity
  8
GR1
  6
CONTINUOUS
 62
     3
100
AcDbCircle
 10
485.1290939773327
 20
300.1985363984673
 30
0.0
 40
11.0
100
AcDbArc
 50
90.0
 51
169.0
  0
LINE
  5
2BE
330
1F
100
AcDbEntity
  8
GR1
  6
CONTINUOUS
 62
     3
100
AcDbLine
 10
474.3311949594085
 20
302.2974353476093
 30
0.0
 11
473.53444971455
 21
298.1985363984672
 31
0.0
  0
LINE
  5
2BF
330
1F
100
AcDbEntity
  8
GR1
  6
CONTINUOUS
 62
     3
100
AcDbLine
 10
473.5344497145499
 20
298.1985363984674
 30
0.0
 11
477.53444971455
 21
298.1985363984674
 31
0.0
  0
ARC
  5
2C0
330
1F
100
AcDbEntity
  8
GR1
  6
CONTINUOUS
 62
     3
100
AcDbCircle
 10
474.876857948405
 20
292.8192050269566
 30
0.0
 40
6.0
100
AcDbArc
 50
348.9999999999999
 51
63.70889804190213
  0
ARC
  5
2C1
330
1F
100
AcDbEntity
  8
GR1
  6
CONTINUOUS
 62
     3
100
AcDbCircle
 10
498.8536180943356
 20
312.1985363984673
 30
0.0
 40
1.0
100
AcDbArc
 50
270.0
 51
337.3317569551209
  0
LINE
  5
2C2
330
1F
100
AcDbEntity
  8
GR1
  6
CONTINUOUS
 62
     3
100
AcDbLine
 10
493.03444971455
 20
332.3126827482973
 30
0.0
 11
493.3949067027528
 21
325.599909984388
 31
0.0
  0
ARC
  5
2C3
330
1F
100
AcDbEntity
  8
GR1
  6
CONTINUOUS
 62
     3
100
AcDbCircle
 10
500.372846742529
 20
326.1985363984673
 30
0.0
 40
7.0
100
AcDbArc
 50
183.0736700374617
 51
270.0
  0
LINE
  5
2C4
330
1F
100
AcDbEntity
  8
基準ﾚｲﾔｸ_ﾙ_ﾌ_
  6
CONTINUOUS
 62
     3
100
AcDbLine
 10
597.03444971455
 20
332.3126827482973
 30
0.0
 11
493.03444971455
 21
332.3126827482973
 31
0.0
  0
ARC
  5
2C5
330
1F
100
AcDbEntity
  8
GR1
  6
CONTINUOUS
 62
     3
100
AcDbCircle
 10
592.603702416712
 20
342.4105363984673
 30
0.0
 40
9.0
100
AcDbArc
 50
270.0
 51
339.5126848852775
  0
LINE
  5
2C6
330
1F
100
AcDbEntity
  8
GR1
  6
CONTINUOUS
 62
     3
100
AcDbLine
 10
592.6037024167122
 20
333.4105363984673
 30
0.0
 11
497.4651970123878
 21
333.4105363984673
 31
0.0
  0
ARC
  5
2C7
330
1F
100
AcDbEntity
  8
GR1
  6
CONTINUOUS
 62
     3
100
AcDbCircle
 10
497.4651970123878
 20
342.4105363984673
 30
0.0
 40
9.0
100
AcDbArc
 50
200.4873151147226
 51
270.0
  0
LINE
  5
2C8
330
1F
100
AcDbEntity
  8
GR1
  6
CONTINUOUS
 62
     3
100
AcDbLine
 10
475.03444971455
 20
339.2605363984674
 30
0.0
 11
615.03444971455
 21
339.2605363984674
 31
0.0
  0
LINE
  5
2C9
330
1F
100
AcDbEntity
  8
GR1
  6
CONTINUOUS
 62
     3
100
AcDbLine
 10
615.03444971455
 20
343.2605363984674
 30
0.0
 11
475.03444971455
 21
343.2605363984674
 31
0.0
  0
LINE
  5
2CA
330
1F
100
AcDbEntity
  8
GR1
  6
CONTINUOUS
 62
     3
100
AcDbLine
 10
475.03444971455
 20
343.2605363984674
 30
0.0
 11
475.03444971455
 21
339.2605363984674
 31
0.0
  0
LINE
  5
2CB
330
1F
100
AcDbEntity
  8
GR1
  6
CONTINUOUS
 62
     3
100
AcDbLine
 10
615.0344497145501
 20
343.2605363984674
 30
0.0
 11
615.0344497145501
 21
339.2605363984674
 31
0.0
  0
ARC
  5
2CC
330
1F
100
AcDbEntity
  8
基準ﾚｲﾔｸ_ﾙ_ﾌ_
  6
CONTINUOUS
 62
     3
100
AcDbCircle
 10
545.0344497145501
 20
327.8545363984674
 30
0.0
 40
5.555999999999955
100
AcDbArc
 50
53.36010701956957
 51
126.6398929804304
  0
ARC
  5
2CD
330
1F
100
AcDbEntity
  8
基準ﾚｲﾔｸ_ﾙ_ﾌ_
  6
CONTINUOUS
 62
     3
100
AcDbCircle
 10
556.0284909924655
 20
327.8545363984673
 30
0.0
 40
5.555999999999955
100
AcDbArc
 50
53.36010701957062
 51
126.6398929804294
  0
ARC
  5
2CE
330
1F
100
AcDbEntity
  8
基準ﾚｲﾔｸ_ﾙ_ﾌ_
  6
CONTINUOUS
 62
     3
100
AcDbCircle
 10
566.2776770754286
 20
327.8545363984673
 30
0.0
 40
5.555999999999955
100
AcDbArc
 50
53.36010701957062
 51
126.6398929804294
  0
ARC
  5
2CF
330
1F
100
AcDbEntity
  8
基準ﾚｲﾔｸ_ﾙ_ﾌ_
  6
CONTINUOUS
 62
     3
100
AcDbCircle
 10
575.0876173108173
 20
327.8545363984673
 30
0.0
 40
5.555999999999955
100
AcDbArc
 50
53.36010701957062
 51
126.6398929804294
  0
ARC
  5
2D0
330
1F
100
AcDbEntity
  8
基準ﾚｲﾔｸ_ﾙ_ﾌ_
  6
CONTINUOUS
 62
     3
100
AcDbCircle
 10
581.8614311170812
 20
327.8545363984673
 30
0.0
 40
5.555999999999955
100
AcDbArc
 50
53.36010701957062
 51
126.6398929804294
  0
ARC
  5
2D1
330
1F
100
AcDbEntity
  8
基準ﾚｲﾔｸ_ﾙ_ﾌ_
  6
CONTINUOUS
 62
     3
100
AcDbCircle
 10
586.1401871262466
 20
327.8545363984673
 30
0.0
 40
5.555999999999955
100
AcDbArc
 50
53.36010701957062
 51
112.6472936043786
  0
ARC
  5
2D2
330
1F
100
AcDbEntity
  8
基準ﾚｲﾔｸ_ﾙ_ﾌ_
  6
CONTINUOUS
 62
     3
100
AcDbCircle
 10
587.6339961555462
 20
327.8545363984673
 30
0.0
 40
5.555999999999955
100
AcDbArc
 50
53.36010701957062
 51
97.72577985099112
  0
ARC
  5
2D3
330
1F
100
AcDbEntity
  8
基準ﾚｲﾔｸ_ﾙ_ﾌ_
  6
CONTINUOUS
 62
     3
100
AcDbCircle
 10
534.0404084366344
 20
327.8545363984673
 30
0.0
 40
5.555999999999955
100
AcDbArc
 50
53.36010701957062
 51
126.6398929804294
  0
ARC
  5
2D4
330
1F
100
AcDbEntity
  8
基準ﾚｲﾔｸ_ﾙ_ﾌ_
  6
CONTINUOUS
 62
     3
100
AcDbCircle
 10
523.7912223536712
 20
327.8545363984673
 30
0.0
 40
5.555999999999955
100
AcDbArc
 50
53.36010701957062
 51
126.6398929804294
  0
ARC
  5
2D5
330
1F
100
AcDbEntity
  8
基準ﾚｲﾔｸ_ﾙ_ﾌ_
  6
CONTINUOUS
 62
     3
100
AcDbCircle
 10
514.9812821182825
 20
327.8545363984673
 30
0.0
 40
5.555999999999955
100
AcDbArc
 50
53.36010701957062
 51
126.6398929804294
  0
ARC
  5
2D6
330
1F
100
AcDbEntity
  8
基準ﾚｲﾔｸ_ﾙ_ﾌ_
  6
CONTINUOUS
 62
     3
100
AcDbCircle
 10
508.2074683120186
 20
327.8545363984673
 30
0.0
 40
5.555999999999955
100
AcDbArc
 50
53.36010701957062
 51
126.6398929804294
  0
ARC
  5
2D7
330
1F
100
AcDbEntity
  8
基準ﾚｲﾔｸ_ﾙ_ﾌ_
  6
CONTINUOUS
 62
     3
100
AcDbCircle
 10
503.9287123028534
 20
327.8545363984673
 30
0.0
 40
5.555999999999955
100
AcDbArc
 50
67.35270639562138
 51
126.6398929804294
  0
ARC
  5
2D8
330
1F
100
AcDbEntity
  8
基準ﾚｲﾔｸ_ﾙ_ﾌ_
  6
CONTINUOUS
 62
     3
100
AcDbCircle
 10
502.4349032735536
 20
327.8545363984673
 30
0.0
 40
5.555999999999955
100
AcDbArc
 50
82.27422014900888
 51
126.6398929804294
  0
LWPOLYLINE
  5
2D9
330
1F
100
AcDbEntity
  8
GR1
  6
CONTINUOUS
 62
     3
100
AcDbPolyline
 90
        2
 70
     0
 43
0.0
 10
567.4414749023198
 20
278.1985363984672
 42
0.0430022699087957
 10
576.3630874750615
 20
293.1985363984673
  0
LINE
  5
2DA
330
1F
100
AcDbEntity
  8
GR1
  6
CONTINUOUS
 62
     3
100
AcDbLine
 10
476.7422112839578
 20
270.9705576355715
 30
0.0
 11
480.766621049091
 21
291.6743510546974
 31
0.0
  0
LINE
  5
2DB
330
1F
100
AcDbEntity
  8
GR1
  6
CONTINUOUS
 62
     6
100
AcDbLine
 10
514.1111575224174
 20
287.8099390342774
 30
0.0
 11
514.1111575224174
 21
311.1985363984673
 31
0.0
  0
LINE
  5
2DC
330
1F
100
AcDbEntity
  8
GR1
  6
CONTINUOUS
 62
     3
100
AcDbLine
 10
504.0344497145498
 20
300.6472877444156
 30
0.0
 11
504.0344497145498
 21
294.8737850525194
 31
0.0
  0
LINE
  5
2DD
330
1F
100
AcDbEntity
  8
GR1
  6
CONTINUOUS
 62
     3
100
AcDbLine
 10
504.0344497145498
 20
294.8737850525194
 30
0.0
 11
499.0344497145498
 21
291.9870337065713
 31
0.0
  0
LINE
  5
2DE
330
1F
100
AcDbEntity
  8
GR1
  6
CONTINUOUS
 62
     3
100
AcDbLine
 10
499.0344497145498
 20
291.9870337065713
 30
0.0
 11
494.0344497145498
 21
294.8737850525195
 31
0.0
  0
LINE
  5
2DF
330
1F
100
AcDbEntity
  8
GR1
  6
CONTINUOUS
 62
     3
100
AcDbLine
 10
494.0344497145498
 20
294.8737850525195
 30
0.0
 11
494.0344497145498
 21
300.6472877444157
 31
0.0
  0
LINE
  5
2E0
330
1F
100
AcDbEntity
  8
GR1
  6
CONTINUOUS
 62
     3
100
AcDbLine
 10
494.0344497145498
 20
300.6472877444157
 30
0.0
 11
499.0344497145498
 21
303.5340390903638
 31
0.0
  0
LINE
  5
2E1
330
1F
100
AcDbEntity
  8
GR1
  6
CONTINUOUS
 62
     3
100
AcDbLine
 10
499.0344497145498
 20
303.5340390903638
 30
0.0
 11
504.0344497145498
 21
300.6472877444157
 31
0.0
  0
LINE
  5
2E2
330
1F
100
AcDbEntity
  8
GR1
  6
DASHDOT
 62
     6
100
AcDbLine
 10
499.0344497145498
 20
289.2027624334146
 30
0.0
 11
499.0344497145498
 21
305.9417324225835
 31
0.0
  0
CIRCLE
  5
2E3
330
1F
100
AcDbEntity
  8
GR1
  6
CONTINUOUS
 62
     6
100
AcDbCircle
 10
499.0344497145498
 20
297.7605363984675
 30
0.0
 40
4.5
  0
LINE
  5
2E4
330
1F
100
AcDbEntity
  8
GR1
  6
DASHDOT
 62
     6
100
AcDbLine
 10
507.5922236796027
 20
297.7605363984676
 30
0.0
 11
490.8532536904339
 21
297.7605363984676
 31
0.0
  0
ARC
  5
2E5
330
1F
100
AcDbEntity
  8
GR1
  6
CONTINUOUS
 62
     3
100
AcDbCircle
 10
545.03444971455
 20
296.2605363984675
 30
0.0
 40
5.0
100
AcDbArc
 50
293.7971813561902
 51
113.7971813561909
  0
LINE
  5
2E6
330
1F
100
AcDbEntity
  8
GR1
  6
CONTINUOUS
 62
     3
100
AcDbLine
 10
547.7918877333497
 20
300.4314518342535
 30
0.0
 11
552.1344497145499
 21
297.5605363984675
 31
0.0
  0
LINE
  5
2E7
330
1F
100
AcDbEntity
  8
GR1
  6
CONTINUOUS
 62
     3
100
AcDbLine
 10
552.1344497145499
 20
297.5605363984675
 30
0.0
 11
552.1344497145499
 21
294.9605363984675
 31
0.0
  0
LINE
  5
2E8
330
1F
100
AcDbEntity
  8
GR1
  6
CONTINUOUS
 62
     3
100
AcDbLine
 10
552.1344497145499
 20
294.9605363984675
 30
0.0
 11
551.605037850141
 21
294.6105363984676
 31
0.0
  0
ARC
  5
2E9
330
1F
100
AcDbEntity
  8
GR1
  6
CONTINUOUS
 62
     3
100
AcDbCircle
 10
550.1823663812169
 20
296.2605363984675
 30
0.0
 40
2.85208333333304
100
AcDbArc
 50
324.6531714672714
 51
37.84928883210706
  0
LINE
  5
2EA
330
1F
100
AcDbEntity
  8
GR1
  6
CONTINUOUS
 62
     3
100
AcDbLine
 10
552.4344497145498
 20
298.0105363984675
 30
0.0
 11
551.3391872242054
 21
299.0105363984675
 31
0.0
  0
LINE
  5
2EB
330
1F
100
AcDbEntity
  8
GR1
  6
CONTINUOUS
 62
     3
100
AcDbLine
 10
551.3391872242054
 20
299.0105363984675
 30
0.0
 11
549.9411719905696
 21
299.0105363984675
 31
0.0
  0
ARC
  5
2EC
330
1F
100
AcDbEntity
  8
GR1
  6
CONTINUOUS
 62
     3
100
AcDbCircle
 10
548.4344497145498
 20
296.2605363984675
 30
0.0
 40
4.0
100
AcDbArc
 50
335.6380220600212
 51
43.43253655779005
  0
LINE
  5
2ED
330
1F
100
AcDbEntity
  8
GR1
  6
DASHDOT
 62
     6
100
AcDbLine
 10
557.636838192747
 20
296.2605363984675
 30
0.0
 11
536.5921887446215
 21
296.2605363984675
 31
0.0
  0
ARC
  5
2EE
330
1F
100
AcDbEntity
  8
GR1
  6
CONTINUOUS
 62
     3
100
AcDbCircle
 10
545.0344497145499
 20
296.2605363984677
 30
0.0
 40
8.15
100
AcDbArc
 50
242.1003035989124
 51
278.645865413752
  0
ARC
  5
2EF
330
1F
100
AcDbEntity
  8
GR1
  6
CONTINUOUS
 62
     3
100
AcDbCircle
 10
546.1844497145498
 20
288.6974682379919
 30
0.0
 40
0.5
100
AcDbArc
 50
278.6458654137552
 51
0.0
  0
LINE
  5
2F0
330
1F
100
AcDbEntity
  8
GR1
  6
CONTINUOUS
 62
     3
100
AcDbLine
 10
546.6844497145498
 20
288.697468237992
 30
0.0
 11
546.6844497145498
 21
291.2239204710814
 31
0.0
  0
ARC
  5
2F1
330
1F
100
AcDbEntity
  8
GR1
  6
CONTINUOUS
 62
     3
100
AcDbCircle
 10
545.0344497145497
 20
296.2605363984675
 30
0.0
 40
5.3
100
AcDbArc
 50
288.1388433355622
 51
341.8611566644382
  0
LINE
  5
2F2
330
1F
100
AcDbEntity
  8
GR1
  6
CONTINUOUS
 62
     3
100
AcDbLine
 10
550.0710656419359
 20
294.6105363984676
 30
0.0
 11
552.5975178750255
 21
294.6105363984676
 31
0.0
  0
ARC
  5
2F3
330
1F
100
AcDbEntity
  8
GR1
  6
CONTINUOUS
 62
     3
100
AcDbCircle
 10
552.5975178750256
 20
295.1105363984676
 30
0.0
 40
0.5
100
AcDbArc
 50
270.0
 51
351.3541345862479
  0
ARC
  5
2F4
330
1F
100
AcDbEntity
  8
GR1
  6
CONTINUOUS
 62
     3
100
AcDbCircle
 10
545.0344497145499
 20
296.2605363984677
 30
0.0
 40
8.15
100
AcDbArc
 50
351.3541345862473
 51
98.64586541375245
  0
ARC
  5
2F5
330
1F
100
AcDbEntity
  8
GR1
  6
CONTINUOUS
 62
     3
100
AcDbCircle
 10
543.8844497145499
 20
303.8236045589432
 30
0.0
 40
0.5
100
AcDbArc
 50
98.64586541375526
 51
180.0
  0
LINE
  5
2F6
330
1F
100
AcDbEntity
  8
GR1
  6
CONTINUOUS
 62
     3
100
AcDbLine
 10
543.3844497145499
 20
303.8236045589432
 30
0.0
 11
543.3844497145499
 21
301.2971523258538
 31
0.0
  0
ARC
  5
2F7
330
1F
100
AcDbEntity
  8
GR1
  6
CONTINUOUS
 62
     3
100
AcDbCircle
 10
545.0344497145497
 20
296.2605363984675
 30
0.0
 40
5.3
100
AcDbArc
 50
108.1388433355611
 51
133.6275561085651
  0
LINE
  5
2F8
330
1F
100
AcDbEntity
  8
GR1
  6
CONTINUOUS
 62
     3
100
AcDbLine
 10
549.2582477835275
 20
293.0590477021733
 30
0.0
 11
547.7918877333497
 21
292.0896209626816
 31
0.0
  0
LINE
  5
2F9
330
1F
100
AcDbEntity
  8
GR1
  6
CONTINUOUS
 62
     3
100
AcDbLine
 10
489.03444971455
 20
551.6704336907173
 30
0.0
 11
601.03444971455
 21
551.6704336907173
 31
0.0
  0
ARC
  5
2FA
330
1F
100
AcDbEntity
  8
GR1
  6
CONTINUOUS
 62
     3
100
AcDbCircle
 10
601.03444971455
 20
537.6704336907175
 30
0.0
 40
14.0
100
AcDbArc
 50
0.0
 51
90.0
  0
LINE
  5
2FB
330
1F
100
AcDbEntity
  8
GR1
  6
CONTINUOUS
 62
     3
100
AcDbLine
 10
599.1003137063726
 20
527.6045696988948
 30
0.0
 11
605.1003137063726
 21
533.6045696988948
 31
0.0
  0
ARC
  5
2FC
330
1F
100
AcDbEntity
  8
GR1
  6
CONTINUOUS
 62
     3
100
AcDbCircle
 10
595.03444971455
 20
531.6704336907175
 30
0.0
 40
5.75
100
AcDbArc
 50
135.0
 51
315.0
  0
LINE
  5
2FD
330
1F
100
AcDbEntity
  8
GR1
  6
CONTINUOUS
 62
     3
100
AcDbLine
 10
590.9685857227272
 20
535.7362976825401
 30
0.0
 11
596.9685857227272
 21
541.7362976825401
 31
0.0
  0
ARC
  5
2FE
330
1F
100
AcDbEntity
  8
GR1
  6
CONTINUOUS
 62
     3
100
AcDbCircle
 10
601.03444971455
 20
537.6704336907175
 30
0.0
 40
5.75
100
AcDbArc
 50
315.0
 51
134.9999999999999
  0
LINE
  5
2FF
330
1F
100
AcDbEntity
  8
GR1
  6
CONTINUOUS
 62
     3
100
AcDbLine
 10
499.1003137063727
 20
535.7362976825401
 30
0.0
 11
493.1003137063727
 21
541.7362976825401
 31
0.0
  0
ARC
  5
300
330
1F
100
AcDbEntity
  8
GR1
  6
CONTINUOUS
 62
     3
100
AcDbCircle
 10
495.03444971455
 20
531.6704336907175
 30
0.0
 40
5.75
100
AcDbArc
 50
225.0
 51
45.0
  0
LINE
  5
301
330
1F
100
AcDbEntity
  8
GR1
  6
CONTINUOUS
 62
     3
100
AcDbLine
 10
490.9685857227273
 20
527.6045696988948
 30
0.0
 11
484.9685857227273
 21
533.6045696988948
 31
0.0
  0
ARC
  5
302
330
1F
100
AcDbEntity
  8
GR1
  6
CONTINUOUS
 62
     3
100
AcDbCircle
 10
489.03444971455
 20
537.6704336907175
 30
0.0
 40
5.75
100
AcDbArc
 50
45.0
 51
225.0000000000004
  0
LINE
  5
303
330
1F
100
AcDbEntity
  8
GR1
  6
CONTINUOUS
 62
     3
100
AcDbLine
 10
474.03444971455
 20
509.6704336907172
 30
0.0
 11
462.03444971455
 21
509.6704336907172
 31
0.0
  0
LINE
  5
304
330
1F
100
AcDbEntity
  8
GR1
  6
CONTINUOUS
 62
     3
100
AcDbLine
 10
462.03444971455
 20
509.6704336907172
 30
0.0
 11
462.03444971455
 21
513.6704336907172
 31
0.0
  0
LINE
  5
305
330
1F
100
AcDbEntity
  8
GR1
  6
CONTINUOUS
 62
     3
100
AcDbLine
 10
462.03444971455
 20
513.6704336907172
 30
0.0
 11
475.03444971455
 21
513.6704336907172
 31
0.0
  0
ARC
  5
306
330
1F
100
AcDbEntity
  8
GR1
  6
CONTINUOUS
 62
     3
100
AcDbCircle
 10
489.03444971455
 20
537.6704336907175
 30
0.0
 40
14.0
100
AcDbArc
 50
90.0
 51
180.0
  0
ARC
  5
307
330
1F
100
AcDbEntity
  8
GR1
  6
CONTINUOUS
 62
     3
100
AcDbCircle
 10
480.0344497145501
 20
507.1704336907174
 30
0.0
 40
6.5
100
AcDbArc
 50
140.2848627681745
 51
180.0
  0
TEXT
  5
308
330
1F
100
AcDbEntity
  8
GR1
  6
CONTINUOUS
 62
     7
100
AcDbText
 10
643.7581176757812
 20
477.1704711914062
 30
0.0
 40
4.0
  1
１４０
 50
90.0
 41
0.9264705882352942
  7
FX_VECTOR
 72
     5
 11
643.7581176757812
 21
486.1704711914062
 31
0.0
100
AcDbText
  0
LINE
  5
309
330
1F
100
AcDbEntity
  8
GR1
  6
CONTINUOUS
 62
     7
100
AcDbLine
 10
602.03444971455
 20
411.6704336907175
 30
0.0
 11
645.7581322314355
 21
411.6704336907175
 31
0.0
  0
LINE
  5
30A
330
1F
100
AcDbEntity
  8
GR1
  6
CONTINUOUS
 62
     7
100
AcDbLine
 10
602.03444971455
 20
551.6704336907173
 30
0.0
 11
645.7581322314355
 21
551.6704336907173
 31
0.0
  0
LINE
  5
30B
330
1F
100
AcDbEntity
  8
GR1
  6
CONTINUOUS
 62
     7
100
AcDbLine
 10
644.7581322314355
 20
411.6704336907175
 30
0.0
 11
644.7581322314355
 21
551.6704336907173
 31
0.0
  0
INSERT
  5
30C
330
1F
100
AcDbEntity
  8
GR1
  6
CONTINUOUS
 62
     7
100
AcDbBlockReference
  2
FXTIP_ARROW_S
 10
644.7581322314355
 20
411.6704336907175
 30
0.0
 41
4.0
 42
4.0
 50
270.0
  0
INSERT
  5
30D
330
1F
100
AcDbEntity
  8
GR1
  6
CONTINUOUS
 62
     7
100
AcDbBlockReference
  2
FXTIP_ARROW_E
 10
644.7581322314355
 20
551.6704336907173
 30
0.0
 41
4.0
 42
4.0
 50
90.0
  0
TEXT
  5
30E
330
1F
100
AcDbEntity
  8
GR1
  6
CONTINUOUS
 62
     7
100
AcDbText
 10
633.7581176757812
 20
477.1704711914062
 30
0.0
 40
4.0
  1
１１２
 50
90.0
 41
0.9264705882352942
  7
FX_VECTOR
 72
     5
 11
633.7581176757812
 21
486.1704711914062
 31
0.0
100
AcDbText
  0
LINE
  5
30F
330
1F
100
AcDbEntity
  8
GR1
  6
CONTINUOUS
 62
     7
100
AcDbLine
 10
608.5250094660581
 20
425.6704336907175
 30
0.0
 11
635.7581322314355
 21
425.6704336907175
 31
0.0
  0
LINE
  5
310
330
1F
100
AcDbEntity
  8
GR1
  6
CONTINUOUS
 62
     7
100
AcDbLine
 10
608.881325884958
 20
537.6704336907175
 30
0.0
 11
635.7581322314355
 21
537.6704336907175
 31
0.0
  0
LINE
  5
311
330
1F
100
AcDbEntity
  8
GR1
  6
CONTINUOUS
 62
     7
100
AcDbLine
 10
634.7581322314355
 20
425.6704336907175
 30
0.0
 11
634.7581322314355
 21
537.6704336907175
 31
0.0
  0
INSERT
  5
312
330
1F
100
AcDbEntity
  8
GR1
  6
CONTINUOUS
 62
     7
100
AcDbBlockReference
  2
FXTIP_ARROW_S
 10
634.7581322314355
 20
425.6704336907175
 30
0.0
 41
4.0
 42
4.0
 50
270.0
  0
INSERT
  5
313
330
1F
100
AcDbEntity
  8
GR1
  6
CONTINUOUS
 62
     7
100
AcDbBlockReference
  2
FXTIP_ARROW_E
 10
634.7581322314355
 20
537.6704336907175
 30
0.0
 41
4.0
 42
4.0
 50
90.0
  0
TEXT
  5
314
330
1F
100
AcDbEntity
  8
GR1
  6
CONTINUOUS
 62
     7
100
AcDbText
 10
623.7581176757812
 20
477.1704711914062
 30
0.0
 40
4.0
  1
１００
 50
90.0
 41
0.9264705882352942
  7
FX_VECTOR
 72
     5
 11
623.7581176757812
 21
486.1704711914062
 31
0.0
100
AcDbText
  0
LINE
  5
315
330
1F
100
AcDbEntity
  8
GR1
  6
CONTINUOUS
 62
     7
100
AcDbLine
 10
602.4719027238853
 20
431.6704336907175
 30
0.0
 11
625.7581322314355
 21
431.6704336907175
 31
0.0
  0
LINE
  5
316
330
1F
100
AcDbEntity
  8
GR1
  6
CONTINUOUS
 62
     7
100
AcDbLine
 10
602.6938990667538
 20
531.6704336907175
 30
0.0
 11
625.7581322314355
 21
531.6704336907175
 31
0.0
  0
LINE
  5
317
330
1F
100
AcDbEntity
  8
GR1
  6
CONTINUOUS
 62
     7
100
AcDbLine
 10
624.7581322314355
 20
431.6704336907175
 30
0.0
 11
624.7581322314355
 21
531.6704336907175
 31
0.0
  0
INSERT
  5
318
330
1F
100
AcDbEntity
  8
GR1
  6
CONTINUOUS
 62
     7
100
AcDbBlockReference
  2
FXTIP_ARROW_S
 10
624.7581322314355
 20
431.6704336907175
 30
0.0
 41
4.0
 42
4.0
 50
270.0
  0
INSERT
  5
319
330
1F
100
AcDbEntity
  8
GR1
  6
CONTINUOUS
 62
     7
100
AcDbBlockReference
  2
FXTIP_ARROW_E
 10
624.7581322314355
 20
531.6704336907175
 30
0.0
 41
4.0
 42
4.0
 50
90.0
  0
LINE
  5
31A
330
1F
100
AcDbEntity
  8
GR1
  6
DASHDOT
 62
     6
100
AcDbLine
 10
595.03444971455
 20
524.7052932808513
 30
0.0
 11
595.03444971455
 21
540.1391961312555
 31
0.0
  0
LINE
  5
31B
330
1F
100
AcDbEntity
  8
GR1
  6
DASHDOT
 62
     6
100
AcDbLine
 10
592.5664994103055
 20
537.6704336907176
 30
0.0
 11
608.0466115506812
 21
537.6704336907176
 31
0.0
  0
LINE
  5
31C
330
1F
100
AcDbEntity
  8
GR1
  6
DASHDOT
 62
     6
100
AcDbLine
 10
601.0344497145501
 20
544.66770654844
 30
0.0
 11
601.0344497145501
 21
530.1117802074898
 31
0.0
  0
LINE
  5
31D
330
1F
100
AcDbEntity
  8
GR1
  6
DASHDOT
 62
     6
100
AcDbLine
 10
602.5014967541287
 20
531.6704336907175
 30
0.0
 11
588.037988993121
 21
531.6704336907175
 31
0.0
  0
LINE
  5
31E
330
1F
100
AcDbEntity
  8
図面枠ﾚｲﾔ
  6
DASHDOT
 62
     6
100
AcDbLine
 10
601.0344497145501
 20
346.4575455304202
 30
0.0
 11
601.0344497145501
 21
333.3950168152305
 31
0.0
  0
LINE
  5
31F
330
1F
100
AcDbEntity
  8
図面枠ﾚｲﾔ
  6
DASHDOT
 62
     6
100
AcDbLine
 10
595.0344497145501
 20
346.4575455304202
 30
0.0
 11
595.0344497145501
 21
333.3950168152305
 31
0.0
  0
LINE
  5
320
330
1F
100
AcDbEntity
  8
図面枠ﾚｲﾔ
  6
DASHDOT
 62
     6
100
AcDbLine
 10
489.0344497145499
 20
346.4575455304202
 30
0.0
 11
489.0344497145499
 21
333.3950168152305
 31
0.0
  0
LINE
  5
321
330
1F
100
AcDbEntity
  8
図面枠ﾚｲﾔ
  6
DASHDOT
 62
     6
100
AcDbLine
 10
495.0344497145499
 20
346.4575455304202
 30
0.0
 11
495.0344497145499
 21
333.3950168152305
 31
0.0
  0
LINE
  5
322
330
1F
100
AcDbEntity
  8
図面枠ﾚｲﾔ
  6
DASHDOT
 62
     6
100
AcDbLine
 10
289.9377434663393
 20
346.4575455304203
 30
0.0
 11
289.9377434663393
 21
333.3950168152305
 31
0.0
  0
LINE
  5
323
330
1F
100
AcDbEntity
  8
図面枠ﾚｲﾔ
  6
DASHDOT
 62
     6
100
AcDbLine
 10
283.9377434663393
 20
346.4575455304203
 30
0.0
 11
283.9377434663393
 21
333.3950168152305
 31
0.0
  0
LINE
  5
324
330
1F
100
AcDbEntity
  8
図面枠ﾚｲﾔ
  6
DASHDOT
 62
     6
100
AcDbLine
 10
177.937743466339
 20
346.4575455304203
 30
0.0
 11
177.937743466339
 21
333.3950168152305
 31
0.0
  0
LINE
  5
325
330
1F
100
AcDbEntity
  8
図面枠ﾚｲﾔ
  6
DASHDOT
 62
     6
100
AcDbLine
 10
183.937743466339
 20
346.4575455304203
 30
0.0
 11
183.937743466339
 21
333.3950168152305
 31
0.0
  0
LINE
  5
326
330
1F
100
AcDbEntity
  8
GR1
  6
DASHDOT
 62
     6
100
AcDbLine
 10
495.03444971455
 20
524.7052932808513
 30
0.0
 11
495.03444971455
 21
540.1391961312555
 31
0.0
  0
LINE
  5
327
330
1F
100
AcDbEntity
  8
GR1
  6
DASHDOT
 62
     6
100
AcDbLine
 10
497.5024000187944
 20
537.6704336907176
 30
0.0
 11
482.0222878784188
 21
537.6704336907176
 31
0.0
  0
LINE
  5
328
330
1F
100
AcDbEntity
  8
GR1
  6
DASHDOT
 62
     6
100
AcDbLine
 10
489.0344497145499
 20
544.66770654844
 30
0.0
 11
489.0344497145499
 21
530.1117802074898
 31
0.0
  0
LINE
  5
329
330
1F
100
AcDbEntity
  8
GR1
  6
DASHDOT
 62
     6
100
AcDbLine
 10
487.5674026749713
 20
531.6704336907175
 30
0.0
 11
502.030910435979
 21
531.6704336907175
 31
0.0
  0
LINE
  5
32A
330
1F
100
AcDbEntity
  8
GR1
  6
DASHDOT
 62
     6
100
AcDbLine
 10
595.03444971455
 20
438.6355741005837
 30
0.0
 11
595.03444971455
 21
423.2016712501794
 31
0.0
  0
LINE
  5
32B
330
1F
100
AcDbEntity
  8
GR1
  6
DASHDOT
 62
     6
100
AcDbLine
 10
592.5664994103055
 20
425.6704336907173
 30
0.0
 11
608.0466115506812
 21
425.6704336907173
 31
0.0
  0
LINE
  5
32C
330
1F
100
AcDbEntity
  8
GR1
  6
DASHDOT
 62
     6
100
AcDbLine
 10
601.0344497145501
 20
418.6731608329949
 30
0.0
 11
601.0344497145501
 21
433.2290871739451
 31
0.0
  0
LINE
  5
32D
330
1F
100
AcDbEntity
  8
GR1
  6
DASHDOT
 62
     6
100
AcDbLine
 10
602.5014967541287
 20
431.6704336907175
 30
0.0
 11
588.037988993121
 21
431.6704336907175
 31
0.0
  0
LINE
  5
32E
330
1F
100
AcDbEntity
  8
GR1
  6
DASHDOT
 62
     6
100
AcDbLine
 10
495.03444971455
 20
438.6355741005837
 30
0.0
 11
495.03444971455
 21
423.2016712501794
 31
0.0
  0
LINE
  5
32F
330
1F
100
AcDbEntity
  8
GR1
  6
DASHDOT
 62
     6
100
AcDbLine
 10
497.5024000187944
 20
425.6704336907173
 30
0.0
 11
482.0222878784188
 21
425.6704336907173
 31
0.0
  0
LINE
  5
330
330
1F
100
AcDbEntity
  8
GR1
  6
DASHDOT
 62
     6
100
AcDbLine
 10
489.0344497145499
 20
418.6731608329949
 30
0.0
 11
489.0344497145499
 21
433.2290871739451
 31
0.0
  0
LINE
  5
331
330
1F
100
AcDbEntity
  8
GR1
  6
DASHDOT
 62
     6
100
AcDbLine
 10
487.5674026749713
 20
431.6704336907175
 30
0.0
 11
502.030910435979
 21
431.6704336907175
 31
0.0
  0
ARC
  5
332
330
1F
100
AcDbEntity
  8
図面枠ﾚｲﾔ
  6
CONTINUOUS
 62
     7
100
AcDbCircle
 10
545.03444971455
 20
481.6704336907175
 30
0.0
 40
137.2212060303544
100
AcDbArc
 50
209.0548262452459
 51
233.8432672302487
  0
TEXT
  5
333
330
1F
100
AcDbEntity
  8
図面枠ﾚｲﾔ
  6
CONTINUOUS
 62
     7
100
AcDbText
 10
483.5046019422876
 20
442.1705921606533
 30
0.0
 40
4.0
  1
１３８
 50
33.4825820922851
 41
0.9264705882352894
  7
FX_VECTOR
 72
     5
 11
491.0110840928687
 21
447.1357432885654
 31
0.0
100
AcDbText
  0
LINE
  5
334
330
1F
100
AcDbEntity
  8
図面枠ﾚｲﾔ
  6
CONTINUOUS
 62
     7
100
AcDbLine
 10
430.584610519123
 20
405.9677673402785
 30
0.0
 11
545.03444971455
 21
481.6704336907175
 31
0.0
  0
INSERT
  5
335
330
1F
100
AcDbEntity
  8
図面枠ﾚｲﾔ
  6
CONTINUOUS
 62
     7
100
AcDbBlockReference
  2
FXTIP_ARROW_S
 10
430.584610519123
 20
405.9677673402785
 30
0.0
 41
4.0
 42
4.0
 50
213.4825804935785
  0
LINE
  5
336
330
1F
100
AcDbEntity
  8
図面枠ﾚｲﾔ
  6
CONTINUOUS
 62
     3
100
AcDbLine
 10
269.9377434663394
 20
302.0906634173897
 30
0.0
 11
269.9377434663394
 21
293.4304093795453
 31
0.0
  0
TEXT
  5
337
330
1F
100
AcDbEntity
  8
基準ﾚｲﾔｸ_ﾙ_ﾌ_
  6
CONTINUOUS
 62
     7
100
AcDbText
 10
230.937744140625
 20
82.74310302734375
 30
0.0
 40
4.0
  1
４２
 41
0.9545454545454547
  7
FX_VECTOR
 72
     5
 11
236.937744140625
 21
82.74310302734375
 31
0.0
100
AcDbText
  0
LINE
  5
338
330
1F
100
AcDbEntity
  8
基準ﾚｲﾔｸ_ﾙ_ﾌ_
  6
CONTINUOUS
 62
     7
100
AcDbLine
 10
212.937743466339
 20
81.74308077716591
 30
0.0
 11
254.9377434663391
 21
81.74308077716591
 31
0.0
  0
INSERT
  5
339
330
1F
100
AcDbEntity
  8
基準ﾚｲﾔｸ_ﾙ_ﾌ_
  6
CONTINUOUS
 62
     7
100
AcDbBlockReference
  2
FXTIP_ARROW_S
 10
212.937743466339
 20
81.74308077716591
 30
0.0
 41
4.0
 42
4.0
 50
180.0
  0
INSERT
  5
33A
330
1F
100
AcDbEntity
  8
基準ﾚｲﾔｸ_ﾙ_ﾌ_
  6
CONTINUOUS
 62
     7
100
AcDbBlockReference
  2
FXTIP_ARROW_E
 10
254.9377434663391
 20
81.74308077716591
 30
0.0
 41
4.0
 42
4.0
 50
360.0
  0
LINE
  5
33B
330
1F
100
AcDbEntity
  8
基準ﾚｲﾔｸ_ﾙ_ﾌ_
  6
CONTINUOUS
 62
     7
100
AcDbLine
 10
212.9377434663391
 20
102.2605363984676
 30
0.0
 11
212.937743466339
 21
80.74308077716591
 31
0.0
  0
LINE
  5
33C
330
1F
100
AcDbEntity
  8
基準ﾚｲﾔｸ_ﾙ_ﾌ_
  6
CONTINUOUS
 62
     7
100
AcDbLine
 10
254.9377434663391
 20
102.2605363984678
 30
0.0
 11
254.9377434663391
 21
80.74308077716591
 31
0.0
  0
TEXT
  5
33D
330
1F
100
AcDbEntity
  8
基準ﾚｲﾔｸ_ﾙ_ﾌ_
  6
CONTINUOUS
 62
     7
100
AcDbText
 10
230.937744140625
 20
73.74041748046875
 30
0.0
 40
4.0
  1
５５
 41
0.9545454545454547
  7
FX_VECTOR
 72
     5
 11
236.937744140625
 21
73.74041748046875
 31
0.0
100
AcDbText
  0
LINE
  5
33E
330
1F
100
AcDbEntity
  8
基準ﾚｲﾔｸ_ﾙ_ﾌ_
  6
CONTINUOUS
 62
     7
100
AcDbLine
 10
206.437743466339
 20
72.74041805527236
 30
0.0
 11
261.4377434663392
 21
72.74041805527236
 31
0.0
  0
INSERT
  5
33F
330
1F
100
AcDbEntity
  8
基準ﾚｲﾔｸ_ﾙ_ﾌ_
  6
CONTINUOUS
 62
     7
100
AcDbBlockReference
  2
FXTIP_ARROW_S
 10
206.437743466339
 20
72.74041805527236
 30
0.0
 41
4.0
 42
4.0
 50
180.0
  0
INSERT
  5
340
330
1F
100
AcDbEntity
  8
基準ﾚｲﾔｸ_ﾙ_ﾌ_
  6
CONTINUOUS
 62
     7
100
AcDbBlockReference
  2
FXTIP_ARROW_E
 10
261.4377434663392
 20
72.74041805527236
 30
0.0
 41
4.0
 42
4.0
 50
360.0
  0
LINE
  5
341
330
1F
100
AcDbEntity
  8
基準ﾚｲﾔｸ_ﾙ_ﾌ_
  6
CONTINUOUS
 62
     7
100
AcDbLine
 10
206.437743466339
 20
177.7605363984676
 30
0.0
 11
206.437743466339
 21
71.74041805527236
 31
0.0
  0
LINE
  5
342
330
1F
100
AcDbEntity
  8
基準ﾚｲﾔｸ_ﾙ_ﾌ_
  6
CONTINUOUS
 62
     7
100
AcDbLine
 10
261.4377434663392
 20
177.7605363984676
 30
0.0
 11
261.4377434663392
 21
71.74041805527236
 31
0.0
  0
INSERT
  5
346
330
1F
100
AcDbEntity
  8
基準ﾚｲﾔｸ_ﾙ_ﾌ_
  6
CONTINUOUS
 62
     3
100
AcDbBlockReference
  2
BLKF028
 10
0.0
 20
0.0
 30
0.0
  0
LINE
  5
37D
330
1F
100
AcDbEntity
  8
GR1
  6
CONTINUOUS
 62
     3
100
AcDbLine
 10
400.63444971455
 20
460.6704336907174
 30
0.0
 11
406.8716063945303
 21
460.6704336907174
 31
0.0
  0
LINE
  5
37E
330
1F
100
AcDbEntity
  8
基準ﾚｲﾔｸ_ﾙ_ﾌ_
  6
CONTINUOUS
 62
     3
100
AcDbLine
 10
473.5344497145501
 20
460.6704336907172
 30
0.0
 11
406.8716063945303
 21
460.6704336907174
 31
0.0
  0
LINE
  5
37F
330
1F
100
AcDbEntity
  8
GR1
  6
CONTINUOUS
 62
     3
100
AcDbLine
 10
452.2675963853975
 20
457.1704336907174
 30
0.0
 11
473.5344497145501
 21
457.1704336907174
 31
0.0
  0
ARC
  5
380
330
1F
100
AcDbEntity
  8
基準ﾚｲﾔｸ_ﾙ_ﾌ_
  6
CONTINUOUS
 62
     3
100
AcDbCircle
 10
452.2675963853976
 20
461.1704336907174
 30
0.0
 40
4.0
100
AcDbArc
 50
251.0902215042834
 51
269.9999999999996
  0
LINE
  5
381
330
1F
100
AcDbEntity
  8
基準ﾚｲﾔｸ_ﾙ_ﾌ_
  6
CONTINUOUS
 62
     3
100
AcDbLine
 10
450.9719474996336
 20
457.3882034381947
 30
0.0
 11
441.666316576435
 21
460.6704336907173
 31
0.0
  0
LINE
  5
382
330
1F
100
AcDbEntity
  8
基準ﾚｲﾔｸ_ﾙ_ﾌ_
  6
CONTINUOUS
 62
     3
100
AcDbLine
 10
473.8497912761237
 20
454.1704336907173
 30
0.0
 11
472.5344497145499
 21
454.1704336907173
 31
0.0
  0
LINE
  5
383
330
1F
100
AcDbEntity
  8
基準ﾚｲﾔｸ_ﾙ_ﾌ_
  6
CONTINUOUS
 62
     3
100
AcDbLine
 10
472.5344497145499
 20
457.1704336907174
 30
0.0
 11
464.5344497145499
 21
457.1704336907174
 31
0.0
  0
LINE
  5
384
330
1F
100
AcDbEntity
  8
基準ﾚｲﾔｸ_ﾙ_ﾌ_
  6
CONTINUOUS
 62
     3
100
AcDbLine
 10
472.5344497145499
 20
457.1704336907174
 30
0.0
 11
472.5344497145499
 21
454.1704336907173
 31
0.0
  0
LINE
  5
385
330
1F
100
AcDbEntity
  8
基準ﾚｲﾔｸ_ﾙ_ﾌ_
  6
CONTINUOUS
 62
     3
100
AcDbLine
 10
397.0344497145501
 20
460.6704336907173
 30
0.0
 11
388.0344497145499
 21
465.866586113424
 31
0.0
  0
LINE
  5
386
330
1F
100
AcDbEntity
  8
基準ﾚｲﾔｸ_ﾙ_ﾌ_
  6
CONTINUOUS
 62
     3
100
AcDbLine
 10
387.0344497145499
 20
467.5986369209929
 30
0.0
 11
387.0344497145499
 21
495.7422304604419
 31
0.0
  0
ARC
  5
387
330
1F
100
AcDbEntity
  8
基準ﾚｲﾔｸ_ﾙ_ﾌ_
  6
CONTINUOUS
 62
     3
100
AcDbCircle
 10
389.0344497145499
 20
467.5986369209929
 30
0.0
 40
2.0
100
AcDbArc
 50
180.0
 51
240.0000000000001
  0
LINE
  5
388
330
1F
100
AcDbEntity
  8
基準ﾚｲﾔｸ_ﾙ_ﾌ_
  6
CONTINUOUS
 62
     3
100
AcDbLine
 10
397.0344497145501
 20
502.6704336907173
 30
0.0
 11
388.0344497145499
 21
497.4742812680107
 31
0.0
  0
ARC
  5
389
330
1F
100
AcDbEntity
  8
基準ﾚｲﾔｸ_ﾙ_ﾌ_
  6
CONTINUOUS
 62
     3
100
AcDbCircle
 10
389.0344497145499
 20
495.7422304604419
 30
0.0
 40
2.0
100
AcDbArc
 50
119.9999999999997
 51
180.0
  0
LINE
  5
38A
330
1F
100
AcDbEntity
  8
基準ﾚｲﾔｸ_ﾙ_ﾌ_
  6
CONTINUOUS
 62
     3
100
AcDbLine
 10
400.4205751347737
 20
460.6767924086574
 30
0.0
 11
397.0344497145501
 21
460.6704336907174
 31
0.0
  0
LINE
  5
38B
330
1F
100
AcDbEntity
  8
GR1
  6
CONTINUOUS
 62
     6
100
AcDbLine
 10
387.2628857830739
 20
466.6704336907175
 30
0.0
 11
473.5344497145502
 21
466.6704336907174
 31
0.0
  0
LINE
  5
38C
330
1F
100
AcDbEntity
  8
GR1
  6
CONTINUOUS
 62
     3
100
AcDbLine
 10
400.63444971455
 20
502.6704336907175
 30
0.0
 11
406.8716063945303
 21
502.6704336907175
 31
0.0
  0
LINE
  5
38D
330
1F
100
AcDbEntity
  8
基準ﾚｲﾔｸ_ﾙ_ﾌ_
  6
CONTINUOUS
 62
     3
100
AcDbLine
 10
473.5344497145501
 20
502.6704336907176
 30
0.0
 11
406.8716063945303
 21
502.6704336907175
 31
0.0
  0
LINE
  5
38E
330
1F
100
AcDbEntity
  8
GR1
  6
CONTINUOUS
 62
     3
100
AcDbLine
 10
452.2675963853975
 20
506.1704336907176
 30
0.0
 11
473.5344497145501
 21
506.1704336907176
 31
0.0
  0
ARC
  5
38F
330
1F
100
AcDbEntity
  8
基準ﾚｲﾔｸ_ﾙ_ﾌ_
  6
CONTINUOUS
 62
     3
100
AcDbCircle
 10
452.2675963853976
 20
502.1704336907176
 30
0.0
 40
4.0
100
AcDbArc
 50
90.00000000000043
 51
108.9097784957166
  0
LINE
  5
390
330
1F
100
AcDbEntity
  8
基準ﾚｲﾔｸ_ﾙ_ﾌ_
  6
CONTINUOUS
 62
     3
100
AcDbLine
 10
450.9719474996336
 20
505.9526639432403
 30
0.0
 11
441.666316576435
 21
502.6704336907177
 31
0.0
  0
LINE
  5
391
330
1F
100
AcDbEntity
  8
基準ﾚｲﾔｸ_ﾙ_ﾌ_
  6
CONTINUOUS
 62
     3
100
AcDbLine
 10
473.8497912761237
 20
509.1704336907176
 30
0.0
 11
472.5344497145499
 21
509.1704336907176
 31
0.0
  0
LINE
  5
392
330
1F
100
AcDbEntity
  8
基準ﾚｲﾔｸ_ﾙ_ﾌ_
  6
CONTINUOUS
 62
     3
100
AcDbLine
 10
472.5344497145499
 20
506.1704336907176
 30
0.0
 11
464.5344497145499
 21
506.1704336907176
 31
0.0
  0
LINE
  5
393
330
1F
100
AcDbEntity
  8
基準ﾚｲﾔｸ_ﾙ_ﾌ_
  6
CONTINUOUS
 62
     3
100
AcDbLine
 10
472.5344497145499
 20
506.1704336907176
 30
0.0
 11
472.5344497145499
 21
509.1704336907176
 31
0.0
  0
LINE
  5
394
330
1F
100
AcDbEntity
  8
基準ﾚｲﾔｸ_ﾙ_ﾌ_
  6
CONTINUOUS
 62
     3
100
AcDbLine
 10
400.4205751347737
 20
502.6640749727774
 30
0.0
 11
397.03444971455
 21
502.6704336907175
 31
0.0
  0
LINE
  5
395
330
1F
100
AcDbEntity
  8
GR1
  6
CONTINUOUS
 62
     6
100
AcDbLine
 10
387.2628857830739
 20
496.6704336907173
 30
0.0
 11
473.5344497145502
 21
496.6704336907175
 31
0.0
  0
ARC
  5
396
330
1F
100
AcDbEntity
  8
GR1
  6
CONTINUOUS
 62
     6
100
AcDbCircle
 10
487.03444971455
 20
193.2605363984674
 30
0.0
 40
80.0
100
AcDbArc
 50
97.15787533491988
 51
40.65731957039129
  0
ARC
  5
397
330
1F
100
AcDbEntity
  8
GR1
  6
CONTINUOUS
 62
     6
100
AcDbCircle
 10
487.03444971455
 20
193.2605363984674
 30
0.0
 40
68.0
100
AcDbArc
 50
111.7885116302427
 51
37.26989915307848
  0
ARC
  5
398
330
1F
100
AcDbEntity
  8
GR1
  6
CONTINUOUS
 62
     6
100
AcDbCircle
 10
487.03444971455
 20
193.2605363984674
 30
0.0
 40
35.0
100
AcDbArc
 50
124.4233202903778
 51
13.00217810460846
  0
INSERT
  5
39C
330
1F
100
AcDbEntity
  8
GR1
  6
CONTINUOUS
 62
     7
100
AcDbBlockReference
  2
BLKF029
 10
0.0
 20
0.0
 30
0.0
  0
LINE
  5
3F4
330
1F
100
AcDbEntity
  8
GR1
  6
CONTINUOUS
 62
     7
100
AcDbLine
 10
466.669736116302
 20
144.2372925231246
 30
0.0
 11
461.2677394138213
 21
146.8485051966516
 31
0.0
  0
LINE
  5
3F5
330
1F
100
AcDbEntity
  8
GR1
  6
CONTINUOUS
 62
     7
100
AcDbLine
 10
461.2677394138213
 20
146.8485051966516
 30
0.0
 11
458.6565267402945
 21
141.4465084941708
 31
0.0
  0
LINE
  5
3F6
330
1F
100
AcDbEntity
  8
GR1
  6
CONTINUOUS
 62
     7
100
AcDbLine
 10
458.6565267402945
 20
141.4465084941708
 30
0.0
 11
464.0585234427751
 21
138.8352958206439
 31
0.0
  0
LINE
  5
3F7
330
1F
100
AcDbEntity
  8
GR1
  6
CONTINUOUS
 62
     7
100
AcDbLine
 10
464.0585234427751
 20
138.8352958206439
 30
0.0
 11
466.669736116302
 21
144.2372925231246
 31
0.0
  0
LINE
  5
3F8
330
1F
100
AcDbEntity
  8
GR1
  6
CONTINUOUS
 62
     7
100
AcDbLine
 10
465.2096570951459
 20
141.6109630496003
 30
0.0
 11
461.4321939692508
 21
140.2953748418
 31
0.0
  0
LINE
  5
3F9
330
1F
100
AcDbEntity
  8
GR1
  6
CONTINUOUS
 62
     7
100
AcDbLine
 10
461.4321939692508
 20
140.2953748418
 30
0.0
 11
460.2561449628983
 21
143.6721774988947
 31
0.0
  0
LINE
  5
3FA
330
1F
100
AcDbEntity
  8
GR1
  6
CONTINUOUS
 62
     7
100
AcDbLine
 10
460.2561449628983
 20
143.6721774988947
 30
0.0
 11
461.5294077963221
 21
143.0567087693711
 31
0.0
  0
LINE
  5
3FB
330
1F
100
AcDbEntity
  8
GR1
  6
CONTINUOUS
 62
     7
100
AcDbLine
 10
461.5294077963222
 20
143.056708769371
 30
0.0
 11
462.0476626987745
 21
141.5686376752238
 31
0.0
  0
LINE
  5
3FC
330
1F
100
AcDbEntity
  8
GR1
  6
CONTINUOUS
 62
     7
100
AcDbLine
 10
462.0476626987745
 20
141.5686376752238
 30
0.0
 11
463.9363942617221
 21
142.226431779124
 31
0.0
  0
LINE
  5
3FD
330
1F
100
AcDbEntity
  8
GR1
  6
CONTINUOUS
 62
     7
100
AcDbLine
 10
463.9363942617221
 20
142.226431779124
 30
0.0
 11
463.2786001578219
 21
144.1151633420715
 31
0.0
  0
LINE
  5
3FE
330
1F
100
AcDbEntity
  8
GR1
  6
CONTINUOUS
 62
     7
100
AcDbLine
 10
463.2786001578219
 20
144.1151633420715
 30
0.0
 11
462.2856261106226
 21
143.7693373462619
 31
0.0
  0
ARC
  5
3FF
330
1F
100
AcDbEntity
  8
GR1
  6
CONTINUOUS
 62
     7
100
AcDbCircle
 10
462.3185158158176
 20
143.6749007681144
 30
0.0
 40
0.1
100
AcDbArc
 50
109.2018447094971
 51
244.2018447094972
  0
LINE
  5
400
330
1F
100
AcDbEntity
  8
GR1
  6
CONTINUOUS
 62
     7
100
AcDbLine
 10
462.2749956045921
 20
143.5848674897397
 30
0.0
 11
462.8807324844254
 21
143.2920669005211
 31
0.0
  0
LINE
  5
401
330
1F
100
AcDbEntity
  8
GR1
  6
CONTINUOUS
 62
     7
100
AcDbLine
 10
462.8807324844254
 20
143.2920669005211
 30
0.0
 11
462.6631314282982
 21
142.8419005086477
 31
0.0
  0
LINE
  5
402
330
1F
100
AcDbEntity
  8
GR1
  6
CONTINUOUS
 62
     7
100
AcDbLine
 10
462.6631314282982
 20
142.8419005086477
 30
0.0
 11
460.1166057614506
 21
144.0728379676951
 31
0.0
  0
LINE
  5
403
330
1F
100
AcDbEntity
  8
GR1
  6
CONTINUOUS
 62
     7
100
AcDbLine
 10
460.1166057614506
 20
144.0728379676951
 30
0.0
 11
460.9975943713361
 21
145.8954001870705
 31
0.0
  0
LINE
  5
404
330
1F
100
AcDbEntity
  8
GR1
  6
CONTINUOUS
 62
     7
100
AcDbLine
 10
460.9975943713361
 20
145.8954001870705
 30
0.0
 11
461.8979271550829
 21
145.460198074816
 31
0.0
  0
LINE
  5
405
330
1F
100
AcDbEntity
  8
GR1
  6
CONTINUOUS
 62
     7
100
AcDbLine
 10
461.8979271550829
 20
145.460198074816
 30
0.0
 11
461.5572077416297
 21
144.7553282009044
 31
0.0
  0
ARC
  5
406
330
1F
100
AcDbEntity
  8
GR1
  6
CONTINUOUS
 62
     7
100
AcDbCircle
 10
461.6472410200044
 20
144.711807989679
 30
0.0
 40
0.1
100
AcDbArc
 50
154.2018447094972
 51
289.2018447095
  0
LINE
  5
407
330
1F
100
AcDbEntity
  8
GR1
  6
CONTINUOUS
 62
     7
100
AcDbLine
 10
461.6801307251994
 20
144.6173714115316
 30
0.0
 11
463.8940688873457
 21
145.3884261754954
 31
0.0
  0
LINE
  5
408
330
1F
100
AcDbEntity
  8
GR1
  6
CONTINUOUS
 62
     7
100
AcDbLine
 10
463.8940688873457
 20
145.3884261754954
 30
0.0
 11
465.2096570951459
 21
141.6109630496003
 31
0.0
  0
TEXT
  5
409
330
1F
100
AcDbEntity
  8
基準ﾚｲﾔｸ_ﾙ_ﾌ_
  6
CONTINUOUS
 62
     7
100
AcDbText
 10
456.2725830078125
 20
150.7725219726562
 30
0.0
 40
7.369145393371582
  1
２
 50
140.2018432617189
 41
1.35445761150775
  7
FX_VECTOR
 72
     5
 11
450.7950163969714
 21
155.3359598818051
 31
0.0
100
AcDbText
  0
TEXT
  5
40A
330
1F
100
AcDbEntity
  8
基準ﾚｲﾔｸ_ﾙ_ﾌ_
  6
CONTINUOUS
 62
     7
100
AcDbText
 10
451.3239135742188
 20
154.838134765625
 30
0.0
 40
7.369145393371582
  1
０
 50
133.2018432617188
 41
1.354457611507744
  7
FX_VECTOR
 72
     5
 11
446.4433190959276
 21
160.035104946926
 31
0.0
100
AcDbText
  0
TEXT
  5
40B
330
1F
100
AcDbEntity
  8
基準ﾚｲﾔｸ_ﾙ_ﾌ_
  6
CONTINUOUS
 62
     7
100
AcDbText
 10
446.9075622558594
 20
159.4765625
 30
0.0
 40
7.369145393371582
  1
０
 50
126.2018432617188
 41
1.354457611507748
  7
FX_VECTOR
 72
     5
 11
442.6966983324008
 21
165.2295900981411
 31
0.0
100
AcDbText
  0
TEXT
  5
40C
330
1F
100
AcDbEntity
  8
基準ﾚｲﾔｸ_ﾙ_ﾌ_
  6
CONTINUOUS
 62
     7
100
AcDbText
 10
442.5962829589844
 20
165.3899536132812
 30
0.0
 40
7.369145393371582
  1
Ｘ
 50
118.2018432617187
 41
1.354457611507746
  7
FX_VECTOR
 72
     5
 11
439.2270655645097
 21
171.673032132258
 31
0.0
100
AcDbText
  0
TEXT
  5
40D
330
1F
100
AcDbEntity
  8
基準ﾚｲﾔｸ_ﾙ_ﾌ_
  6
CONTINUOUS
 62
     7
100
AcDbText
 10
439.14990234375
 20
171.8457641601562
 30
0.0
 40
7.369145393371582
  1
４
 50
110.2018432617189
 41
1.354457611507744
  7
FX_VECTOR
 72
     5
 11
436.6879094624146
 21
178.5366006234926
 31
0.0
100
AcDbText
  0
TEXT
  5
40E
330
1F
100
AcDbEntity
  8
基準ﾚｲﾔｸ_ﾙ_ﾌ_
  6
CONTINUOUS
 62
     7
100
AcDbText
 10
436.8970031738281
 20
177.841064453125
 30
0.0
 40
7.369145393371582
  1
２
 50
103.2018432617189
 41
1.354457611507744
  7
FX_VECTOR
 72
     5
 11
435.2687694607084
 21
184.7820698919874
 31
0.0
100
AcDbText
  0
ARC
  5
40F
330
1F
100
AcDbEntity
  8
GR1
  6
CONTINUOUS
 62
     6
100
AcDbCircle
 10
487.03444971455
 20
193.2605363984674
 30
0.0
 40
89.99999999999997
100
AcDbArc
 50
95.08184094189708
 51
42.9409163104037
  0
ARC
  5
410
330
1F
100
AcDbEntity
  8
基準ﾚｲﾔｸ_ﾙ_ﾌ_
  6
CONTINUOUS
 62
     3
100
AcDbCircle
 10
487.03444971455
 20
193.2605363984673
 30
0.0
 40
100.0
100
AcDbArc
 50
93.53329455211735
 51
44.41833412242872
  0
ARC
  5
411
330
1F
100
AcDbEntity
  8
基準ﾚｲﾔｸ_ﾙ_ﾌ_
  6
CONTINUOUS
 62
     3
100
AcDbCircle
 10
487.03444971455
 20
193.2605363984673
 30
0.0
 40
86.61387457977585
100
AcDbArc
 50
95.72866642488405
 51
42.4282038997776
  0
LINE
  5
412
330
1F
100
AcDbEntity
  8
基準ﾚｲﾔｸ_ﾙ_ﾌ_
  6
CONTINUOUS
 62
     3
100
AcDbLine
 10
259.4377434663392
 20
293.4605363984676
 30
0.0
 11
208.4377434663392
 21
293.4605363984676
 31
0.0
  0
LINE
  5
413
330
1F
100
AcDbEntity
  8
基準ﾚｲﾔｸ_ﾙ_ﾌ_
  6
CONTINUOUS
 62
     3
100
AcDbLine
 10
208.4377434663392
 20
298.1985363984674
 30
0.0
 11
208.4377434663392
 21
293.4605363984676
 31
0.0
  0
LINE
  5
414
330
1F
100
AcDbEntity
  8
基準ﾚｲﾔｸ_ﾙ_ﾌ_
  6
CONTINUOUS
 62
     3
100
AcDbLine
 10
259.4377434663392
 20
298.1985363984674
 30
0.0
 11
259.4377434663392
 21
293.4605363984676
 31
0.0
  0
ARC
  5
415
330
1F
100
AcDbEntity
  8
基準ﾚｲﾔｸ_ﾙ_ﾌ_
  6
CONTINUOUS
 62
     3
100
AcDbCircle
 10
202.8441355132074
 20
280.6766768723894
 30
0.0
 40
14.99144097505482
100
AcDbArc
 50
30.20424857362358
 51
55.02392833575384
  0
ARC
  5
416
330
1F
100
AcDbEntity
  8
基準ﾚｲﾔｸ_ﾙ_ﾌ_
  6
CONTINUOUS
 62
     3
100
AcDbCircle
 10
208.4377434663392
 20
284.2105363984696
 30
0.0
 40
9.249999999998124
100
AcDbArc
 50
71.07535558394572
 51
90.0
  0
ARC
  5
417
330
1F
100
AcDbEntity
  8
基準ﾚｲﾔｸ_ﾙ_ﾌ_
  6
CONTINUOUS
 62
     3
100
AcDbCircle
 10
265.031351419471
 20
280.6766768723894
 30
0.0
 40
14.99144097505482
100
AcDbArc
 50
124.9760716642462
 51
149.7957514263776
  0
ARC
  5
418
330
1F
100
AcDbEntity
  8
基準ﾚｲﾔｸ_ﾙ_ﾌ_
  6
CONTINUOUS
 62
     3
100
AcDbCircle
 10
259.437743466339
 20
284.2105363984696
 30
0.0
 40
9.249999999998124
100
AcDbArc
 50
90.0
 51
108.9246444160541
  0
ENDSEC
  0
SECTION
  2
OBJECTS
  0
DICTIONARY
  5
C
330
0
100
AcDbDictionary
  3
ACAD_GROUP
350
D
  3
ACAD_LAYOUT
350
1A
  3
ACAD_MATERIAL
350
3B
  3
ACAD_MLEADERSTYLE
350
43B
  3
ACAD_MLINESTYLE
350
17
  3
ACAD_PLOTSETTINGS
350
19
  3
ACAD_VISUALSTYLE
350
2A
  3
ACDBHEADERROUNDTRIPXREC
350
419
  3
ACDBVARIABLEDICTIONARY
350
439
  0
DICTIONARY
  5
D
102
{ACAD_REACTORS
330
C
102
}
330
C
100
AcDbDictionary
  0
DICTIONARY
  5
1A
102
{ACAD_REACTORS
330
C
102
}
330
C
100
AcDbDictionary
  0
DICTIONARY
  5
3B
102
{ACAD_REACTORS
330
C
102
}
330
C
100
AcDbDictionary
  3
BYBLOCK
350
3D
  3
BYLAYER
350
3C
  3
GLOBAL
350
3E
  0
DICTIONARY
  5
43B
102
{ACAD_REACTORS
330
C
102
}
330
C
100
AcDbDictionary
  0
DICTIONARY
  5
17
102
{ACAD_REACTORS
330
C
102
}
330
C
100
AcDbDictionary
  3
STANDARD
350
18
  0
DICTIONARY
  5
19
102
{ACAD_REACTORS
330
C
102
}
330
C
100
AcDbDictionary
  0
DICTIONARY
  5
2A
102
{ACAD_REACTORS
330
C
102
}
330
C
100
AcDbDictionary
  3
2DWIREFRAME
350
2F
  3
3D_HIDDEN
350
31
  3
3DWIREFRAME
350
30
  3
BASIC
350
32
  3
BRIGHTEN
350
36
  3
COLORCHANGE
350
3A
  3
CONCEPTUAL
350
34
  3
DIM
350
35
  3
FACEPATTERN
350
39
  3
FLAT
350
2B
  3
FLATWITHEDGES
350
2C
  3
GOURAUD
350
2D
  3
GOURAUDWITHEDGES
350
2E
  3
LINEPATTERN
350
38
  3
REALISTIC
350
33
  3
THICKEN
350
37
  0
DICTIONARY
  5
419
102
{ACAD_REACTORS
330
C
102
}
330
C
100
AcDbDictionary
  3
CEPSNTYPE
350
422
  3
DIMSTYLEDATA
350
438
  3
FINGERPRINTGUID
350
423
  3
HYPERLINKBASE
350
41C
  3
INSUNITS
350
421
  3
LAYOUTDICT
350
41E
  3
LWETCUNION
350
420
  3
PLOTSETDICT
350
41F
  3
PSVPSCALE
350
425
  3
PUCSBASE
350
428
  3
PUCSORGBACK
350
42E
  3
PUCSORGBOTTOM
350
42A
  3
PUCSORGFRONT
350
42D
  3
PUCSORGLEFT
350
42B
  3
PUCSORGRIGHT
350
42C
  3
PUCSORGTOP
350
429
  3
PUCSORTHOREF
350
426
  3
PUCSORTHOVIEW
350
427
  3
STYLESHEET
350
41D
  3
TSTACKALIGN
350
41A
  3
TSTACKSIZE
350
41B
  3
UCSBASE
350
431
  3
UCSORGBACK
350
437
  3
UCSORGBOTTOM
350
433
  3
UCSORGFRONT
350
436
  3
UCSORGLEFT
350
434
  3
UCSORGRIGHT
350
435
  3
UCSORGTOP
350
432
  3
UCSORTHOREF
350
42F
  3
UCSORTHOVIEW
350
430
  3
VERSIONGUID
350
424
  0
DICTIONARY
  5
439
102
{ACAD_REACTORS
330
C
102
}
330
C
100
AcDbDictionary
  3
DIMASSOC
350
43E
  3
HIDETEXT
350
43F
  3
PSOLHEIGHT
350
43D
  3
PSOLWIDTH
350
43C
  0
MATERIAL
  5
3D
102
{ACAD_REACTORS
330
3B
102
}
102
{ACAD_XDICTIONARY
360
442
102
}
330
3B
100
AcDbMaterial
  1
ByBlock
  0
MATERIAL
  5
3C
102
{ACAD_REACTORS
330
3B
102
}
102
{ACAD_XDICTIONARY
360
440
102
}
330
3B
100
AcDbMaterial
  1
ByLayer
  0
MATERIAL
  5
3E
102
{ACAD_REACTORS
330
3B
102
}
102
{ACAD_XDICTIONARY
360
444
102
}
330
3B
100
AcDbMaterial
  1
Global
  0
MLINESTYLE
  5
18
102
{ACAD_REACTORS
330
17
102
}
330
17
100
AcDbMlineStyle
  2
Standard
 70
     0
  3

 62
   256
 51
90.0
 52
90.0
 71
     2
 49
0.5
 62
   256
  6
BYLAYER
 49
-0.5
 62
   256
  6
BYLAYER
  0
ACAD_PROXY_OBJECT
  5
2F
102
{ACAD_REACTORS
330
2A
102
}
330
2A
100
AcDbProxyObject
 90
      499
 91
      501
 93
      436
310
42CC9915DA5C99599C985B595049028333333333333E3BF0000000000000FB0107901411070040501600405405064090741402480A0340
1001
ACAD
1000
AcDbSavedByObjectVersion
1070
     0
  0
ACAD_PROXY_OBJECT
  5
31
102
{ACAD_REACTORS
330
2A
102
}
330
2A
100
AcDbProxyObject
 90
      499
 91
      501
 93
      500
310
424CD108121A5919195B90640502408333333333333E3BF0000000000000FB01079024090700405020000000000001110200405405064090740C02480A0340
1001
ACAD
1000
AcDbSavedByObjectVersion
1070
     0
  0
ACAD_PROXY_OBJECT
  5
30
102
{ACAD_REACTORS
330
2A
102
}
330
2A
100
AcDbProxyObject
 90
      499
 91
      501
 93
      436
310
42CCD915DA5C99599C985B595059028333333333333E3BF0000000000000FB0107901411070040501600405405064090741402480A0340
1001
ACAD
1000
AcDbSavedByObjectVersion
1070
     0
  0
ACAD_PROXY_OBJECT
  5
32
102
{ACAD_REACTORS
330
2A
102
}
330
2A
100
AcDbProxyObject
 90
      499
 91
      501
 93
      388
310
4150985CDA58D07406404333333333333E3BF0000000000000FB0107A41107004050150841D405064090741402480A0350
1001
ACAD
1000
AcDbSavedByObjectVersion
1070
     0
  0
ACAD_PROXY_OBJECT
  5
36
102
{ACAD_REACTORS
330
2A
102
}
330
2A
100
AcDbProxyObject
 90
      499
 91
      501
 93
      428
310
42109C9A59DA1D195B90C409028333333333333E3BF0000000000000FB010790141107004050150841D405064090741402480A029950
1001
ACAD
1000
AcDbSavedByObjectVersion
1070
     0
  0
ACAD_PROXY_OBJECT
  5
3A
102
{ACAD_REACTORS
330
2A
102
}
330
2A
100
AcDbProxyObject
 90
      499
 91
      501
 93
      452
310
42D0DBDB1BDC90DA185B99D95104090240C333333333333E3BF0000000000000FB0108901411070040501508421405064090741402480A0350
1001
ACAD
1000
AcDbSavedByObjectVersion
1070
     0
  0
ACAD_PROXY_OBJECT
  5
34
102
{ACAD_REACTORS
330
2A
102
}
330
2A
100
AcDbProxyObject
 90
      499
 91
      501
 93
      500
310
4290DBDB98D95C1D1D585B10940D028333333333333E3BF0000000000000FB0107902409070040501000000000000111010841D405064090740C02480A0340
1001
ACAD
1000
AcDbSavedByObjectVersion
1070
     0
  0
ACAD_PROXY_OBJECT
  5
35
102
{ACAD_REACTORS
330
2A
102
}
330
2A
100
AcDbProxyObject
 90
      499
 91
      501
 93
      412
310
40D11A5B50B409028333333333333E3BF0000000000000FB010790141107004050150841D405064090741402480A02677FFFFFD0
1001
ACAD
1000
AcDbSavedByObjectVersion
1070
     0
  0
ACAD_PROXY_OBJECT
  5
39
102
{ACAD_REACTORS
330
2A
102
}
330
2A
100
AcDbProxyObject
 90
      499
 91
      501
 93
      444
310
42D19858D95C185D1D195C9B90F409028333333333333E3BF0000000000000FB010790141107004050150841D405064090741402480A0350
1001
ACAD
1000
AcDbSavedByObjectVersion
1070
     0
  0
ACAD_PROXY_OBJECT
  5
2B
102
{ACAD_REACTORS
330
2A
102
}
330
2A
100
AcDbProxyObject
 90
      499
 91
      501
 93
      388
310
41119B185D240901404333333333333E3BF0000000000000F9010740A41107004050150841D405064090741402480A1B50
1001
ACAD
1000
AcDbSavedByObjectVersion
1070
     0
  0
ACAD_PROXY_OBJECT
  5
2C
102
{ACAD_REACTORS
330
2A
102
}
330
2A
100
AcDbProxyObject
 90
      499
 91
      501
 93
      476
310
43519B185D15DA5D1A115919D95CD0140901404333333333333E3BF0000000000000F9010740901411070040501600405405064090741402480A1B50
1001
ACAD
1000
AcDbSavedByObjectVersion
1070
     0
  0
ACAD_PROXY_OBJECT
  5
2D
102
{ACAD_REACTORS
330
2A
102
}
330
2A
100
AcDbProxyObject
 90
      499
 91
      501
 93
      412
310
41D1DBDD5C985D5910240902404333333333333E3BF0000000000000F9010740A411070040501641D405064090741402480A1B50
1001
ACAD
1000
AcDbSavedByObjectVersion
1070
     0
  0
ACAD_PROXY_OBJECT
  5
2E
102
{ACAD_REACTORS
330
2A
102
}
330
2A
100
AcDbProxyObject
 90
      499
 91
      501
 93
      500
310
4411DBDD5C985D5915DA5D1A115919D95CD0340902404333333333333E3BF0000000000000F9010740901411070040501600405405064090741402480A1B50
1001
ACAD
1000
AcDbSavedByObjectVersion
1070
     0
  0
ACAD_PROXY_OBJECT
  5
38
102
{ACAD_REACTORS
330
2A
102
}
330
2A
100
AcDbProxyObject
 90
      499
 91
      501
 93
      444
310
42D31A5B995C185D1D195C9B90E409028333333333333E3BF0000000000000FB010790141107004050750841D405064090741402483A0350
1001
ACAD
1000
AcDbSavedByObjectVersion
1070
     0
  0
ACAD_PROXY_OBJECT
  5
33
102
{ACAD_REACTORS
330
2A
102
}
330
2A
100
AcDbProxyObject
 90
      499
 91
      501
 93
      420
310
425499585B1A5CDD1A58D08409028333333333333E3BF0000000000000FB01079019070040501508421405064090741402480A1B40
1001
ACAD
1000
AcDbSavedByObjectVersion
1070
     0
  0
ACAD_PROXY_OBJECT
  5
37
102
{ACAD_REACTORS
330
2A
102
}
330
2A
100
AcDbProxyObject
 90
      499
 91
      501
 93
      412
310
41D51A1A58DAD95B90D409028333333333333E3BF0000000000000FB010790141107004050150C41D405064090741402480A0350
1001
ACAD
1000
AcDbSavedByObjectVersion
1070
     0
  0
XRECORD
  5
422
102
{ACAD_REACTORS
330
419
102
}
330
419
100
AcDbXrecord
 90
        0
  0
XRECORD
  5
438
102
{ACAD_REACTORS
330
419
102
}
330
419
100
AcDbXrecord
1000
DSTYLE
1002
{
1070
   179
 70
     2
1070
   143
 40
0.03937
1070
    41
 40
4.0
1070
    79
 70
     2
1070
   343
340
4A
1070
   344
340
50
1070
   176
 70
     7
1070
   177
 70
     7
1070
   178
 70
     7
1070
    46
 40
6.0
1070
    43
 40
10.0
1070
   278
 70
    46
1070
    44
 40
1.0
1070
    42
 40
1.0
1070
   147
 40
1.0
1070
   341
340
4A
1070
   173
 70
     1
1070
   283
 70
     1
1070
   340
340
46
1070
   140
 40
4.0
1002
}
  0
XRECORD
  5
423
102
{ACAD_REACTORS
330
419
102
}
330
419
100
AcDbXrecord
  1
{6ABED474-0FC3-4B69-BC39-EFF445494D76}
  0
XRECORD
  5
41C
102
{ACAD_REACTORS
330
419
102
}
330
419
100
AcDbXrecord
  1

  0
XRECORD
  5
421
102
{ACAD_REACTORS
330
419
102
}
330
419
100
AcDbXrecord
 90
        4
  0
XRECORD
  5
41E
102
{ACAD_REACTORS
330
419
102
}
330
419
100
AcDbXrecord
340
1A
  0
XRECORD
  5
420
102
{ACAD_REACTORS
330
419
102
}
330
419
100
AcDbXrecord
 90
    10781
  0
XRECORD
  5
41F
102
{ACAD_REACTORS
330
419
102
}
330
419
100
AcDbXrecord
340
19
  0
XRECORD
  5
425
102
{ACAD_REACTORS
330
419
102
}
330
419
100
AcDbXrecord
 40
0.0
  0
XRECORD
  5
428
102
{ACAD_REACTORS
330
419
102
}
330
419
100
AcDbXrecord
340
0
  0
XRECORD
  5
42E
102
{ACAD_REACTORS
330
419
102
}
330
419
100
AcDbXrecord
 10
0.0
 20
0.0
 30
0.0
  0
XRECORD
  5
42A
102
{ACAD_REACTORS
330
419
102
}
330
419
100
AcDbXrecord
 10
0.0
 20
0.0
 30
0.0
  0
XRECORD
  5
42D
102
{ACAD_REACTORS
330
419
102
}
330
419
100
AcDbXrecord
 10
0.0
 20
0.0
 30
0.0
  0
XRECORD
  5
42B
102
{ACAD_REACTORS
330
419
102
}
330
419
100
AcDbXrecord
 10
0.0
 20
0.0
 30
0.0
  0
XRECORD
  5
42C
102
{ACAD_REACTORS
330
419
102
}
330
419
100
AcDbXrecord
 10
0.0
 20
0.0
 30
0.0
  0
XRECORD
  5
429
102
{ACAD_REACTORS
330
419
102
}
330
419
100
AcDbXrecord
 10
0.0
 20
0.0
 30
0.0
  0
XRECORD
  5
426
102
{ACAD_REACTORS
330
419
102
}
330
419
100
AcDbXrecord
340
0
  0
XRECORD
  5
427
102
{ACAD_REACTORS
330
419
102
}
330
419
100
AcDbXrecord
 70
     0
  0
XRECORD
  5
41D
102
{ACAD_REACTORS
330
419
102
}
330
419
100
AcDbXrecord
  1

  0
XRECORD
  5
41A
102
{ACAD_REACTORS
330
419
102
}
330
419
100
AcDbXrecord
 90
        1
  0
XRECORD
  5
41B
102
{ACAD_REACTORS
330
419
102
}
330
419
100
AcDbXrecord
 90
       70
  0
XRECORD
  5
431
102
{ACAD_REACTORS
330
419
102
}
330
419
100
AcDbXrecord
340
0
  0
XRECORD
  5
437
102
{ACAD_REACTORS
330
419
102
}
330
419
100
AcDbXrecord
 10
0.0
 20
0.0
 30
0.0
  0
XRECORD
  5
433
102
{ACAD_REACTORS
330
419
102
}
330
419
100
AcDbXrecord
 10
0.0
 20
0.0
 30
0.0
  0
XRECORD
  5
436
102
{ACAD_REACTORS
330
419
102
}
330
419
100
AcDbXrecord
 10
0.0
 20
0.0
 30
0.0
  0
XRECORD
  5
434
102
{ACAD_REACTORS
330
419
102
}
330
419
100
AcDbXrecord
 10
0.0
 20
0.0
 30
0.0
  0
XRECORD
  5
435
102
{ACAD_REACTORS
330
419
102
}
330
419
100
AcDbXrecord
 10
0.0
 20
0.0
 30
0.0
  0
XRECORD
  5
432
102
{ACAD_REACTORS
330
419
102
}
330
419
100
AcDbXrecord
 10
0.0
 20
0.0
 30
0.0
  0
XRECORD
  5
42F
102
{ACAD_REACTORS
330
419
102
}
330
419
100
AcDbXrecord
340
0
  0
XRECORD
  5
430
102
{ACAD_REACTORS
330
419
102
}
330
419
100
AcDbXrecord
 70
     0
  0
XRECORD
  5
424
102
{ACAD_REACTORS
330
419
102
}
330
419
100
AcDbXrecord
  1
{FAEB1C32-E019-11D5-929B-00C0DF256EC4}
  0
DICTIONARYVAR
  5
43E
102
{ACAD_REACTORS
330
439
102
}
330
439
100
DictionaryVariables
280
     0
  1
2
  0
DICTIONARYVAR
  5
43F
102
{ACAD_REACTORS
330
439
102
}
330
439
100
DictionaryVariables
280
     0
  1
1
  0
DICTIONARYVAR
  5
43D
102
{ACAD_REACTORS
330
439
102
}
330
439
100
DictionaryVariables
280
     0
  1
80.000000
  0
DICTIONARYVAR
  5
43C
102
{ACAD_REACTORS
330
439
102
}
330
439
100
DictionaryVariables
280
     0
  1
5.000000
  0
DICTIONARY
  5
442
330
3D
100
AcDbDictionary
280
     1
  3
ACAD_XREC_ROUNDTRIP
360
443
  0
DICTIONARY
  5
440
330
3C
100
AcDbDictionary
280
     1
  3
ACAD_XREC_ROUNDTRIP
360
441
  0
DICTIONARY
  5
444
330
3E
100
AcDbDictionary
280
     1
  3
ACAD_XREC_ROUNDTRIP
360
445
  0
XRECORD
  5
443
102
{ACAD_REACTORS
330
442
102
}
330
442
100
AcDbXrecord
102
MATERIAL
148
0.0
149
0.0
149
0.0
 93
        0
 94
      127
282
     0
 72
     1
 77
     1
171
     1
175
     1
179
     1
273
     0
  0
XRECORD
  5
441
102
{ACAD_REACTORS
330
440
102
}
330
440
100
AcDbXrecord
102
MATERIAL
148
0.0
149
0.0
149
0.0
 93
        0
 94
      127
282
     0
 72
     1
 77
     1
171
     1
175
     1
179
     1
273
     0
  0
XRECORD
  5
445
102
{ACAD_REACTORS
330
444
102
}
330
444
100
AcDbXrecord
102
MATERIAL
148
0.0
149
0.0
149
0.0
 93
        0
 94
      127
282
     0
 72
     1
 77
     1
171
     1
175
     1
179
     1
273
     0
  0
ENDSEC
  0
EOF
