  0
SECTION
  2
HEADER
  9
$ACADVER
  1
AC1014
  9
$ACADMAINTVER
 70
     9
  9
$DWGCODEPAGE
  3
ANSI_932
  9
$INSBASE
 10
0.0
 20
0.0
 30
0.0
  9
$EXTMIN
 10
0.0
 20
0.0
 30
0.0
  9
$EXTMAX
 10
841.0
 20
594.0
 30
0.0
  9
$LIMMIN
 10
0.0
 20
0.0
  9
$LIMMAX
 10
841.0
 20
594.0
  9
$ORTHOMODE
 70
     0
  9
$REGENMODE
 70
     1
  9
$FILLMODE
 70
     1
  9
$QTEXTMODE
 70
     0
  9
$MIRRTEXT
 70
     1
  9
$DRAGMODE
 70
     2
  9
$LTSCALE
 40
1.0
  9
$OSMODE
 70
    37
  9
$ATTMODE
 70
     1
  9
$TEXTSIZE
 40
0.2
  9
$TRACEWID
 40
0.05
  9
$TEXTSTYLE
  7
STYLE1
  9
$CLAYER
  8
0
  9
$CELTYPE
  6
BYLAYER
  9
$CECOLOR
 62
   256
  9
$CELTSCALE
 40
1.0
  9
$DELOBJ
 70
     1
  9
$DISPSILH
 70
     0
  9
$DIMSCALE
 40
1.0
  9
$DIMASZ
 40
4.0
  9
$DIMEXO
 40
1.0
  9
$DIMDLI
 40
10.0
  9
$DIMRND
 40
0.0
  9
$DIMDLE
 40
6.0
  9
$DIMEXE
 40
1.0
  9
$DIMTP
 40
0.0
  9
$DIMTM
 40
0.0
  9
$DIMTXT
 40
4.0
  9
$DIMCEN
 40
2.5
  9
$DIMTSZ
 40
0.0
  9
$DIMTOL
 70
     0
  9
$DIMLIM
 70
     0
  9
$DIMTIH
 70
     0
  9
$DIMTOH
 70
     0
  9
$DIMSE1
 70
     0
  9
$DIMSE2
 70
     0
  9
$DIMTAD
 70
     1
  9
$DIMZIN
 70
     8
  9
$DIMBLK
  1

  9
$DIMASO
 70
     1
  9
$DIMSHO
 70
     1
  9
$DIMPOST
  1

  9
$DIMAPOST
  1

  9
$DIMALT
 70
     0
  9
$DIMALTD
 70
     3
  9
$DIMALTF
 40
0.03937
  9
$DIMLFAC
 40
1.0
  9
$DIMTOFL
 70
     1
  9
$DIMTVP
 40
0.0
  9
$DIMTIX
 70
     0
  9
$DIMSOXD
 70
     0
  9
$DIMSAH
 70
     1
  9
$DIMBLK1
  1
FXTIP_ARROW_S
  9
$DIMBLK2
  1
FXTIP_ARROW_E
  9
$DIMSTYLE
  2
FXDIMINFO
  9
$DIMCLRD
 70
     7
  9
$DIMCLRE
 70
     7
  9
$DIMCLRT
 70
     7
  9
$DIMTFAC
 40
1.0
  9
$DIMGAP
 40
1.0
  9
$DIMJUST
 70
     0
  9
$DIMSD1
 70
     0
  9
$DIMSD2
 70
     0
  9
$DIMTOLJ
 70
     0
  9
$DIMTZIN
 70
     8
  9
$DIMALTZ
 70
     0
  9
$DIMALTTZ
 70
     0
  9
$DIMFIT
 70
     3
  9
$DIMUPT
 70
     0
  9
$DIMUNIT
 70
     2
  9
$DIMDEC
 70
     2
  9
$DIMTDEC
 70
     2
  9
$DIMALTU
 70
     2
  9
$DIMALTTD
 70
     3
  9
$DIMTXSTY
  7
STYLE1
  9
$DIMAUNIT
 70
     0
  9
$LUNITS
 70
     2
  9
$LUPREC
 70
     4
  9
$SKETCHINC
 40
0.1
  9
$FILLETRAD
 40
0.5
  9
$AUNITS
 70
     0
  9
$AUPREC
 70
     0
  9
$MENU
  1
.
  9
$ELEVATION
 40
0.0
  9
$PELEVATION
 40
0.0
  9
$THICKNESS
 40
0.0
  9
$LIMCHECK
 70
     0
  9
$CHAMFERA
 40
0.5
  9
$CHAMFERB
 40
0.5
  9
$CHAMFERC
 40
1.0
  9
$CHAMFERD
 40
0.0
  9
$SKPOLY
 70
     0
  9
$TDCREATE
 40
2455308.670944398
  9
$TDUPDATE
 40
2455308.67094441
  9
$TDINDWG
 40
0.0000000116
  9
$TDUSRTIMER
 40
0.0000000116
  9
$USRTIMER
 70
     1
  9
$ANGBASE
 50
0.0
  9
$ANGDIR
 70
     0
  9
$PDMODE
 70
     0
  9
$PDSIZE
 40
0.0
  9
$PLINEWID
 40
0.0
  9
$COORDS
 70
     1
  9
$SPLFRAME
 70
     0
  9
$SPLINETYPE
 70
     6
  9
$SPLINESEGS
 70
     8
  9
$ATTDIA
 70
     0
  9
$ATTREQ
 70
     1
  9
$HANDLING
 70
     1
  9
$HANDSEED
  5
432
  9
$SURFTAB1
 70
     6
  9
$SURFTAB2
 70
     6
  9
$SURFTYPE
 70
     6
  9
$SURFU
 70
     6
  9
$SURFV
 70
     6
  9
$UCSNAME
  2

  9
$UCSORG
 10
0.0
 20
0.0
 30
0.0
  9
$UCSXDIR
 10
1.0
 20
0.0
 30
0.0
  9
$UCSYDIR
 10
0.0
 20
1.0
 30
0.0
  9
$PUCSNAME
  2

  9
$PUCSORG
 10
0.0
 20
0.0
 30
0.0
  9
$PUCSXDIR
 10
1.0
 20
0.0
 30
0.0
  9
$PUCSYDIR
 10
0.0
 20
1.0
 30
0.0
  9
$USERI1
 70
     0
  9
$USERI2
 70
     0
  9
$USERI3
 70
     0
  9
$USERI4
 70
     0
  9
$USERI5
 70
     0
  9
$USERR1
 40
0.0
  9
$USERR2
 40
0.0
  9
$USERR3
 40
0.0
  9
$USERR4
 40
0.0
  9
$USERR5
 40
0.0
  9
$WORLDVIEW
 70
     1
  9
$SHADEDGE
 70
     3
  9
$SHADEDIF
 70
    70
  9
$TILEMODE
 70
     1
  9
$MAXACTVP
 70
    64
  9
$PINSBASE
 10
0.0
 20
0.0
 30
0.0
  9
$PLIMCHECK
 70
     0
  9
$PEXTMIN
 10
1.000000E+20
 20
1.000000E+20
 30
1.000000E+20
  9
$PEXTMAX
 10
-1.000000E+20
 20
-1.000000E+20
 30
-1.000000E+20
  9
$PLIMMIN
 10
0.0
 20
0.0
  9
$PLIMMAX
 10
12.0
 20
9.0
  9
$UNITMODE
 70
     0
  9
$VISRETAIN
 70
     1
  9
$PLINEGEN
 70
     0
  9
$PSLTSCALE
 70
     1
  9
$TREEDEPTH
 70
  3020
  9
$PICKSTYLE
 70
     1
  9
$CMLSTYLE
  2
STANDARD
  9
$CMLJUST
 70
     0
  9
$CMLSCALE
 40
1.0
  9
$PROXYGRAPHICS
 70
     1
  9
$MEASUREMENT
 70
     0
  0
ENDSEC
  0
SECTION
  2
CLASSES
  0
CLASS
  1
ACDBDICTIONARYWDFLT
  2
AcDbDictionaryWithDefault
  3
ObjectDBX Classes
 90
        0
280
     0
281
     0
  0
CLASS
  1
XRECORD
  2
AcDbXrecord
  3
AutoCAD 2000
 90
        0
280
     0
281
     0
  0
CLASS
  1
LWPOLYLINE
  2
AcDbPolyline
  3
AutoCAD 2000
 90
        0
280
     0
281
     1
  0
CLASS
  1
HATCH
  2
AcDbHatch
  3
AutoCAD 2000
 90
        0
280
     0
281
     1
  0
CLASS
  1
ACDBPLACEHOLDER
  2
AcDbPlaceHolder
  3
ObjectDBX Classes
 90
        0
280
     0
281
     0
  0
CLASS
  1
LAYOUT
  2
AcDbLayout
  3
ObjectDBX Classes
 90
        0
280
     0
281
     0
  0
ENDSEC
  0
SECTION
  2
TABLES
  0
TABLE
  2
VPORT
  5
8
330
0
100
AcDbSymbolTable
 70
     1
  0
VPORT
  5
29
330
8
100
AcDbSymbolTableRecord
100
AcDbViewportTableRecord
  2
*ACTIVE
 70
     0
 10
0.0
 20
0.0
 11
1.0
 21
1.0
 12
420.5
 22
297.0
 13
0.0
 23
0.0
 14
0.5
 24
0.5
 15
0.5
 25
0.5
 16
0.0
 26
0.0
 36
1.0
 17
0.0
 27
0.0
 37
0.0
 40
594.0
 41
1.415825
 42
50.0
 43
0.0
 44
0.0
 50
0.0
 51
0.0
 71
     0
 72
   100
 73
     1
 74
     3
 75
     0
 76
     0
 77
     0
 78
     0
  0
ENDTAB
  0
TABLE
  2
LTYPE
  5
5
330
0
100
AcDbSymbolTable
 70
     4
  0
LTYPE
  5
14
330
5
100
AcDbSymbolTableRecord
100
AcDbLinetypeTableRecord
  2
BYBLOCK
 70
     0
  3

 72
    65
 73
     0
 40
0.0
  0
LTYPE
  5
15
330
5
100
AcDbSymbolTableRecord
100
AcDbLinetypeTableRecord
  2
BYLAYER
 70
     0
  3

 72
    65
 73
     0
 40
0.0
  0
LTYPE
  5
16
330
5
100
AcDbSymbolTableRecord
100
AcDbLinetypeTableRecord
  2
CONTINUOUS
 70
     0
  3
--------------------
 72
    65
 73
     0
 40
0.0
  0
LTYPE
  5
2A
330
5
100
AcDbSymbolTableRecord
100
AcDbLinetypeTableRecord
  2
CENTER
 70
     0
  3
Center ____ _ ____ _ ____ _ ____ _ ____ _ ____
 72
    65
 73
     4
 40
13.0
 49
10.0
 74
     0
 49
-1.0
 74
     0
 49
1.0
 74
     0
 49
-1.0
 74
     0
  0
LTYPE
  5
2C
330
5
100
AcDbSymbolTableRecord
100
AcDbLinetypeTableRecord
  2
DASHED
 70
     0
  3
Dashed __ __ __ __ __ __ __ __ __ __ __ __ __ _
 72
    65
 73
     2
 40
4.0
 49
3.0
 74
     0
 49
-1.0
 74
     0
  0
ENDTAB
  0
TABLE
  2
LAYER
  5
2
330
0
100
AcDbSymbolTable
 70
    21
  0
LAYER
  5
10
330
2
100
AcDbSymbolTableRecord
100
AcDbLayerTableRecord
  2
0
 70
     0
 62
     7
  6
CONTINUOUS
  0
LAYER
  5
2D
330
2
100
AcDbSymbolTableRecord
100
AcDbLayerTableRecord
  2
LAYERGROUP-1
 70
     0
 62
     3
  6
CONTINUOUS
  0
LAYER
  5
3D
330
2
100
AcDbSymbolTableRecord
100
AcDbLayerTableRecord
  2
}}ﾊﾊGG血CCТ
 70
     0
 62
     3
  6
CONTINUOUS
  0
LAYER
  5
A9
330
2
100
AcDbSymbolTableRecord
100
AcDbLayerTableRecord
  2
GR1-1
 70
     0
 62
     7
  6
CONTINUOUS
  0
LAYER
  5
159
330
2
100
AcDbSymbolTableRecord
100
AcDbLayerTableRecord
  2
1-1
 70
     0
 62
     7
  6
CONTINUOUS
  0
LAYER
  5
2AE
330
2
100
AcDbSymbolTableRecord
100
AcDbLayerTableRecord
  2
0-1
 70
     0
 62
     7
  6
CONTINUOUS
  0
ENDTAB
  0
TABLE
  2
STYLE
  5
3
330
0
100
AcDbSymbolTable
 70
     4
  0
STYLE
  5
11
330
3
100
AcDbSymbolTableRecord
100
AcDbTextStyleTableRecord
  2
STANDARD
 70
     0
 40
0.0
 41
1.0
 50
0.0
 71
     0
 42
0.2
  3
txt
  4

  0
STYLE
  5
3F
330
3
100
AcDbSymbolTableRecord
100
AcDbTextStyleTableRecord
  2
STYLE1
 70
     0
 40
0.0
 41
1.0
 50
0.0
 71
     0
 42
0.2
  3
MONOTXT.SHX
  4
extfont.shx
  0
STYLE
  5
40
330
3
100
AcDbSymbolTableRecord
100
AcDbTextStyleTableRecord
  2
FX_VECTOR
 70
     0
 40
0.0
 41
1.0
 50
0.0
 71
     0
 42
0.2
  3
MONOTXT.SHX
  4
BIGFONT.SHX
  0
ENDTAB
  0
TABLE
  2
VIEW
  5
6
330
0
100
AcDbSymbolTable
 70
     0
  0
ENDTAB
  0
TABLE
  2
UCS
  5
7
330
0
100
AcDbSymbolTable
 70
     0
  0
ENDTAB
  0
TABLE
  2
APPID
  5
9
330
0
100
AcDbSymbolTable
 70
     1
  0
APPID
  5
12
330
9
100
AcDbSymbolTableRecord
100
AcDbRegAppTableRecord
  2
ACAD
 70
     0
  0
ENDTAB
  0
TABLE
  2
DIMSTYLE
  5
A
330
0
100
AcDbSymbolTable
 70
     2
  0
DIMSTYLE
105
27
330
A
100
AcDbSymbolTableRecord
100
AcDbDimStyleTableRecord
  2
STANDARD
 70
     0
  3

  4

  5

  6

  7

 40
1.0
 41
0.18
 42
0.0625
 43
0.38
 44
0.18
 45
0.0
 46
0.0
 47
0.0
 48
0.0
140
0.18
141
0.09
142
0.0
143
25.4
144
1.0
145
0.0
146
1.0
147
0.09
 71
     0
 72
     0
 73
     1
 74
     1
 75
     0
 76
     0
 77
     0
 78
     0
170
     0
171
     2
172
     0
173
     0
174
     0
175
     0
176
     0
177
     0
178
     0
270
     2
271
     4
272
     4
273
     2
274
     2
340
11
275
     0
280
     0
281
     0
282
     0
283
     1
284
     0
285
     0
286
     0
287
     3
288
     0
  0
DIMSTYLE
105
A7
330
A
100
AcDbSymbolTableRecord
100
AcDbDimStyleTableRecord
  2
FXDIMINFO
 70
     0
  3

  4

  5

  6
FXTIP_ARROW_S
  7
FXTIP_ARROW_E
 40
1.0
 41
4.0
 42
1.0
 43
10.0
 44
1.0
 45
0.0
 46
6.0
 47
0.0
 48
0.0
140
4.0
141
2.5
142
0.0
143
0.03937
144
1.0
145
0.0
146
1.0
147
1.0
 71
     0
 72
     0
 73
     0
 74
     0
 75
     0
 76
     0
 77
     1
 78
     8
170
     0
171
     3
172
     1
173
     1
174
     0
175
     0
176
     7
177
     7
178
     7
179
     2
270
     2
271
     2
272
     2
273
     2
274
     3
340
3F
275
     0
280
     0
281
     0
282
     0
283
     0
284
     8
285
     0
286
     0
287
     3
288
     0
  0
ENDTAB
  0
TABLE
  2
BLOCK_RECORD
  5
1
330
0
100
AcDbSymbolTable
 70
    19
  0
BLOCK_RECORD
  5
1F
330
1
100
AcDbSymbolTableRecord
100
AcDbBlockTableRecord
  2
*MODEL_SPACE
  0
BLOCK_RECORD
  5
1B
330
1
100
AcDbSymbolTableRecord
100
AcDbBlockTableRecord
  2
*PAPER_SPACE
  0
BLOCK_RECORD
  5
41
330
1
100
AcDbSymbolTableRecord
100
AcDbBlockTableRecord
  2
FXTIP_ARROW_S
  0
BLOCK_RECORD
  5
47
330
1
100
AcDbSymbolTableRecord
100
AcDbBlockTableRecord
  2
FXTIP_ARROW_E
  0
BLOCK_RECORD
  5
4D
330
1
100
AcDbSymbolTableRecord
100
AcDbBlockTableRecord
  2
FXTIP_BLACKDOT_S
  0
BLOCK_RECORD
  5
53
330
1
100
AcDbSymbolTableRecord
100
AcDbBlockTableRecord
  2
FXTIP_BLACKDOT_E
  0
BLOCK_RECORD
  5
59
330
1
100
AcDbSymbolTableRecord
100
AcDbBlockTableRecord
  2
FXTIP_TRIANGLE_S
  0
BLOCK_RECORD
  5
60
330
1
100
AcDbSymbolTableRecord
100
AcDbBlockTableRecord
  2
FXTIP_TRIANGLE_E
  0
BLOCK_RECORD
  5
67
330
1
100
AcDbSymbolTableRecord
100
AcDbBlockTableRecord
  2
FXTIP_ARCHITECT_S
  0
BLOCK_RECORD
  5
6D
330
1
100
AcDbSymbolTableRecord
100
AcDbBlockTableRecord
  2
FXTIP_ARCHITECT_E
  0
BLOCK_RECORD
  5
73
330
1
100
AcDbSymbolTableRecord
100
AcDbBlockTableRecord
  2
FXTIP_CIVIL_S
  0
BLOCK_RECORD
  5
79
330
1
100
AcDbSymbolTableRecord
100
AcDbBlockTableRecord
  2
FXTIP_CIVIL_E
  0
BLOCK_RECORD
  5
7F
330
1
100
AcDbSymbolTableRecord
100
AcDbBlockTableRecord
  2
FXTIP_WHITEDOT_S
  0
BLOCK_RECORD
  5
84
330
1
100
AcDbSymbolTableRecord
100
AcDbBlockTableRecord
  2
FXTIP_WHITEDOT_E
  0
BLOCK_RECORD
  5
89
330
1
100
AcDbSymbolTableRecord
100
AcDbBlockTableRecord
  2
FXTIP_UPARROW_S
  0
BLOCK_RECORD
  5
8E
330
1
100
AcDbSymbolTableRecord
100
AcDbBlockTableRecord
  2
FXTIP_UPARROW_E
  0
BLOCK_RECORD
  5
93
330
1
100
AcDbSymbolTableRecord
100
AcDbBlockTableRecord
  2
FXTIP_DOWNARROW_S
  0
BLOCK_RECORD
  5
98
330
1
100
AcDbSymbolTableRecord
100
AcDbBlockTableRecord
  2
FXTIP_DOWNARROW_E
  0
BLOCK_RECORD
  5
9D
330
1
100
AcDbSymbolTableRecord
100
AcDbBlockTableRecord
  2
FXTIP_BLACKTRIANGLE_S
  0
BLOCK_RECORD
  5
A2
330
1
100
AcDbSymbolTableRecord
100
AcDbBlockTableRecord
  2
FXTIP_BLACKTRIANGLE_E
  0
ENDTAB
  0
ENDSEC
  0
SECTION
  2
BLOCKS
  0
BLOCK
  5
20
330
1F
100
AcDbEntity
  8
0
100
AcDbBlockBegin
  2
*MODEL_SPACE
 70
     0
 71
     0
 10
0.0
 20
0.0
 30
0.0
  3
*MODEL_SPACE
  1

  0
ENDBLK
  5
21
330
1F
100
AcDbEntity
  8
0
100
AcDbBlockEnd
  0
BLOCK
  5
1C
330
1B
100
AcDbEntity
 67
     1
  8
0
100
AcDbBlockBegin
  2
*PAPER_SPACE
 70
     0
 71
     0
 10
0.0
 20
0.0
 30
0.0
  3
*PAPER_SPACE
  1

  0
ENDBLK
  5
1D
330
1B
100
AcDbEntity
 67
     1
  8
0
100
AcDbBlockEnd
  0
BLOCK
  5
42
330
41
100
AcDbEntity
  8
0
100
AcDbBlockBegin
  2
FXTIP_ARROW_S
 70
     0
 71
     0
 10
0.0
 20
0.0
 30
0.0
  3
FXTIP_ARROW_S
  1

  0
LINE
  5
44
330
41
100
AcDbEntity
  8
0
  6
CONTINUOUS
 62
     0
100
AcDbLine
 10
0.0
 20
0.0
 30
0.0
 11
-1.0
 21
0.0
 31
0.0
  0
LINE
  5
45
330
41
100
AcDbEntity
  8
0
  6
CONTINUOUS
 62
     0
100
AcDbLine
 10
0.0
 20
0.0
 30
0.0
 11
-0.965926
 21
-0.258819
 31
0.0
  0
LINE
  5
46
330
41
100
AcDbEntity
  8
0
  6
CONTINUOUS
 62
     0
100
AcDbLine
 10
0.0
 20
0.0
 30
0.0
 11
-0.965926
 21
0.258819
 31
0.0
  0
ENDBLK
  5
43
330
41
100
AcDbEntity
  8
0
100
AcDbBlockEnd
  0
BLOCK
  5
48
330
47
100
AcDbEntity
  8
0
100
AcDbBlockBegin
  2
FXTIP_ARROW_E
 70
     0
 71
     0
 10
0.0
 20
0.0
 30
0.0
  3
FXTIP_ARROW_E
  1

  0
LINE
  5
4A
330
47
100
AcDbEntity
  8
0
  6
CONTINUOUS
 62
     0
100
AcDbLine
 10
0.0
 20
0.0
 30
0.0
 11
-1.0
 21
0.0
 31
0.0
  0
LINE
  5
4B
330
47
100
AcDbEntity
  8
0
  6
CONTINUOUS
 62
     0
100
AcDbLine
 10
0.0
 20
0.0
 30
0.0
 11
-0.965926
 21
0.258819
 31
0.0
  0
LINE
  5
4C
330
47
100
AcDbEntity
  8
0
  6
CONTINUOUS
 62
     0
100
AcDbLine
 10
0.0
 20
0.0
 30
0.0
 11
-0.965926
 21
-0.258819
 31
0.0
  0
ENDBLK
  5
49
330
47
100
AcDbEntity
  8
0
100
AcDbBlockEnd
  0
BLOCK
  5
4E
330
4D
100
AcDbEntity
  8
0
100
AcDbBlockBegin
  2
FXTIP_BLACKDOT_S
 70
     0
 71
     0
 10
0.0
 20
0.0
 30
0.0
  3
FXTIP_BLACKDOT_S
  1

  0
LINE
  5
50
330
4D
100
AcDbEntity
  8
0
  6
CONTINUOUS
 62
     0
100
AcDbLine
 10
0.0
 20
0.0
 30
0.0
 11
-1.0
 21
0.0
 31
0.0
  0
LWPOLYLINE
  5
51
330
4D
100
AcDbEntity
  8
0
  6
CONTINUOUS
 62
     0
100
AcDbPolyline
 90
        2
 70
     1
 10
-0.25
 20
0.0
 40
0.5
 41
0.5
 42
1.0
 10
0.25
 20
0.0
 40
0.5
 41
0.5
 42
1.0
  0
CIRCLE
  5
52
330
4D
100
AcDbEntity
  8
0
  6
CONTINUOUS
 62
     0
100
AcDbCircle
 10
0.0
 20
0.0
 30
0.0
 40
0.5
  0
ENDBLK
  5
4F
330
4D
100
AcDbEntity
  8
0
100
AcDbBlockEnd
  0
BLOCK
  5
54
330
53
100
AcDbEntity
  8
0
100
AcDbBlockBegin
  2
FXTIP_BLACKDOT_E
 70
     0
 71
     0
 10
0.0
 20
0.0
 30
0.0
  3
FXTIP_BLACKDOT_E
  1

  0
LINE
  5
56
330
53
100
AcDbEntity
  8
0
  6
CONTINUOUS
 62
     0
100
AcDbLine
 10
0.0
 20
0.0
 30
0.0
 11
-1.0
 21
0.0
 31
0.0
  0
LWPOLYLINE
  5
57
330
53
100
AcDbEntity
  8
0
  6
CONTINUOUS
 62
     0
100
AcDbPolyline
 90
        2
 70
     1
 10
-0.25
 20
0.0
 40
0.5
 41
0.5
 42
1.0
 10
0.25
 20
0.0
 40
0.5
 41
0.5
 42
1.0
  0
CIRCLE
  5
58
330
53
100
AcDbEntity
  8
0
  6
CONTINUOUS
 62
     0
100
AcDbCircle
 10
0.0
 20
0.0
 30
0.0
 40
0.5
  0
ENDBLK
  5
55
330
53
100
AcDbEntity
  8
0
100
AcDbBlockEnd
  0
BLOCK
  5
5A
330
59
100
AcDbEntity
  8
0
100
AcDbBlockBegin
  2
FXTIP_TRIANGLE_S
 70
     0
 71
     0
 10
0.0
 20
0.0
 30
0.0
  3
FXTIP_TRIANGLE_S
  1

  0
LINE
  5
5C
330
59
100
AcDbEntity
  8
0
  6
CONTINUOUS
 62
     0
100
AcDbLine
 10
0.0
 20
0.0
 30
0.0
 11
-1.0
 21
0.0
 31
0.0
  0
LINE
  5
5D
330
59
100
AcDbEntity
  8
0
  6
CONTINUOUS
 62
     0
100
AcDbLine
 10
0.0
 20
0.0
 30
0.0
 11
-0.965926
 21
-0.258819
 31
0.0
  0
LINE
  5
5E
330
59
100
AcDbEntity
  8
0
  6
CONTINUOUS
 62
     0
100
AcDbLine
 10
0.0
 20
0.0
 30
0.0
 11
-0.965926
 21
0.258819
 31
0.0
  0
LINE
  5
5F
330
59
100
AcDbEntity
  8
0
  6
CONTINUOUS
 62
     0
100
AcDbLine
 10
-0.965926
 20
-0.258819
 30
0.0
 11
-0.965926
 21
0.258819
 31
0.0
  0
ENDBLK
  5
5B
330
59
100
AcDbEntity
  8
0
100
AcDbBlockEnd
  0
BLOCK
  5
61
330
60
100
AcDbEntity
  8
0
100
AcDbBlockBegin
  2
FXTIP_TRIANGLE_E
 70
     0
 71
     0
 10
0.0
 20
0.0
 30
0.0
  3
FXTIP_TRIANGLE_E
  1

  0
LINE
  5
63
330
60
100
AcDbEntity
  8
0
  6
CONTINUOUS
 62
     0
100
AcDbLine
 10
0.0
 20
0.0
 30
0.0
 11
-1.0
 21
0.0
 31
0.0
  0
LINE
  5
64
330
60
100
AcDbEntity
  8
0
  6
CONTINUOUS
 62
     0
100
AcDbLine
 10
0.0
 20
0.0
 30
0.0
 11
-0.965926
 21
0.258819
 31
0.0
  0
LINE
  5
65
330
60
100
AcDbEntity
  8
0
  6
CONTINUOUS
 62
     0
100
AcDbLine
 10
0.0
 20
0.0
 30
0.0
 11
-0.965926
 21
-0.258819
 31
0.0
  0
LINE
  5
66
330
60
100
AcDbEntity
  8
0
  6
CONTINUOUS
 62
     0
100
AcDbLine
 10
-0.965926
 20
0.258819
 30
0.0
 11
-0.965926
 21
-0.258819
 31
0.0
  0
ENDBLK
  5
62
330
60
100
AcDbEntity
  8
0
100
AcDbBlockEnd
  0
BLOCK
  5
68
330
67
100
AcDbEntity
  8
0
100
AcDbBlockBegin
  2
FXTIP_ARCHITECT_S
 70
     0
 71
     0
 10
0.0
 20
0.0
 30
0.0
  3
FXTIP_ARCHITECT_S
  1

  0
LINE
  5
6A
330
67
100
AcDbEntity
  8
0
  6
CONTINUOUS
 62
     0
100
AcDbLine
 10
0.0
 20
0.0
 30
0.0
 11
-1.0
 21
0.0
 31
0.0
  0
LINE
  5
6B
330
67
100
AcDbEntity
  8
0
  6
CONTINUOUS
 62
     0
100
AcDbLine
 10
0.0
 20
0.0
 30
0.0
 11
-0.707107
 21
-0.707107
 31
0.0
  0
LINE
  5
6C
330
67
100
AcDbEntity
  8
0
  6
CONTINUOUS
 62
     0
100
AcDbLine
 10
0.0
 20
0.0
 30
0.0
 11
0.707107
 21
0.707107
 31
0.0
  0
ENDBLK
  5
69
330
67
100
AcDbEntity
  8
0
100
AcDbBlockEnd
  0
BLOCK
  5
6E
330
6D
100
AcDbEntity
  8
0
100
AcDbBlockBegin
  2
FXTIP_ARCHITECT_E
 70
     0
 71
     0
 10
0.0
 20
0.0
 30
0.0
  3
FXTIP_ARCHITECT_E
  1

  0
LINE
  5
70
330
6D
100
AcDbEntity
  8
0
  6
CONTINUOUS
 62
     0
100
AcDbLine
 10
0.0
 20
0.0
 30
0.0
 11
-1.0
 21
0.0
 31
0.0
  0
LINE
  5
71
330
6D
100
AcDbEntity
  8
0
  6
CONTINUOUS
 62
     0
100
AcDbLine
 10
0.0
 20
0.0
 30
0.0
 11
0.707107
 21
0.707107
 31
0.0
  0
LINE
  5
72
330
6D
100
AcDbEntity
  8
0
  6
CONTINUOUS
 62
     0
100
AcDbLine
 10
0.0
 20
0.0
 30
0.0
 11
-0.707107
 21
-0.707107
 31
0.0
  0
ENDBLK
  5
6F
330
6D
100
AcDbEntity
  8
0
100
AcDbBlockEnd
  0
BLOCK
  5
74
330
73
100
AcDbEntity
  8
0
100
AcDbBlockBegin
  2
FXTIP_CIVIL_S
 70
     0
 71
     0
 10
0.0
 20
0.0
 30
0.0
  3
FXTIP_CIVIL_S
  1

  0
LINE
  5
76
330
73
100
AcDbEntity
  8
0
  6
CONTINUOUS
 62
     0
100
AcDbLine
 10
0.0
 20
0.0
 30
0.0
 11
-1.0
 21
0.0
 31
0.0
  0
LINE
  5
77
330
73
100
AcDbEntity
  8
0
  6
CONTINUOUS
 62
     0
100
AcDbLine
 10
0.0
 20
-0.0625
 30
0.0
 11
-1.0
 21
-0.0625
 31
0.0
  0
LINE
  5
78
330
73
100
AcDbEntity
  8
0
  6
CONTINUOUS
 62
     0
100
AcDbLine
 10
0.0
 20
-0.125
 30
0.0
 11
-1.0
 21
-0.125
 31
0.0
  0
ENDBLK
  5
75
330
73
100
AcDbEntity
  8
0
100
AcDbBlockEnd
  0
BLOCK
  5
7A
330
79
100
AcDbEntity
  8
0
100
AcDbBlockBegin
  2
FXTIP_CIVIL_E
 70
     0
 71
     0
 10
0.0
 20
0.0
 30
0.0
  3
FXTIP_CIVIL_E
  1

  0
LINE
  5
7C
330
79
100
AcDbEntity
  8
0
  6
CONTINUOUS
 62
     0
100
AcDbLine
 10
0.0
 20
0.0
 30
0.0
 11
-1.0
 21
0.0
 31
0.0
  0
LINE
  5
7D
330
79
100
AcDbEntity
  8
0
  6
CONTINUOUS
 62
     0
100
AcDbLine
 10
0.0
 20
0.0625
 30
0.0
 11
-1.0
 21
0.0625
 31
0.0
  0
LINE
  5
7E
330
79
100
AcDbEntity
  8
0
  6
CONTINUOUS
 62
     0
100
AcDbLine
 10
0.0
 20
0.125
 30
0.0
 11
-1.0
 21
0.125
 31
0.0
  0
ENDBLK
  5
7B
330
79
100
AcDbEntity
  8
0
100
AcDbBlockEnd
  0
BLOCK
  5
80
330
7F
100
AcDbEntity
  8
0
100
AcDbBlockBegin
  2
FXTIP_WHITEDOT_S
 70
     0
 71
     0
 10
0.0
 20
0.0
 30
0.0
  3
FXTIP_WHITEDOT_S
  1

  0
LINE
  5
82
330
7F
100
AcDbEntity
  8
0
  6
CONTINUOUS
 62
     0
100
AcDbLine
 10
0.0
 20
0.0
 30
0.0
 11
-1.0
 21
0.0
 31
0.0
  0
CIRCLE
  5
83
330
7F
100
AcDbEntity
  8
0
  6
CONTINUOUS
 62
     0
100
AcDbCircle
 10
0.0
 20
0.0
 30
0.0
 40
0.5
  0
ENDBLK
  5
81
330
7F
100
AcDbEntity
  8
0
100
AcDbBlockEnd
  0
BLOCK
  5
85
330
84
100
AcDbEntity
  8
0
100
AcDbBlockBegin
  2
FXTIP_WHITEDOT_E
 70
     0
 71
     0
 10
0.0
 20
0.0
 30
0.0
  3
FXTIP_WHITEDOT_E
  1

  0
LINE
  5
87
330
84
100
AcDbEntity
  8
0
  6
CONTINUOUS
 62
     0
100
AcDbLine
 10
0.0
 20
0.0
 30
0.0
 11
-1.0
 21
0.0
 31
0.0
  0
CIRCLE
  5
88
330
84
100
AcDbEntity
  8
0
  6
CONTINUOUS
 62
     0
100
AcDbCircle
 10
0.0
 20
0.0
 30
0.0
 40
0.5
  0
ENDBLK
  5
86
330
84
100
AcDbEntity
  8
0
100
AcDbBlockEnd
  0
BLOCK
  5
8A
330
89
100
AcDbEntity
  8
0
100
AcDbBlockBegin
  2
FXTIP_UPARROW_S
 70
     0
 71
     0
 10
0.0
 20
0.0
 30
0.0
  3
FXTIP_UPARROW_S
  1

  0
LINE
  5
8C
330
89
100
AcDbEntity
  8
0
  6
CONTINUOUS
 62
     0
100
AcDbLine
 10
0.0
 20
0.0
 30
0.0
 11
-1.0
 21
0.0
 31
0.0
  0
LINE
  5
8D
330
89
100
AcDbEntity
  8
0
  6
CONTINUOUS
 62
     0
100
AcDbLine
 10
0.0
 20
0.0
 30
0.0
 11
-0.965926
 21
-0.258819
 31
0.0
  0
ENDBLK
  5
8B
330
89
100
AcDbEntity
  8
0
100
AcDbBlockEnd
  0
BLOCK
  5
8F
330
8E
100
AcDbEntity
  8
0
100
AcDbBlockBegin
  2
FXTIP_UPARROW_E
 70
     0
 71
     0
 10
0.0
 20
0.0
 30
0.0
  3
FXTIP_UPARROW_E
  1

  0
LINE
  5
91
330
8E
100
AcDbEntity
  8
0
  6
CONTINUOUS
 62
     0
100
AcDbLine
 10
0.0
 20
0.0
 30
0.0
 11
-1.0
 21
0.0
 31
0.0
  0
LINE
  5
92
330
8E
100
AcDbEntity
  8
0
  6
CONTINUOUS
 62
     0
100
AcDbLine
 10
0.0
 20
0.0
 30
0.0
 11
-0.965926
 21
0.258819
 31
0.0
  0
ENDBLK
  5
90
330
8E
100
AcDbEntity
  8
0
100
AcDbBlockEnd
  0
BLOCK
  5
94
330
93
100
AcDbEntity
  8
0
100
AcDbBlockBegin
  2
FXTIP_DOWNARROW_S
 70
     0
 71
     0
 10
0.0
 20
0.0
 30
0.0
  3
FXTIP_DOWNARROW_S
  1

  0
LINE
  5
96
330
93
100
AcDbEntity
  8
0
  6
CONTINUOUS
 62
     0
100
AcDbLine
 10
0.0
 20
0.0
 30
0.0
 11
-1.0
 21
0.0
 31
0.0
  0
LINE
  5
97
330
93
100
AcDbEntity
  8
0
  6
CONTINUOUS
 62
     0
100
AcDbLine
 10
0.0
 20
0.0
 30
0.0
 11
-0.965926
 21
0.258819
 31
0.0
  0
ENDBLK
  5
95
330
93
100
AcDbEntity
  8
0
100
AcDbBlockEnd
  0
BLOCK
  5
99
330
98
100
AcDbEntity
  8
0
100
AcDbBlockBegin
  2
FXTIP_DOWNARROW_E
 70
     0
 71
     0
 10
0.0
 20
0.0
 30
0.0
  3
FXTIP_DOWNARROW_E
  1

  0
LINE
  5
9B
330
98
100
AcDbEntity
  8
0
  6
CONTINUOUS
 62
     0
100
AcDbLine
 10
0.0
 20
0.0
 30
0.0
 11
-1.0
 21
0.0
 31
0.0
  0
LINE
  5
9C
330
98
100
AcDbEntity
  8
0
  6
CONTINUOUS
 62
     0
100
AcDbLine
 10
0.0
 20
0.0
 30
0.0
 11
-0.965926
 21
-0.258819
 31
0.0
  0
ENDBLK
  5
9A
330
98
100
AcDbEntity
  8
0
100
AcDbBlockEnd
  0
BLOCK
  5
9E
330
9D
100
AcDbEntity
  8
0
100
AcDbBlockBegin
  2
FXTIP_BLACKTRIANGLE_S
 70
     0
 71
     0
 10
0.0
 20
0.0
 30
0.0
  3
FXTIP_BLACKTRIANGLE_S
  1

  0
LINE
  5
A0
330
9D
100
AcDbEntity
  8
0
  6
CONTINUOUS
 62
     0
100
AcDbLine
 10
0.0
 20
0.0
 30
0.0
 11
-1.0
 21
0.0
 31
0.0
  0
SOLID
  5
A1
330
9D
100
AcDbEntity
  8
0
  6
CONTINUOUS
 62
     0
100
AcDbTrace
 10
0.0
 20
0.0
 30
0.0
 11
-0.965926
 21
-0.258819
 31
0.0
 12
-0.965926
 22
0.258819
 32
0.0
 13
-0.965926
 23
0.258819
 33
0.0
  0
ENDBLK
  5
9F
330
9D
100
AcDbEntity
  8
0
100
AcDbBlockEnd
  0
BLOCK
  5
A3
330
A2
100
AcDbEntity
  8
0
100
AcDbBlockBegin
  2
FXTIP_BLACKTRIANGLE_E
 70
     0
 71
     0
 10
0.0
 20
0.0
 30
0.0
  3
FXTIP_BLACKTRIANGLE_E
  1

  0
LINE
  5
A5
330
A2
100
AcDbEntity
  8
0
  6
CONTINUOUS
 62
     0
100
AcDbLine
 10
0.0
 20
0.0
 30
0.0
 11
-1.0
 21
0.0
 31
0.0
  0
SOLID
  5
A6
330
A2
100
AcDbEntity
  8
0
  6
CONTINUOUS
 62
     0
100
AcDbTrace
 10
0.0
 20
0.0
 30
0.0
 11
-0.965926
 21
0.258819
 31
0.0
 12
-0.965926
 22
-0.258819
 32
0.0
 13
-0.965926
 23
-0.258819
 33
0.0
  0
ENDBLK
  5
A4
330
A2
100
AcDbEntity
  8
0
100
AcDbBlockEnd
  0
ENDSEC
  0
SECTION
  2
ENTITIES
  0
TEXT
  5
A8
330
1F
100
AcDbEntity
  8
}}ﾊﾊGG血CCТ
  6
CONTINUOUS
 62
     7
100
AcDbText
 10
566.210999
 20
21.749002
 30
0.0
 40
6.0
  1
ＷＫ－２００　ＲＢ
 41
0.792453
  7
FX_VECTOR
 72
     5
 11
602.210999
 21
21.749002
 31
0.0
100
AcDbText
  0
LINE
  5
AA
330
1F
100
AcDbEntity
  8
GR1-1
  6
CONTINUOUS
 62
     3
100
AcDbLine
 10
199.811828
 20
186.622841
 30
0.0
 11
199.811828
 21
174.622841
 31
0.0
  0
LINE
  5
AB
330
1F
100
AcDbEntity
  8
GR1-1
  6
CONTINUOUS
 62
     3
100
AcDbLine
 10
199.811828
 20
174.622841
 30
0.0
 11
200.811828
 21
173.622841
 31
0.0
  0
LINE
  5
AC
330
1F
100
AcDbEntity
  8
GR1-1
  6
CONTINUOUS
 62
     3
100
AcDbLine
 10
200.811828
 20
173.622841
 30
0.0
 11
202.011828
 21
173.622841
 31
0.0
  0
LINE
  5
AD
330
1F
100
AcDbEntity
  8
GR1-1
  6
CONTINUOUS
 62
     3
100
AcDbLine
 10
202.994309
 20
174.273797
 30
0.0
 11
209.029348
 21
174.273797
 31
0.0
  0
ARC
  5
AE
330
1F
100
AcDbEntity
  8
GR1-1
  6
CONTINUOUS
 62
     3
100
AcDbCircle
 10
188.994309
 20
180.62465
 30
0.0
 40
21.01751962775467
100
AcDbArc
 50
-17.587954
 51
17.587954
  0
LINE
  5
AF
330
1F
100
AcDbEntity
  8
GR1-1
  6
CONTINUOUS
 62
     3
100
AcDbLine
 10
209.029348
 20
186.975503
 30
0.0
 11
202.994309
 21
186.975503
 31
0.0
  0
ARC
  5
B0
330
1F
100
AcDbEntity
  8
GR1-1
  6
CONTINUOUS
 62
     3
100
AcDbCircle
 10
223.029348
 20
180.62465
 30
0.0
 40
21.01751962775467
100
AcDbArc
 50
162.412046
 51
197.587954
  0
ARC
  5
B1
330
1F
100
AcDbEntity
  8
GR1-1
  6
CONTINUOUS
 62
     3
100
AcDbCircle
 10
207.634638
 20
171.09837
 30
0.0
 40
5.622810046529507
100
AcDbArc
 50
145.615753
 51
214.384247
  0
LINE
  5
B2
330
1F
100
AcDbEntity
  8
GR1-1
  6
CONTINUOUS
 62
     3
100
AcDbLine
 10
202.994309
 20
167.922944
 30
0.0
 11
202.011828
 21
169.62465
 31
0.0
  0
LINE
  5
B3
330
1F
100
AcDbEntity
  8
GR1-1
  6
CONTINUOUS
 62
     3
100
AcDbLine
 10
202.011828
 20
169.62465
 30
0.0
 11
202.011828
 21
191.62465
 31
0.0
  0
LINE
  5
B4
330
1F
100
AcDbEntity
  8
GR1-1
  6
CONTINUOUS
 62
     3
100
AcDbLine
 10
202.011828
 20
191.62465
 30
0.0
 11
202.994309
 21
193.326356
 31
0.0
  0
ARC
  5
B5
330
1F
100
AcDbEntity
  8
GR1-1
  6
CONTINUOUS
 62
     3
100
AcDbCircle
 10
207.634638
 20
190.150929
 30
0.0
 40
5.622810046529507
100
AcDbArc
 50
145.615753
 51
214.384247
  0
LINE
  5
B6
330
1F
100
AcDbEntity
  8
GR1-1
  6
CONTINUOUS
 62
     3
100
AcDbLine
 10
202.011828
 20
187.622841
 30
0.0
 11
200.811828
 21
187.622841
 31
0.0
  0
LINE
  5
B7
330
1F
100
AcDbEntity
  8
GR1-1
  6
CONTINUOUS
 62
     3
100
AcDbLine
 10
200.811828
 20
187.622841
 30
0.0
 11
199.811828
 21
186.622841
 31
0.0
  0
LINE
  5
B8
330
1F
100
AcDbEntity
  8
GR1-1
  6
CONTINUOUS
 62
     3
100
AcDbLine
 10
202.994309
 20
193.326356
 30
0.0
 11
209.029348
 21
193.326356
 31
0.0
  0
LINE
  5
B9
330
1F
100
AcDbEntity
  8
GR1-1
  6
CONTINUOUS
 62
     3
100
AcDbLine
 10
209.029348
 20
193.326356
 30
0.0
 11
210.011828
 21
191.62465
 31
0.0
  0
LINE
  5
BA
330
1F
100
AcDbEntity
  8
GR1-1
  6
CONTINUOUS
 62
     3
100
AcDbLine
 10
210.011828
 20
192.12465
 30
0.0
 11
210.011828
 21
169.12465
 31
0.0
  0
ARC
  5
BB
330
1F
100
AcDbEntity
  8
GR1-1
  6
CONTINUOUS
 62
     3
100
AcDbCircle
 10
210.511828
 20
169.12465
 30
0.0
 40
0.5
100
AcDbArc
 50
180.0
 51
270.0
  0
LINE
  5
BC
330
1F
100
AcDbEntity
  8
GR1-1
  6
CONTINUOUS
 62
     3
100
AcDbLine
 10
210.511828
 20
168.62465
 30
0.0
 11
213.011828
 21
168.62465
 31
0.0
  0
ARC
  5
BD
330
1F
100
AcDbEntity
  8
GR1-1
  6
CONTINUOUS
 62
     3
100
AcDbCircle
 10
213.011828
 20
169.12465
 30
0.0
 40
0.5
100
AcDbArc
 50
270.0
 51
360.0
  0
LINE
  5
BE
330
1F
100
AcDbEntity
  8
GR1-1
  6
CONTINUOUS
 62
     3
100
AcDbLine
 10
210.011828
 20
169.62465
 30
0.0
 11
209.029348
 21
167.922944
 31
0.0
  0
ARC
  5
BF
330
1F
100
AcDbEntity
  8
GR1-1
  6
CONTINUOUS
 62
     3
100
AcDbCircle
 10
204.389018
 20
171.09837
 30
0.0
 40
5.622810046529507
100
AcDbArc
 50
-34.384247
 51
34.384247
  0
LINE
  5
C0
330
1F
100
AcDbEntity
  8
GR1-1
  6
CONTINUOUS
 62
     3
100
AcDbLine
 10
209.029348
 20
167.922944
 30
0.0
 11
202.994309
 21
167.922944
 31
0.0
  0
LINE
  5
C1
330
1F
100
AcDbEntity
  8
GR1-1
  6
CONTINUOUS
 62
     3
100
AcDbLine
 10
213.511828
 20
160.12465
 30
0.0
 11
213.511828
 21
188.476676
 31
0.0
  0
ARC
  5
C2
330
1F
100
AcDbEntity
  8
GR1-1
  6
CONTINUOUS
 62
     3
100
AcDbCircle
 10
152.484429
 20
184.739325
 30
0.0
 40
61.14173070542847
100
AcDbArc
 50
3.504447
 51
25.797363
  0
LINE
  5
C3
330
1F
100
AcDbEntity
  8
GR1-1
  6
CONTINUOUS
 62
     3
100
AcDbLine
 10
217.311828
 20
160.12465
 30
0.0
 11
213.511828
 21
160.12465
 31
0.0
  0
LINE
  5
C4
330
1F
100
AcDbEntity
  8
GR1-1
  6
CONTINUOUS
 62
     3
100
AcDbLine
 10
217.311828
 20
160.12465
 30
0.0
 11
217.311828
 21
316.62465
 31
0.0
  0
LINE
  5
C5
330
1F
100
AcDbEntity
  8
GR1-1
  6
CONTINUOUS
 62
     3
100
AcDbLine
 10
207.471734
 20
316.62465
 30
0.0
 11
284.151923
 21
316.62465
 31
0.0
  0
ARC
  5
C6
330
1F
100
AcDbEntity
  8
GR1-1
  6
CONTINUOUS
 62
     3
100
AcDbCircle
 10
284.151923
 20
308.62465
 30
0.0
 40
8.0
100
AcDbArc
 50
15.2369
 51
90.0
  0
LINE
  5
C7
330
1F
100
AcDbEntity
  8
GR1-1
  6
CONTINUOUS
 62
     3
100
AcDbLine
 10
274.311828
 20
316.62465
 30
0.0
 11
274.311828
 21
160.12465
 31
0.0
  0
LINE
  5
C8
330
1F
100
AcDbEntity
  8
GR1-1
  6
CONTINUOUS
 62
     3
100
AcDbLine
 10
274.311828
 20
160.12465
 30
0.0
 11
278.111828
 21
160.12465
 31
0.0
  0
LINE
  5
C9
330
1F
100
AcDbEntity
  8
GR1-1
  6
CONTINUOUS
 62
     3
100
AcDbLine
 10
278.111828
 20
160.12465
 30
0.0
 11
278.111828
 21
188.476676
 31
0.0
  0
LINE
  5
CA
330
1F
100
AcDbEntity
  8
GR1-1
  6
CONTINUOUS
 62
     3
100
AcDbLine
 10
278.111828
 20
167.622841
 30
0.0
 11
281.111828
 21
167.622841
 31
0.0
  0
LINE
  5
CB
330
1F
100
AcDbEntity
  8
GR1-1
  6
CONTINUOUS
 62
     3
100
AcDbLine
 10
281.111828
 20
167.622841
 30
0.0
 11
282.611828
 21
170.622841
 31
0.0
  0
LINE
  5
CC
330
1F
100
AcDbEntity
  8
GR1-1
  6
CONTINUOUS
 62
     3
100
AcDbLine
 10
282.611828
 20
170.622841
 30
0.0
 11
282.611828
 21
190.622841
 31
0.0
  0
LINE
  5
CD
330
1F
100
AcDbEntity
  8
GR1-1
  6
CONTINUOUS
 62
     3
100
AcDbLine
 10
282.611828
 20
190.622841
 30
0.0
 11
281.111828
 21
193.622841
 31
0.0
  0
LINE
  5
CE
330
1F
100
AcDbEntity
  8
GR1-1
  6
CONTINUOUS
 62
     3
100
AcDbLine
 10
281.111828
 20
193.622841
 30
0.0
 11
278.646299
 21
193.622841
 31
0.0
  0
ARC
  5
CF
330
1F
100
AcDbEntity
  8
GR1-1
  6
CONTINUOUS
 62
     3
100
AcDbCircle
 10
154.610904
 20
271.477975
 30
0.0
 40
142.761159772185
100
AcDbArc
 50
-24.910106
 51
15.957773
  0
LINE
  5
D0
330
1F
100
AcDbEntity
  8
GR1-1
  6
CONTINUOUS
 62
     3
100
AcDbLine
 10
297.311828
 20
322.62465
 30
0.0
 11
297.311828
 21
275.62465
 31
0.0
  0
ARC
  5
D1
330
1F
100
AcDbEntity
  8
GR1-1
  6
CONTINUOUS
 62
     3
100
AcDbCircle
 10
289.311828
 20
322.62465
 30
0.0
 40
8.0
100
AcDbArc
 50
0.0
 51
90.0
  0
LINE
  5
D2
330
1F
100
AcDbEntity
  8
GR1-1
  6
CONTINUOUS
 62
     3
100
AcDbLine
 10
289.311828
 20
330.62465
 30
0.0
 11
202.311828
 21
330.62465
 31
0.0
  0
ARC
  5
D3
330
1F
100
AcDbEntity
  8
GR1-1
  6
CONTINUOUS
 62
     3
100
AcDbCircle
 10
202.311828
 20
322.62465
 30
0.0
 40
8.0
100
AcDbArc
 50
90.0
 51
180.0
  0
LINE
  5
D4
330
1F
100
AcDbEntity
  8
GR1-1
  6
CONTINUOUS
 62
     3
100
AcDbLine
 10
194.311828
 20
322.62465
 30
0.0
 11
194.311828
 21
275.62465
 31
0.0
  0
ARC
  5
D5
330
1F
100
AcDbEntity
  8
GR1-1
  6
CONTINUOUS
 62
     3
100
AcDbCircle
 10
337.012753
 20
271.477975
 30
0.0
 40
142.761159772185
100
AcDbArc
 50
164.042227
 51
204.910106
  0
LINE
  5
D6
330
1F
100
AcDbEntity
  8
GR1-1
  6
CONTINUOUS
 62
     3
100
AcDbLine
 10
210.511828
 20
192.62465
 30
0.0
 11
213.011828
 21
192.62465
 31
0.0
  0
ARC
  5
D7
330
1F
100
AcDbEntity
  8
GR1-1
  6
CONTINUOUS
 62
     3
100
AcDbCircle
 10
213.011828
 20
192.12465
 30
0.0
 40
0.5
100
AcDbArc
 50
77.856994
 51
90.0
  0
ARC
  5
D8
330
1F
100
AcDbEntity
  8
GR1-1
  6
CONTINUOUS
 62
     3
100
AcDbCircle
 10
210.511828
 20
192.12465
 30
0.0
 40
0.5
100
AcDbArc
 50
90.0
 51
180.0
  0
ARC
  5
D9
330
1F
100
AcDbEntity
  8
GR1-1
  6
CONTINUOUS
 62
     3
100
AcDbCircle
 10
204.389018
 20
190.150929
 30
0.0
 40
5.622810046529507
100
AcDbArc
 50
-34.384247
 51
34.384247
  0
ARC
  5
DA
330
1F
100
AcDbEntity
  8
GR1-1
  6
CONTINUOUS
 62
     3
100
AcDbCircle
 10
152.484429
 20
184.739325
 30
0.0
 40
64.94173070542847
100
AcDbArc
 50
3.504447
 51
25.770838
  0
ARC
  5
DB
330
1F
100
AcDbEntity
  8
GR1-1
  6
CONTINUOUS
 62
     3
100
AcDbCircle
 10
154.610904
 20
271.477975
 30
0.0
 40
138.961159772185
100
AcDbArc
 50
-24.898239
 51
18.851817
  0
ARC
  5
DC
330
1F
100
AcDbEntity
  8
GR1-1
  6
CONTINUOUS
 62
     3
100
AcDbCircle
 10
207.471734
 20
308.62465
 30
0.0
 40
8.0
100
AcDbArc
 50
90.0
 51
164.7631
  0
ARC
  5
DD
330
1F
100
AcDbEntity
  8
GR1-1
  6
CONTINUOUS
 62
     3
100
AcDbCircle
 10
337.012753
 20
271.477975
 30
0.0
 40
138.961159772185
100
AcDbArc
 50
161.148183
 51
204.898239
  0
ARC
  5
DE
330
1F
100
AcDbEntity
  8
GR1-1
  6
CONTINUOUS
 62
     3
100
AcDbCircle
 10
339.139228
 20
184.739325
 30
0.0
 40
64.94173070542847
100
AcDbArc
 50
154.229162
 51
176.495553
  0
ARC
  5
DF
330
1F
100
AcDbEntity
  8
GR1-1
  6
CONTINUOUS
 62
     3
100
AcDbCircle
 10
339.139228
 20
184.739325
 30
0.0
 40
61.14173070542847
100
AcDbArc
 50
154.202637
 51
176.495553
  0
LINE
  5
E0
330
1F
100
AcDbEntity
  8
GR1-1
  6
CENTER
 62
     6
100
AcDbLine
 10
245.811828
 20
77.929139
 30
0.0
 11
245.811828
 21
335.392452
 31
0.0
  0
LINE
  5
E1
330
1F
100
AcDbEntity
  8
GR1-1
  6
CONTINUOUS
 62
     6
100
AcDbLine
 10
281.111828
 20
193.622841
 30
0.0
 11
281.111828
 21
167.622841
 31
0.0
  0
LINE
  5
E2
330
1F
100
AcDbEntity
  8
GR1-1
  6
CENTER
 62
     6
100
AcDbLine
 10
285.526755
 20
180.62465
 30
0.0
 11
197.344709
 21
180.62465
 31
0.0
  0
LINE
  5
E3
330
1F
100
AcDbEntity
  8
GR1-1
  6
CONTINUOUS
 62
     6
100
AcDbLine
 10
200.001637
 20
186.81265
 30
0.0
 11
202.011828
 21
186.81265
 31
0.0
  0
LINE
  5
E4
330
1F
100
AcDbEntity
  8
GR1-1
  6
CONTINUOUS
 62
     6
100
AcDbLine
 10
200.811828
 20
187.622841
 30
0.0
 11
200.811828
 21
173.622841
 31
0.0
  0
LINE
  5
E5
330
1F
100
AcDbEntity
  8
GR1-1
  6
CONTINUOUS
 62
     6
100
AcDbLine
 10
200.001637
 20
174.43665
 30
0.0
 11
202.011828
 21
174.43665
 31
0.0
  0
ARC
  5
E6
330
1F
100
AcDbEntity
  8
GR1-1
  6
CONTINUOUS
 62
     3
100
AcDbCircle
 10
420.504442
 20
428.098506
 30
0.0
 40
15.0
100
AcDbArc
 50
180.0
 51
270.0
  0
LINE
  5
E7
330
1F
100
AcDbEntity
  8
GR1-1
  6
CONTINUOUS
 62
     3
100
AcDbLine
 10
420.504442
 20
413.098506
 30
0.0
 11
427.901571
 21
413.098506
 31
0.0
  0
ARC
  5
E8
330
1F
100
AcDbEntity
  8
GR1-1
  6
CONTINUOUS
 62
     3
100
AcDbCircle
 10
427.901571
 20
428.098506
 30
0.0
 40
15.0
100
AcDbArc
 50
270.0
 51
310.0
  0
LINE
  5
E9
330
1F
100
AcDbEntity
  8
GR1-1
  6
CONTINUOUS
 62
     3
100
AcDbLine
 10
437.543385
 20
416.607839
 30
0.0
 11
450.428095
 21
427.419395
 31
0.0
  0
LINE
  5
EA
330
1F
100
AcDbEntity
  8
GR1-1
  6
CONTINUOUS
 62
     3
100
AcDbLine
 10
463.283847
 20
432.098506
 30
0.0
 11
501.725038
 21
432.098506
 31
0.0
  0
LINE
  5
EB
330
1F
100
AcDbEntity
  8
GR1-1
  6
CONTINUOUS
 62
     3
100
AcDbLine
 10
495.502634
 20
432.098506
 30
0.0
 11
495.502634
 21
429.098506
 31
0.0
  0
LINE
  5
EC
330
1F
100
AcDbEntity
  8
GR1-1
  6
CONTINUOUS
 62
     3
100
AcDbLine
 10
495.502634
 20
429.098506
 30
0.0
 11
492.502634
 21
427.598506
 31
0.0
  0
LINE
  5
ED
330
1F
100
AcDbEntity
  8
GR1-1
  6
CONTINUOUS
 62
     3
100
AcDbLine
 10
492.502634
 20
427.598506
 30
0.0
 11
472.502634
 21
427.598506
 31
0.0
  0
LINE
  5
EE
330
1F
100
AcDbEntity
  8
GR1-1
  6
CONTINUOUS
 62
     3
100
AcDbLine
 10
472.502634
 20
427.598506
 30
0.0
 11
469.502634
 21
429.098506
 31
0.0
  0
LINE
  5
EF
330
1F
100
AcDbEntity
  8
GR1-1
  6
CONTINUOUS
 62
     3
100
AcDbLine
 10
469.502634
 20
429.098506
 30
0.0
 11
469.502634
 21
432.098506
 31
0.0
  0
ARC
  5
F0
330
1F
100
AcDbEntity
  8
GR1-1
  6
CONTINUOUS
 62
     3
100
AcDbCircle
 10
463.283847
 20
412.098506
 30
0.0
 40
20.0
100
AcDbArc
 50
90.0
 51
130.0
  0
LINE
  5
F1
330
1F
100
AcDbEntity
  8
GR1-1
  6
CONTINUOUS
 62
     3
100
AcDbLine
 10
432.070306
 20
430.532642
 30
0.0
 11
430.570306
 21
429.032642
 31
0.0
  0
ARC
  5
F2
330
1F
100
AcDbEntity
  8
GR1-1
  6
CONTINUOUS
 62
     3
100
AcDbCircle
 10
428.004442
 20
434.598506
 30
0.0
 40
5.75
100
AcDbArc
 50
-45.0
 51
135.0
  0
LINE
  5
F3
330
1F
100
AcDbEntity
  8
GR1-1
  6
CONTINUOUS
 62
     3
100
AcDbLine
 10
423.938578
 20
438.66437
 30
0.0
 11
422.438578
 21
437.16437
 31
0.0
  0
ARC
  5
F4
330
1F
100
AcDbEntity
  8
GR1-1
  6
CONTINUOUS
 62
     3
100
AcDbCircle
 10
426.504442
 20
433.098506
 30
0.0
 40
5.75
100
AcDbArc
 50
135.0
 51
315.0
  0
LINE
  5
F5
330
1F
100
AcDbEntity
  8
GR1-1
  6
CONTINUOUS
 62
     3
100
AcDbLine
 10
405.504442
 20
428.098506
 30
0.0
 11
405.504442
 21
501.098506
 31
0.0
  0
LINE
  5
F6
330
1F
100
AcDbEntity
  8
GR1-1
  6
CONTINUOUS
 62
     3
100
AcDbLine
 10
514.58079
 20
427.419395
 30
0.0
 11
527.4655
 21
416.607839
 31
0.0
  0
ARC
  5
F7
330
1F
100
AcDbEntity
  8
GR1-1
  6
CONTINUOUS
 62
     3
100
AcDbCircle
 10
537.107314
 20
428.098506
 30
0.0
 40
15.0
100
AcDbArc
 50
230.0
 51
270.0
  0
LINE
  5
F8
330
1F
100
AcDbEntity
  8
GR1-1
  6
CONTINUOUS
 62
     3
100
AcDbLine
 10
537.107314
 20
413.098506
 30
0.0
 11
544.504442
 21
413.098506
 31
0.0
  0
ARC
  5
F9
330
1F
100
AcDbEntity
  8
GR1-1
  6
CONTINUOUS
 62
     3
100
AcDbCircle
 10
544.504442
 20
428.098506
 30
0.0
 40
15.0
100
AcDbArc
 50
270.0
 51
360.0
  0
LINE
  5
FA
330
1F
100
AcDbEntity
  8
GR1-1
  6
CONTINUOUS
 62
     3
100
AcDbLine
 10
559.504442
 20
428.098506
 30
0.0
 11
559.504442
 21
501.098506
 31
0.0
  0
ARC
  5
FB
330
1F
100
AcDbEntity
  8
GR1-1
  6
CONTINUOUS
 62
     3
100
AcDbCircle
 10
537.004442
 20
434.598506
 30
0.0
 40
5.75
100
AcDbArc
 50
45.0
 51
225.0
  0
LINE
  5
FC
330
1F
100
AcDbEntity
  8
GR1-1
  6
CONTINUOUS
 62
     3
100
AcDbLine
 10
532.938578
 20
430.532642
 30
0.0
 11
534.438578
 21
429.032642
 31
0.0
  0
ARC
  5
FD
330
1F
100
AcDbEntity
  8
GR1-1
  6
CONTINUOUS
 62
     3
100
AcDbCircle
 10
538.504442
 20
433.098506
 30
0.0
 40
5.75
100
AcDbArc
 50
-135.0
 51
45.0
  0
LINE
  5
FE
330
1F
100
AcDbEntity
  8
GR1-1
  6
CONTINUOUS
 62
     3
100
AcDbLine
 10
542.570306
 20
437.16437
 30
0.0
 11
541.070306
 21
438.66437
 31
0.0
  0
ARC
  5
FF
330
1F
100
AcDbEntity
  8
GR1-1
  6
CONTINUOUS
 62
     3
100
AcDbCircle
 10
501.725038
 20
412.098506
 30
0.0
 40
20.0
100
AcDbArc
 50
50.0
 51
90.0
  0
LINE
  5
100
330
1F
100
AcDbEntity
  8
GR1-1
  6
CONTINUOUS
 62
     3
100
AcDbLine
 10
510.791216
 20
330.62465
 30
0.0
 11
552.504442
 21
330.62465
 31
0.0
  0
ARC
  5
101
330
1F
100
AcDbEntity
  8
GR1-1
  6
CONTINUOUS
 62
     3
100
AcDbCircle
 10
552.504442
 20
323.62465
 30
0.0
 40
7.0
100
AcDbArc
 50
0.0
 51
90.0
  0
LINE
  5
102
330
1F
100
AcDbEntity
  8
GR1-1
  6
CONTINUOUS
 62
     3
100
AcDbLine
 10
559.504442
 20
323.62465
 30
0.0
 11
559.504442
 21
316.62465
 31
0.0
  0
ARC
  5
103
330
1F
100
AcDbEntity
  8
GR1-1
  6
CONTINUOUS
 62
     3
100
AcDbCircle
 10
558.467521
 20
312.761388
 30
0.0
 40
4.0
100
AcDbArc
 50
74.97561
 51
160.5
  0
LINE
  5
104
330
1F
100
AcDbEntity
  8
GR1-1
  6
CONTINUOUS
 62
     3
100
AcDbLine
 10
541.182792
 20
275.62465
 30
0.0
 11
506.050906
 21
176.724408
 31
0.0
  0
CIRCLE
  5
105
330
1F
100
AcDbEntity
  8
GR1-1
  6
CONTINUOUS
 62
     3
100
AcDbCircle
 10
482.504442
 20
180.62465
 30
0.0
 40
12.99819119171332
  0
ARC
  5
106
330
1F
100
AcDbEntity
  8
GR1-1
  6
CONTINUOUS
 62
     3
100
AcDbCircle
 10
482.504442
 20
185.12465
 30
0.0
 40
25.0
100
AcDbArc
 50
199.633948
 51
340.366052
  0
LINE
  5
107
330
1F
100
AcDbEntity
  8
GR1-1
  6
CONTINUOUS
 62
     3
100
AcDbLine
 10
458.957979
 20
176.724408
 30
0.0
 11
423.826093
 21
275.62465
 31
0.0
  0
ARC
  5
108
330
1F
100
AcDbEntity
  8
GR1-1
  6
CONTINUOUS
 62
     3
100
AcDbCircle
 10
998.527635
 20
70.76144
 30
0.0
 40
501.1319594513729
100
AcDbArc
 50
155.870467
 51
164.980976
  0
ARC
  5
109
330
1F
100
AcDbEntity
  8
GR1-1
  6
CONTINUOUS
 62
     3
100
AcDbCircle
 10
-33.518751
 20
70.76144
 30
0.0
 40
501.1319594513729
100
AcDbArc
 50
15.019024
 51
24.129533
  0
ARC
  5
10A
330
1F
100
AcDbEntity
  8
GR1-1
  6
CONTINUOUS
 62
     3
100
AcDbCircle
 10
38.848799
 20
473.690599
 30
0.0
 40
539.9718142667731
100
AcDbArc
 50
338.481111
 51
342.808889
  0
ARC
  5
10B
330
1F
100
AcDbEntity
  8
GR1-1
  6
CONTINUOUS
 62
     3
100
AcDbCircle
 10
510.791216
 20
318.62465
 30
0.0
 40
12.0
100
AcDbArc
 50
90.0
 51
119.744881
  0
LINE
  5
10C
330
1F
100
AcDbEntity
  8
GR1-1
  6
CONTINUOUS
 62
     3
100
AcDbLine
 10
504.837548
 20
329.043568
 30
0.0
 11
502.354442
 21
327.62465
 31
0.0
  0
LINE
  5
10D
330
1F
100
AcDbEntity
  8
GR1-1
  6
CONTINUOUS
 62
     3
100
AcDbLine
 10
502.354442
 20
327.62465
 30
0.0
 11
462.654442
 21
327.62465
 31
0.0
  0
LINE
  5
10E
330
1F
100
AcDbEntity
  8
GR1-1
  6
CONTINUOUS
 62
     3
100
AcDbLine
 10
462.654442
 20
327.62465
 30
0.0
 11
460.171336
 21
329.043568
 31
0.0
  0
ARC
  5
10F
330
1F
100
AcDbEntity
  8
GR1-1
  6
CONTINUOUS
 62
     3
100
AcDbCircle
 10
454.217669
 20
318.62465
 30
0.0
 40
12.0
100
AcDbArc
 50
60.255119
 51
90.0
  0
LINE
  5
110
330
1F
100
AcDbEntity
  8
GR1-1
  6
CONTINUOUS
 62
     3
100
AcDbLine
 10
454.217669
 20
330.62465
 30
0.0
 11
412.504442
 21
330.62465
 31
0.0
  0
ARC
  5
111
330
1F
100
AcDbEntity
  8
GR1-1
  6
CONTINUOUS
 62
     3
100
AcDbCircle
 10
412.504442
 20
323.62465
 30
0.0
 40
7.0
100
AcDbArc
 50
90.0
 51
180.0
  0
LINE
  5
112
330
1F
100
AcDbEntity
  8
GR1-1
  6
CONTINUOUS
 62
     3
100
AcDbLine
 10
405.504442
 20
323.62465
 30
0.0
 11
405.504442
 21
316.62465
 31
0.0
  0
ARC
  5
113
330
1F
100
AcDbEntity
  8
GR1-1
  6
CONTINUOUS
 62
     3
100
AcDbCircle
 10
406.541363
 20
312.761388
 30
0.0
 40
4.0
100
AcDbArc
 50
19.5
 51
105.02439
  0
ARC
  5
114
330
1F
100
AcDbEntity
  8
GR1-1
  6
CONTINUOUS
 62
     3
100
AcDbCircle
 10
926.160086
 20
473.690599
 30
0.0
 40
539.9718142667731
100
AcDbArc
 50
197.191111
 51
201.518889
  0
TEXT
  5
115
330
1F
100
AcDbEntity
  8
GR1-1
  6
CONTINUOUS
 62
     7
100
AcDbText
 10
476.455322
 20
279.811218
 30
0.0
 40
12.908237
  1
K-200
 50
270.0
 41
0.688584
  7
FX_VECTOR
 72
     5
 11
476.455322
 21
235.792463
 31
0.0
100
AcDbText
  0
LINE
  5
116
330
1F
100
AcDbEntity
  8
GR1-1
  6
CONTINUOUS
 62
     6
100
AcDbLine
 10
509.004442
 20
200.62465
 30
0.0
 11
509.004442
 21
324.62465
 31
0.0
  0
LINE
  5
117
330
1F
100
AcDbEntity
  8
GR1-1
  6
CENTER
 62
     6
100
AcDbLine
 10
482.504442
 20
334.746323
 30
0.0
 11
482.504442
 21
74.432699
 31
0.0
  0
CIRCLE
  5
118
330
1F
100
AcDbEntity
  8
GR1-1
  6
CONTINUOUS
 62
     6
100
AcDbCircle
 10
482.504442
 20
180.62465
 30
0.0
 40
9.998191191713318
  0
LINE
  5
119
330
1F
100
AcDbEntity
  8
GR1-1
  6
CONTINUOUS
 62
     6
100
AcDbLine
 10
456.004442
 20
200.62465
 30
0.0
 11
456.004442
 21
324.62465
 31
0.0
  0
LINE
  5
11A
330
1F
100
AcDbEntity
  8
GR1-1
  6
CENTER
 62
     6
100
AcDbLine
 10
482.504442
 20
425.046033
 30
0.0
 11
482.504442
 21
512.795005
 31
0.0
  0
LINE
  5
11B
330
1F
100
AcDbEntity
  8
GR1-1
  6
CONTINUOUS
 62
     6
100
AcDbLine
 10
469.502634
 20
429.098506
 30
0.0
 11
495.502634
 21
429.098506
 31
0.0
  0
LINE
  5
11C
330
1F
100
AcDbEntity
  8
GR1-1
  6
CONTINUOUS
 62
     6
100
AcDbLine
 10
502.354442
 20
434.598506
 30
0.0
 11
502.354442
 21
494.598506
 31
0.0
  0
LINE
  5
11D
330
1F
100
AcDbEntity
  8
GR1-1
  6
CENTER
 62
     6
100
AcDbLine
 10
586.820991
 20
464.598506
 30
0.0
 11
377.246365
 21
464.598506
 31
0.0
  0
ARC
  5
11E
330
1F
100
AcDbEntity
  8
GR1-1
  6
CONTINUOUS
 62
     3
100
AcDbCircle
 10
420.504442
 20
501.098506
 30
0.0
 40
15.0
100
AcDbArc
 50
90.0
 51
180.0
  0
LINE
  5
11F
330
1F
100
AcDbEntity
  8
GR1-1
  6
CONTINUOUS
 62
     3
100
AcDbLine
 10
420.504442
 20
516.098506
 30
0.0
 11
427.901571
 21
516.098506
 31
0.0
  0
ARC
  5
120
330
1F
100
AcDbEntity
  8
GR1-1
  6
CONTINUOUS
 62
     3
100
AcDbCircle
 10
427.901571
 20
501.098506
 30
0.0
 40
15.0
100
AcDbArc
 50
50.0
 51
90.0
  0
LINE
  5
121
330
1F
100
AcDbEntity
  8
GR1-1
  6
CONTINUOUS
 62
     3
100
AcDbLine
 10
437.543385
 20
512.589173
 30
0.0
 11
450.428095
 21
501.777617
 31
0.0
  0
LINE
  5
122
330
1F
100
AcDbEntity
  8
GR1-1
  6
CONTINUOUS
 62
     3
100
AcDbLine
 10
463.283847
 20
497.098506
 30
0.0
 11
501.725038
 21
497.098506
 31
0.0
  0
ARC
  5
123
330
1F
100
AcDbEntity
  8
GR1-1
  6
CONTINUOUS
 62
     3
100
AcDbCircle
 10
463.283847
 20
517.098506
 30
0.0
 40
20.0
100
AcDbArc
 50
230.0
 51
270.0
  0
LINE
  5
124
330
1F
100
AcDbEntity
  8
GR1-1
  6
CONTINUOUS
 62
     3
100
AcDbLine
 10
432.070306
 20
498.66437
 30
0.0
 11
430.570306
 21
500.16437
 31
0.0
  0
ARC
  5
125
330
1F
100
AcDbEntity
  8
GR1-1
  6
CONTINUOUS
 62
     3
100
AcDbCircle
 10
428.004442
 20
494.598506
 30
0.0
 40
5.75
100
AcDbArc
 50
-135.0
 51
45.0
  0
LINE
  5
126
330
1F
100
AcDbEntity
  8
GR1-1
  6
CONTINUOUS
 62
     3
100
AcDbLine
 10
423.938578
 20
490.532642
 30
0.0
 11
422.438578
 21
492.032642
 31
0.0
  0
ARC
  5
127
330
1F
100
AcDbEntity
  8
GR1-1
  6
CONTINUOUS
 62
     3
100
AcDbCircle
 10
426.504442
 20
496.098506
 30
0.0
 40
5.75
100
AcDbArc
 50
45.0
 51
225.0
  0
LINE
  5
128
330
1F
100
AcDbEntity
  8
GR1-1
  6
CONTINUOUS
 62
     3
100
AcDbLine
 10
514.58079
 20
501.777617
 30
0.0
 11
527.4655
 21
512.589173
 31
0.0
  0
ARC
  5
129
330
1F
100
AcDbEntity
  8
GR1-1
  6
CONTINUOUS
 62
     3
100
AcDbCircle
 10
537.107314
 20
501.098506
 30
0.0
 40
15.0
100
AcDbArc
 50
90.0
 51
130.0
  0
LINE
  5
12A
330
1F
100
AcDbEntity
  8
GR1-1
  6
CONTINUOUS
 62
     3
100
AcDbLine
 10
537.107314
 20
516.098506
 30
0.0
 11
544.504442
 21
516.098506
 31
0.0
  0
ARC
  5
12B
330
1F
100
AcDbEntity
  8
GR1-1
  6
CONTINUOUS
 62
     3
100
AcDbCircle
 10
544.504442
 20
501.098506
 30
0.0
 40
15.0
100
AcDbArc
 50
0.0
 51
90.0
  0
ARC
  5
12C
330
1F
100
AcDbEntity
  8
GR1-1
  6
CONTINUOUS
 62
     3
100
AcDbCircle
 10
537.004442
 20
494.598506
 30
0.0
 40
5.75
100
AcDbArc
 50
135.0
 51
315.0
  0
LINE
  5
12D
330
1F
100
AcDbEntity
  8
GR1-1
  6
CONTINUOUS
 62
     3
100
AcDbLine
 10
532.938578
 20
498.66437
 30
0.0
 11
534.438578
 21
500.16437
 31
0.0
  0
ARC
  5
12E
330
1F
100
AcDbEntity
  8
GR1-1
  6
CONTINUOUS
 62
     3
100
AcDbCircle
 10
538.504442
 20
496.098506
 30
0.0
 40
5.75
100
AcDbArc
 50
-45.0
 51
135.0
  0
LINE
  5
12F
330
1F
100
AcDbEntity
  8
GR1-1
  6
CONTINUOUS
 62
     3
100
AcDbLine
 10
542.570306
 20
492.032642
 30
0.0
 11
541.070306
 21
490.532642
 31
0.0
  0
ARC
  5
130
330
1F
100
AcDbEntity
  8
GR1-1
  6
CONTINUOUS
 62
     3
100
AcDbCircle
 10
501.725038
 20
517.098506
 30
0.0
 40
20.0
100
AcDbArc
 50
270.0
 51
310.0
  0
LINE
  5
131
330
1F
100
AcDbEntity
  8
GR1-1
  6
CENTER
 62
     6
100
AcDbLine
 10
545.689445
 20
496.098506
 30
0.0
 11
530.992108
 21
496.098506
 31
0.0
  0
LINE
  5
132
330
1F
100
AcDbEntity
  8
GR1-1
  6
CENTER
 62
     6
100
AcDbLine
 10
537.004442
 20
502.641776
 30
0.0
 11
537.004442
 21
487.637534
 31
0.0
  0
LINE
  5
133
330
1F
100
AcDbEntity
  8
GR1-1
  6
CENTER
 62
     6
100
AcDbLine
 10
529.900891
 20
494.598506
 30
0.0
 11
544.461825
 21
494.598506
 31
0.0
  0
LINE
  5
134
330
1F
100
AcDbEntity
  8
GR1-1
  6
CENTER
 62
     6
100
AcDbLine
 10
538.504442
 20
488.694651
 30
0.0
 11
538.504442
 21
502.709977
 31
0.0
  0
TEXT
  5
135
330
1F
100
AcDbEntity
  8
}}ﾊﾊGG血CCТ
  6
CONTINUOUS
 62
     7
100
AcDbText
 10
666.640076
 20
21.749002
 30
0.0
 40
6.0
  1
W50B0ALA-C01
 41
0.711864
  7
FX_VECTOR
 72
     5
 11
714.640076
 21
21.749002
 31
0.0
100
AcDbText
  0
LINE
  5
136
330
1F
100
AcDbEntity
  8
GR1-1
  6
CONTINUOUS
 62
     3
100
AcDbLine
 10
488.502634
 20
510.798506
 30
0.0
 11
476.502634
 21
510.798506
 31
0.0
  0
LINE
  5
137
330
1F
100
AcDbEntity
  8
GR1-1
  6
CONTINUOUS
 62
     3
100
AcDbLine
 10
476.502634
 20
510.798506
 30
0.0
 11
475.502634
 21
509.798506
 31
0.0
  0
LINE
  5
138
330
1F
100
AcDbEntity
  8
GR1-1
  6
CONTINUOUS
 62
     3
100
AcDbLine
 10
475.502634
 20
509.798506
 30
0.0
 11
475.502634
 21
508.598506
 31
0.0
  0
LINE
  5
139
330
1F
100
AcDbEntity
  8
GR1-1
  6
CONTINUOUS
 62
     3
100
AcDbLine
 10
489.502634
 20
508.598506
 30
0.0
 11
489.502634
 21
509.798506
 31
0.0
  0
LINE
  5
13A
330
1F
100
AcDbEntity
  8
GR1-1
  6
CONTINUOUS
 62
     3
100
AcDbLine
 10
489.502634
 20
509.798506
 30
0.0
 11
488.502634
 21
510.798506
 31
0.0
  0
ARC
  5
13B
330
1F
100
AcDbEntity
  8
GR1-1
  6
CONTINUOUS
 62
     3
100
AcDbCircle
 10
471.004442
 20
500.098506
 30
0.0
 40
0.5
100
AcDbArc
 50
90.0
 51
180.0
  0
LINE
  5
13C
330
1F
100
AcDbEntity
  8
GR1-1
  6
CONTINUOUS
 62
     3
100
AcDbLine
 10
470.504442
 20
500.098506
 30
0.0
 11
470.504442
 21
497.598506
 31
0.0
  0
ARC
  5
13D
330
1F
100
AcDbEntity
  8
GR1-1
  6
CONTINUOUS
 62
     3
100
AcDbCircle
 10
471.004442
 20
497.598506
 30
0.0
 40
0.5
100
AcDbArc
 50
180.0
 51
270.0
  0
LINE
  5
13E
330
1F
100
AcDbEntity
  8
GR1-1
  6
CONTINUOUS
 62
     3
100
AcDbLine
 10
494.504442
 20
500.098506
 30
0.0
 11
494.504442
 21
497.598506
 31
0.0
  0
ARC
  5
13F
330
1F
100
AcDbEntity
  8
GR1-1
  6
CONTINUOUS
 62
     3
100
AcDbCircle
 10
494.004442
 20
497.598506
 30
0.0
 40
0.5
100
AcDbArc
 50
270.0
 51
360.0
  0
ARC
  5
140
330
1F
100
AcDbEntity
  8
GR1-1
  6
CONTINUOUS
 62
     3
100
AcDbCircle
 10
494.004442
 20
500.098506
 30
0.0
 40
0.5
100
AcDbArc
 50
0.0
 51
90.0
  0
LINE
  5
141
330
1F
100
AcDbEntity
  8
GR1-1
  6
CONTINUOUS
 62
     6
100
AcDbLine
 10
488.692442
 20
510.608697
 30
0.0
 11
488.692442
 21
508.598506
 31
0.0
  0
LINE
  5
142
330
1F
100
AcDbEntity
  8
GR1-1
  6
CONTINUOUS
 62
     6
100
AcDbLine
 10
489.502634
 20
509.798506
 30
0.0
 11
475.502634
 21
509.798506
 31
0.0
  0
LINE
  5
143
330
1F
100
AcDbEntity
  8
GR1-1
  6
CONTINUOUS
 62
     6
100
AcDbLine
 10
476.316442
 20
510.608697
 30
0.0
 11
476.316442
 21
508.598506
 31
0.0
  0
LINE
  5
144
330
1F
100
AcDbEntity
  8
GR1-1
  6
CENTER
 62
     6
100
AcDbLine
 10
419.31944
 20
496.098506
 30
0.0
 11
434.016776
 21
496.098506
 31
0.0
  0
LINE
  5
145
330
1F
100
AcDbEntity
  8
GR1-1
  6
CENTER
 62
     6
100
AcDbLine
 10
428.004442
 20
502.641776
 30
0.0
 11
428.004442
 21
487.637534
 31
0.0
  0
LINE
  5
146
330
1F
100
AcDbEntity
  8
GR1-1
  6
CENTER
 62
     6
100
AcDbLine
 10
435.107994
 20
494.598506
 30
0.0
 11
420.547059
 21
494.598506
 31
0.0
  0
LINE
  5
147
330
1F
100
AcDbEntity
  8
GR1-1
  6
CENTER
 62
     6
100
AcDbLine
 10
426.504442
 20
488.694651
 30
0.0
 11
426.504442
 21
502.709977
 31
0.0
  0
LINE
  5
148
330
1F
100
AcDbEntity
  8
GR1-1
  6
CENTER
 62
     6
100
AcDbLine
 10
545.689445
 20
433.098506
 30
0.0
 11
530.992108
 21
433.098506
 31
0.0
  0
LINE
  5
149
330
1F
100
AcDbEntity
  8
GR1-1
  6
CENTER
 62
     6
100
AcDbLine
 10
537.004442
 20
426.555236
 30
0.0
 11
537.004442
 21
441.559478
 31
0.0
  0
LINE
  5
14A
330
1F
100
AcDbEntity
  8
GR1-1
  6
CENTER
 62
     6
100
AcDbLine
 10
529.900891
 20
434.598506
 30
0.0
 11
544.461825
 21
434.598506
 31
0.0
  0
LINE
  5
14B
330
1F
100
AcDbEntity
  8
GR1-1
  6
CENTER
 62
     6
100
AcDbLine
 10
538.504442
 20
440.502361
 30
0.0
 11
538.504442
 21
426.487035
 31
0.0
  0
LINE
  5
14C
330
1F
100
AcDbEntity
  8
GR1-1
  6
CENTER
 62
     6
100
AcDbLine
 10
419.31944
 20
433.098506
 30
0.0
 11
434.016776
 21
433.098506
 31
0.0
  0
LINE
  5
14D
330
1F
100
AcDbEntity
  8
GR1-1
  6
CENTER
 62
     6
100
AcDbLine
 10
428.004442
 20
426.555236
 30
0.0
 11
428.004442
 21
441.559478
 31
0.0
  0
LINE
  5
14E
330
1F
100
AcDbEntity
  8
GR1-1
  6
CENTER
 62
     6
100
AcDbLine
 10
435.107994
 20
434.598506
 30
0.0
 11
420.547059
 21
434.598506
 31
0.0
  0
LINE
  5
14F
330
1F
100
AcDbEntity
  8
GR1-1
  6
CENTER
 62
     6
100
AcDbLine
 10
426.504442
 20
440.502361
 30
0.0
 11
426.504442
 21
426.487035
 31
0.0
  0
LINE
  5
150
330
1F
100
AcDbEntity
  8
}}ﾊﾊGG血CCТ
  6
CENTER
 62
     6
100
AcDbLine
 10
538.504442
 20
335.423563
 30
0.0
 11
538.504442
 21
322.525199
 31
0.0
  0
LINE
  5
151
330
1F
100
AcDbEntity
  8
}}ﾊﾊGG血CCТ
  6
CENTER
 62
     6
100
AcDbLine
 10
537.004442
 20
335.423563
 30
0.0
 11
537.004442
 21
322.525199
 31
0.0
  0
LINE
  5
152
330
1F
100
AcDbEntity
  8
}}ﾊﾊGG血CCТ
  6
CENTER
 62
     6
100
AcDbLine
 10
426.504442
 20
335.423563
 30
0.0
 11
426.504442
 21
322.525199
 31
0.0
  0
LINE
  5
153
330
1F
100
AcDbEntity
  8
}}ﾊﾊGG血CCТ
  6
CENTER
 62
     6
100
AcDbLine
 10
428.004442
 20
335.423563
 30
0.0
 11
428.004442
 21
322.525199
 31
0.0
  0
LINE
  5
154
330
1F
100
AcDbEntity
  8
GR1-1
  6
CENTER
 62
     6
100
AcDbLine
 10
275.811828
 20
324.368417
 30
0.0
 11
275.811828
 21
334.343988
 31
0.0
  0
LINE
  5
155
330
1F
100
AcDbEntity
  8
GR1-1
  6
CENTER
 62
     6
100
AcDbLine
 10
277.311828
 20
324.368417
 30
0.0
 11
277.311828
 21
334.343988
 31
0.0
  0
LINE
  5
156
330
1F
100
AcDbEntity
  8
GR1-1
  6
CENTER
 62
     6
100
AcDbLine
 10
215.811828
 20
324.368417
 30
0.0
 11
215.811828
 21
334.343988
 31
0.0
  0
LINE
  5
157
330
1F
100
AcDbEntity
  8
GR1-1
  6
CENTER
 62
     6
100
AcDbLine
 10
214.311828
 20
324.368417
 30
0.0
 11
214.311828
 21
334.343988
 31
0.0
  0
LINE
  5
158
330
1F
100
AcDbEntity
  8
LAYERGROUP-1
  6
CENTER
 62
     6
100
AcDbLine
 10
590.268375
 20
180.62465
 30
0.0
 11
374.740509
 21
180.62465
 31
0.0
  0
ARC
  5
15A
330
1F
100
AcDbEntity
  8
1-1
  6
CONTINUOUS
 62
     3
100
AcDbCircle
 10
391.730898
 20
455.824168
 30
0.0
 40
8.0
100
AcDbArc
 50
195.91423
 51
240.0
  0
LINE
  5
15B
330
1F
100
AcDbEntity
  8
1-1
  6
CONTINUOUS
 62
     3
100
AcDbLine
 10
387.730898
 20
448.895965
 30
0.0
 11
399.504442
 21
442.098506
 31
0.0
  0
ARC
  5
15C
330
1F
100
AcDbEntity
  8
1-1
  6
CONTINUOUS
 62
     3
100
AcDbCircle
 10
422.504442
 20
464.598506
 30
0.0
 40
40.0
100
AcDbArc
 50
164.08577
 51
195.91423
  0
LINE
  5
15D
330
1F
100
AcDbEntity
  8
LAYERGROUP-1
  6
CONTINUOUS
 62
     3
100
AcDbLine
 10
399.504442
 20
442.098506
 30
0.0
 11
405.504442
 21
442.098506
 31
0.0
  0
LINE
  5
15E
330
1F
100
AcDbEntity
  8
GR1-1
  6
CONTINUOUS
 62
     6
100
AcDbLine
 10
405.504442
 20
452.098506
 30
0.0
 11
384.65139
 21
452.098506
 31
0.0
  0
ARC
  5
15F
330
1F
100
AcDbEntity
  8
1-1
  6
CONTINUOUS
 62
     3
100
AcDbCircle
 10
391.730898
 20
473.372844
 30
0.0
 40
8.0
100
AcDbArc
 50
120.0
 51
164.08577
  0
LINE
  5
160
330
1F
100
AcDbEntity
  8
1-1
  6
CONTINUOUS
 62
     3
100
AcDbLine
 10
387.730898
 20
480.301047
 30
0.0
 11
399.504442
 21
487.098506
 31
0.0
  0
LINE
  5
161
330
1F
100
AcDbEntity
  8
LAYERGROUP-1
  6
CONTINUOUS
 62
     3
100
AcDbLine
 10
399.504442
 20
487.098506
 30
0.0
 11
405.504442
 21
487.098506
 31
0.0
  0
LINE
  5
162
330
1F
100
AcDbEntity
  8
GR1-1
  6
CONTINUOUS
 62
     6
100
AcDbLine
 10
405.504442
 20
477.098506
 30
0.0
 11
384.65139
 21
477.098506
 31
0.0
  0
LINE
  5
163
330
1F
100
AcDbEntity
  8
GR1-1
  6
CONTINUOUS
 62
     6
100
AcDbLine
 10
462.654442
 20
434.598506
 30
0.0
 11
462.654442
 21
494.598506
 31
0.0
  0
ARC
  5
164
330
1F
100
AcDbEntity
  8
1-1
  6
CONTINUOUS
 62
     3
100
AcDbCircle
 10
573.277986
 20
455.824168
 30
0.0
 40
8.0
100
AcDbArc
 50
300.0
 51
344.08577
  0
LINE
  5
165
330
1F
100
AcDbEntity
  8
1-1
  6
CONTINUOUS
 62
     3
100
AcDbLine
 10
577.277986
 20
448.895965
 30
0.0
 11
565.504442
 21
442.098506
 31
0.0
  0
ARC
  5
166
330
1F
100
AcDbEntity
  8
1-1
  6
CONTINUOUS
 62
     3
100
AcDbCircle
 10
542.504442
 20
464.598506
 30
0.0
 40
40.0
100
AcDbArc
 50
-15.91423
 51
15.91423
  0
LINE
  5
167
330
1F
100
AcDbEntity
  8
LAYERGROUP-1
  6
CONTINUOUS
 62
     3
100
AcDbLine
 10
565.504442
 20
442.098506
 30
0.0
 11
559.504442
 21
442.098506
 31
0.0
  0
LINE
  5
168
330
1F
100
AcDbEntity
  8
GR1-1
  6
CONTINUOUS
 62
     6
100
AcDbLine
 10
559.504442
 20
452.098506
 30
0.0
 11
580.357495
 21
452.098506
 31
0.0
  0
ARC
  5
169
330
1F
100
AcDbEntity
  8
1-1
  6
CONTINUOUS
 62
     3
100
AcDbCircle
 10
573.277986
 20
473.372844
 30
0.0
 40
8.0
100
AcDbArc
 50
15.91423
 51
60.0
  0
LINE
  5
16A
330
1F
100
AcDbEntity
  8
1-1
  6
CONTINUOUS
 62
     3
100
AcDbLine
 10
577.277986
 20
480.301047
 30
0.0
 11
565.504442
 21
487.098506
 31
0.0
  0
LINE
  5
16B
330
1F
100
AcDbEntity
  8
LAYERGROUP-1
  6
CONTINUOUS
 62
     3
100
AcDbLine
 10
565.504442
 20
487.098506
 30
0.0
 11
559.504442
 21
487.098506
 31
0.0
  0
LINE
  5
16C
330
1F
100
AcDbEntity
  8
GR1-1
  6
CONTINUOUS
 62
     6
100
AcDbLine
 10
559.504442
 20
477.098506
 30
0.0
 11
580.357495
 21
477.098506
 31
0.0
  0
TEXT
  5
16D
330
1F
100
AcDbEntity
  8
GR1-1
  6
CONTINUOUS
 62
     7
100
AcDbText
 10
478.004456
 20
383.989136
 30
0.0
 40
4.0
  1
154
 41
0.814655
  7
FX_VECTOR
 72
     5
 11
487.004456
 21
383.989136
 31
0.0
100
AcDbText
  0
LINE
  5
16E
330
1F
100
AcDbEntity
  8
GR1-1
  6
CONTINUOUS
 62
     7
100
AcDbLine
 10
405.504442
 20
427.098506
 30
0.0
 11
405.504442
 21
381.989141
 31
0.0
  0
LINE
  5
16F
330
1F
100
AcDbEntity
  8
GR1-1
  6
CONTINUOUS
 62
     7
100
AcDbLine
 10
559.504442
 20
427.098506
 30
0.0
 11
559.504442
 21
381.989141
 31
0.0
  0
LINE
  5
170
330
1F
100
AcDbEntity
  8
GR1-1
  6
CONTINUOUS
 62
     7
100
AcDbLine
 10
405.504442
 20
382.989141
 30
0.0
 11
559.504442
 21
382.989141
 31
0.0
  0
INSERT
  5
171
330
1F
100
AcDbEntity
  8
GR1-1
  6
CONTINUOUS
 62
     7
100
AcDbBlockReference
  2
FXTIP_ARROW_S
 10
405.504442
 20
382.989141
 30
0.0
 41
4.0
 42
4.0
 50
180.0
  0
INSERT
  5
172
330
1F
100
AcDbEntity
  8
GR1-1
  6
CONTINUOUS
 62
     7
100
AcDbBlockReference
  2
FXTIP_ARROW_E
 10
559.504442
 20
382.989141
 30
0.0
 41
4.0
 42
4.0
 50
360.0
  0
TEXT
  5
173
330
1F
100
AcDbEntity
  8
GR1-1
  6
CONTINUOUS
 62
     7
100
AcDbText
 10
478.004456
 20
393.989136
 30
0.0
 40
4.0
  1
112
 41
0.828947
  7
FX_VECTOR
 72
     5
 11
487.004456
 21
393.989136
 31
0.0
100
AcDbText
  0
LINE
  5
174
330
1F
100
AcDbEntity
  8
GR1-1
  6
CONTINUOUS
 62
     7
100
AcDbLine
 10
426.504442
 20
425.098506
 30
0.0
 11
426.504442
 21
391.989141
 31
0.0
  0
LINE
  5
175
330
1F
100
AcDbEntity
  8
GR1-1
  6
CONTINUOUS
 62
     7
100
AcDbLine
 10
538.504442
 20
425.098506
 30
0.0
 11
538.504442
 21
391.989141
 31
0.0
  0
LINE
  5
176
330
1F
100
AcDbEntity
  8
GR1-1
  6
CONTINUOUS
 62
     7
100
AcDbLine
 10
426.504442
 20
392.989141
 30
0.0
 11
538.504442
 21
392.989141
 31
0.0
  0
INSERT
  5
177
330
1F
100
AcDbEntity
  8
GR1-1
  6
CONTINUOUS
 62
     7
100
AcDbBlockReference
  2
FXTIP_ARROW_S
 10
426.504442
 20
392.989141
 30
0.0
 41
4.0
 42
4.0
 50
180.0
  0
INSERT
  5
178
330
1F
100
AcDbEntity
  8
GR1-1
  6
CONTINUOUS
 62
     7
100
AcDbBlockReference
  2
FXTIP_ARROW_E
 10
538.504442
 20
392.989141
 30
0.0
 41
4.0
 42
4.0
 50
360.0
  0
TEXT
  5
179
330
1F
100
AcDbEntity
  8
GR1-1
  6
CONTINUOUS
 62
     7
100
AcDbText
 10
478.004456
 20
403.989136
 30
0.0
 40
4.0
  1
109
 41
0.84375
  7
FX_VECTOR
 72
     5
 11
487.004456
 21
403.989136
 31
0.0
100
AcDbText
  0
LINE
  5
17A
330
1F
100
AcDbEntity
  8
GR1-1
  6
CONTINUOUS
 62
     7
100
AcDbLine
 10
537.004442
 20
426.598506
 30
0.0
 11
537.004442
 21
401.989141
 31
0.0
  0
LINE
  5
17B
330
1F
100
AcDbEntity
  8
GR1-1
  6
CONTINUOUS
 62
     7
100
AcDbLine
 10
428.004442
 20
426.598506
 30
0.0
 11
428.004442
 21
401.989141
 31
0.0
  0
LINE
  5
17C
330
1F
100
AcDbEntity
  8
GR1-1
  6
CONTINUOUS
 62
     7
100
AcDbLine
 10
537.004442
 20
402.989141
 30
0.0
 11
428.004442
 21
402.989141
 31
0.0
  0
INSERT
  5
17D
330
1F
100
AcDbEntity
  8
GR1-1
  6
CONTINUOUS
 62
     7
100
AcDbBlockReference
  2
FXTIP_ARROW_S
 10
537.004442
 20
402.989141
 30
0.0
 41
4.0
 42
4.0
  0
INSERT
  5
17E
330
1F
100
AcDbEntity
  8
GR1-1
  6
CONTINUOUS
 62
     7
100
AcDbBlockReference
  2
FXTIP_ARROW_E
 10
428.004442
 20
402.989141
 30
0.0
 41
4.0
 42
4.0
 50
180.0
  0
TEXT
  5
17F
330
1F
100
AcDbEntity
  8
GR1-1
  6
CONTINUOUS
 62
     7
100
AcDbText
 10
601.628296
 20
201.124649
 30
0.0
 40
4.0
  1
250
 50
90.0
 41
0.828947
  7
FX_VECTOR
 72
     5
 11
601.628296
 21
210.124649
 31
0.0
100
AcDbText
  0
LINE
  5
180
330
1F
100
AcDbEntity
  8
GR1-1
  6
CONTINUOUS
 62
     7
100
AcDbLine
 10
553.504442
 20
330.62465
 30
0.0
 11
603.628281
 21
330.62465
 31
0.0
  0
LINE
  5
181
330
1F
100
AcDbEntity
  8
GR1-1
  6
CONTINUOUS
 62
     7
100
AcDbLine
 10
483.504442
 20
80.62465
 30
0.0
 11
603.628281
 21
80.62465
 31
0.0
  0
LINE
  5
182
330
1F
100
AcDbEntity
  8
GR1-1
  6
CONTINUOUS
 62
     7
100
AcDbLine
 10
602.628281
 20
330.62465
 30
0.0
 11
602.628281
 21
80.62465
 31
0.0
  0
INSERT
  5
183
330
1F
100
AcDbEntity
  8
GR1-1
  6
CONTINUOUS
 62
     7
100
AcDbBlockReference
  2
FXTIP_ARROW_S
 10
602.628281
 20
330.62465
 30
0.0
 41
4.0
 42
4.0
 50
90.0
  0
INSERT
  5
184
330
1F
100
AcDbEntity
  8
GR1-1
  6
CONTINUOUS
 62
     7
100
AcDbBlockReference
  2
FXTIP_ARROW_E
 10
602.628281
 20
80.62465
 30
0.0
 41
4.0
 42
4.0
 50
270.0
  0
TEXT
  5
185
330
1F
100
AcDbEntity
  8
GR1-1
  6
CONTINUOUS
 62
     7
100
AcDbText
 10
387.708129
 20
402.161866
 30
0.0
 40
4.98998
  1
4-11.5
 50
315.0
 41
0.406374
  7
FX_VECTOR
 72
     5
 11
395.423707
 21
394.446289
 31
0.0
100
AcDbText
  0
LINE
  5
186
330
1F
100
AcDbEntity
  8
GR1-1
  6
CONTINUOUS
 62
     7
100
AcDbLine
 10
429.8632
 20
428.325535
 30
0.0
 11
394.025789
 21
392.488124
 31
0.0
  0
LINE
  5
187
330
1F
100
AcDbEntity
  8
GR1-1
  6
CONTINUOUS
 62
     7
100
AcDbLine
 10
421.731472
 20
436.457263
 30
0.0
 11
385.894061
 21
400.619852
 31
0.0
  0
LINE
  5
188
330
1F
100
AcDbEntity
  8
GR1-1
  6
CONTINUOUS
 62
     7
100
AcDbLine
 10
394.732895
 20
393.195231
 30
0.0
 11
386.601167
 21
401.326959
 31
0.0
  0
INSERT
  5
189
330
1F
100
AcDbEntity
  8
GR1-1
  6
CONTINUOUS
 62
     7
100
AcDbBlockReference
  2
FXTIP_ARROW_S
 10
394.732895
 20
393.195231
 30
0.0
 41
4.0
 42
4.0
 50
315.0
  0
INSERT
  5
18A
330
1F
100
AcDbEntity
  8
GR1-1
  6
CONTINUOUS
 62
     7
100
AcDbBlockReference
  2
FXTIP_ARROW_E
 10
386.601167
 20
401.326959
 30
0.0
 41
4.0
 42
4.0
 50
135.0
  0
TEXT
  5
18B
330
1F
100
AcDbEntity
  8
GR1-1
  6
CONTINUOUS
 62
     7
100
AcDbText
 10
591.41333
 20
251.124649
 30
0.0
 40
4.0
  1
150
 50
90.0
 41
0.828947
  7
FX_VECTOR
 72
     5
 11
591.41333
 21
260.124649
 31
0.0
100
AcDbText
  0
LINE
  5
18C
330
1F
100
AcDbEntity
  8
GR1-1
  6
CONTINUOUS
 62
     7
100
AcDbLine
 10
586.305485
 20
180.62465
 30
0.0
 11
593.41336
 21
180.62465
 31
0.0
  0
LINE
  5
18D
330
1F
100
AcDbEntity
  8
GR1-1
  6
CONTINUOUS
 62
     7
100
AcDbLine
 10
592.41336
 20
180.62465
 30
0.0
 11
592.41336
 21
330.62465
 31
0.0
  0
INSERT
  5
18E
330
1F
100
AcDbEntity
  8
GR1-1
  6
CONTINUOUS
 62
     7
100
AcDbBlockReference
  2
FXTIP_ARROW_S
 10
592.41336
 20
180.62465
 30
0.0
 41
4.0
 42
4.0
 50
270.0
  0
INSERT
  5
18F
330
1F
100
AcDbEntity
  8
GR1-1
  6
CONTINUOUS
 62
     7
100
AcDbBlockReference
  2
FXTIP_ARROW_E
 10
592.41336
 20
330.62465
 30
0.0
 41
4.0
 42
4.0
 50
90.0
  0
TEXT
  5
190
330
1F
100
AcDbEntity
  8
GR1-1
  6
CONTINUOUS
 62
     7
100
AcDbText
 10
242.811829
 20
61.582092
 30
0.0
 40
4.0
  1
55
 41
0.851351
  7
FX_VECTOR
 72
     5
 11
248.811829
 21
61.582092
 31
0.0
100
AcDbText
  0
LINE
  5
191
330
1F
100
AcDbEntity
  8
GR1-1
  6
CONTINUOUS
 62
     7
100
AcDbLine
 10
218.311828
 20
166.42465
 30
0.0
 11
218.311828
 21
59.582092
 31
0.0
  0
LINE
  5
192
330
1F
100
AcDbEntity
  8
GR1-1
  6
CONTINUOUS
 62
     7
100
AcDbLine
 10
273.311828
 20
166.82566
 30
0.0
 11
273.311828
 21
59.582092
 31
0.0
  0
LINE
  5
193
330
1F
100
AcDbEntity
  8
GR1-1
  6
CONTINUOUS
 62
     7
100
AcDbLine
 10
218.311828
 20
60.582092
 30
0.0
 11
273.311828
 21
60.582092
 31
0.0
  0
INSERT
  5
194
330
1F
100
AcDbEntity
  8
GR1-1
  6
CONTINUOUS
 62
     7
100
AcDbBlockReference
  2
FXTIP_ARROW_S
 10
218.311828
 20
60.582092
 30
0.0
 41
4.0
 42
4.0
 50
180.0
  0
INSERT
  5
195
330
1F
100
AcDbEntity
  8
GR1-1
  6
CONTINUOUS
 62
     7
100
AcDbBlockReference
  2
FXTIP_ARROW_E
 10
273.311828
 20
60.582092
 30
0.0
 41
4.0
 42
4.0
 50
360.0
  0
TEXT
  5
196
330
1F
100
AcDbEntity
  8
GR1-1
  6
CONTINUOUS
 62
     7
100
AcDbText
 10
242.811829
 20
71.582092
 30
0.0
 40
4.0
  1
45
 41
0.851351
  7
FX_VECTOR
 72
     5
 11
248.811829
 21
71.582092
 31
0.0
100
AcDbText
  0
LINE
  5
197
330
1F
100
AcDbEntity
  8
GR1-1
  6
CONTINUOUS
 62
     7
100
AcDbLine
 10
223.311828
 20
94.62465
 30
0.0
 11
223.311828
 21
69.582092
 31
0.0
  0
LINE
  5
198
330
1F
100
AcDbEntity
  8
GR1-1
  6
CONTINUOUS
 62
     7
100
AcDbLine
 10
268.311828
 20
94.62465
 30
0.0
 11
268.311828
 21
69.582092
 31
0.0
  0
LINE
  5
199
330
1F
100
AcDbEntity
  8
GR1-1
  6
CONTINUOUS
 62
     7
100
AcDbLine
 10
223.311828
 20
70.582092
 30
0.0
 11
268.311828
 21
70.582092
 31
0.0
  0
INSERT
  5
19A
330
1F
100
AcDbEntity
  8
GR1-1
  6
CONTINUOUS
 62
     7
100
AcDbBlockReference
  2
FXTIP_ARROW_S
 10
223.311828
 20
70.582092
 30
0.0
 41
4.0
 42
4.0
 50
180.0
  0
INSERT
  5
19B
330
1F
100
AcDbEntity
  8
GR1-1
  6
CONTINUOUS
 62
     7
100
AcDbBlockReference
  2
FXTIP_ARROW_E
 10
268.311828
 20
70.582092
 30
0.0
 41
4.0
 42
4.0
 50
360.0
  0
TEXT
  5
19C
330
1F
100
AcDbEntity
  8
LAYERGROUP-1
  6
CONTINUOUS
 62
     7
100
AcDbText
 10
182.82222
 20
174.624649
 30
0.0
 40
4.0
  1
%%c200
 50
90.0
 41
0.828947
  7
FX_VECTOR
 72
     5
 11
182.82222
 21
186.624649
 31
0.0
100
AcDbText
  0
LINE
  5
19D
330
1F
100
AcDbEntity
  8
LAYERGROUP-1
  6
CONTINUOUS
 62
     7
100
AcDbLine
 10
183.822222
 20
80.62465
 30
0.0
 11
183.822222
 21
280.62465
 31
0.0
  0
INSERT
  5
19E
330
1F
100
AcDbEntity
  8
LAYERGROUP-1
  6
CONTINUOUS
 62
     7
100
AcDbBlockReference
  2
FXTIP_ARROW_S
 10
183.822222
 20
80.62465
 30
0.0
 41
4.0
 42
4.0
 50
270.0
  0
INSERT
  5
19F
330
1F
100
AcDbEntity
  8
LAYERGROUP-1
  6
CONTINUOUS
 62
     7
100
AcDbBlockReference
  2
FXTIP_ARROW_E
 10
183.822222
 20
280.62465
 30
0.0
 41
4.0
 42
4.0
 50
90.0
  0
LINE
  5
1A0
330
1F
100
AcDbEntity
  8
LAYERGROUP-1
  6
CONTINUOUS
 62
     7
100
AcDbLine
 10
244.811828
 20
80.62465
 30
0.0
 11
182.822222
 21
80.62465
 31
0.0
  0
LINE
  5
1A1
330
1F
100
AcDbEntity
  8
LAYERGROUP-1
  6
CONTINUOUS
 62
     7
100
AcDbLine
 10
244.811828
 20
280.62465
 30
0.0
 11
182.822222
 21
280.62465
 31
0.0
  0
TEXT
  5
1A2
330
1F
100
AcDbEntity
  8
}}ﾊﾊGG血CCТ
  6
CONTINUOUS
 62
     7
100
AcDbText
 10
600.5
 20
461.598511
 30
0.0
 40
4.0
  1
60
 50
90.0
 41
0.851351
  7
FX_VECTOR
 72
     5
 11
600.5
 21
467.598511
 31
0.0
100
AcDbText
  0
LINE
  5
1A3
330
1F
100
AcDbEntity
  8
}}ﾊﾊGG血CCТ
  6
CONTINUOUS
 62
     7
100
AcDbLine
 10
601.499999
 20
434.598506
 30
0.0
 11
601.499999
 21
494.598506
 31
0.0
  0
INSERT
  5
1A4
330
1F
100
AcDbEntity
  8
}}ﾊﾊGG血CCТ
  6
CONTINUOUS
 62
     7
100
AcDbBlockReference
  2
FXTIP_ARROW_S
 10
601.499999
 20
434.598506
 30
0.0
 41
4.0
 42
4.0
 50
270.0
  0
INSERT
  5
1A5
330
1F
100
AcDbEntity
  8
}}ﾊﾊGG血CCТ
  6
CONTINUOUS
 62
     7
100
AcDbBlockReference
  2
FXTIP_ARROW_E
 10
601.499999
 20
494.598506
 30
0.0
 41
4.0
 42
4.0
 50
90.0
  0
LINE
  5
1A6
330
1F
100
AcDbEntity
  8
}}ﾊﾊGG血CCТ
  6
CONTINUOUS
 62
     7
100
AcDbLine
 10
545.004442
 20
434.598506
 30
0.0
 11
602.499999
 21
434.598506
 31
0.0
  0
LINE
  5
1A7
330
1F
100
AcDbEntity
  8
}}ﾊﾊGG血CCТ
  6
CONTINUOUS
 62
     7
100
AcDbLine
 10
545.004442
 20
494.598506
 30
0.0
 11
602.499999
 21
494.598506
 31
0.0
  0
TEXT
  5
1A8
330
1F
100
AcDbEntity
  8
}}ﾊﾊGG血CCТ
  6
CONTINUOUS
 62
     7
100
AcDbText
 10
610.884949
 20
461.598511
 30
0.0
 40
4.0
  1
63
 50
90.0
 41
0.851351
  7
FX_VECTOR
 72
     5
 11
610.884949
 21
467.598511
 31
0.0
100
AcDbText
  0
LINE
  5
1A9
330
1F
100
AcDbEntity
  8
}}ﾊﾊGG血CCТ
  6
CONTINUOUS
 62
     7
100
AcDbLine
 10
611.884965
 20
433.098506
 30
0.0
 11
611.884965
 21
496.098506
 31
0.0
  0
INSERT
  5
1AA
330
1F
100
AcDbEntity
  8
}}ﾊﾊGG血CCТ
  6
CONTINUOUS
 62
     7
100
AcDbBlockReference
  2
FXTIP_ARROW_S
 10
611.884965
 20
433.098506
 30
0.0
 41
4.0
 42
4.0
 50
270.0
  0
INSERT
  5
1AB
330
1F
100
AcDbEntity
  8
}}ﾊﾊGG血CCТ
  6
CONTINUOUS
 62
     7
100
AcDbBlockReference
  2
FXTIP_ARROW_E
 10
611.884965
 20
496.098506
 30
0.0
 41
4.0
 42
4.0
 50
90.0
  0
LINE
  5
1AC
330
1F
100
AcDbEntity
  8
}}ﾊﾊGG血CCТ
  6
CONTINUOUS
 62
     7
100
AcDbLine
 10
546.504442
 20
433.098506
 30
0.0
 11
612.884965
 21
433.098506
 31
0.0
  0
LINE
  5
1AD
330
1F
100
AcDbEntity
  8
}}ﾊﾊGG血CCТ
  6
CONTINUOUS
 62
     7
100
AcDbLine
 10
546.504442
 20
496.098506
 30
0.0
 11
612.884965
 21
496.098506
 31
0.0
  0
TEXT
  5
1AE
330
1F
100
AcDbEntity
  8
}}ﾊﾊGG血CCТ
  6
CONTINUOUS
 62
     7
100
AcDbText
 10
621.300903
 20
460.098511
 30
0.0
 40
4.0
  1
103
 50
90.0
 41
0.828947
  7
FX_VECTOR
 72
     5
 11
621.300903
 21
469.098511
 31
0.0
100
AcDbText
  0
LINE
  5
1AF
330
1F
100
AcDbEntity
  8
}}ﾊﾊGG血CCТ
  6
CONTINUOUS
 62
     7
100
AcDbLine
 10
622.300889
 20
413.098506
 30
0.0
 11
622.300889
 21
516.098506
 31
0.0
  0
INSERT
  5
1B0
330
1F
100
AcDbEntity
  8
}}ﾊﾊGG血CCТ
  6
CONTINUOUS
 62
     7
100
AcDbBlockReference
  2
FXTIP_ARROW_S
 10
622.300889
 20
413.098506
 30
0.0
 41
4.0
 42
4.0
 50
270.0
  0
INSERT
  5
1B1
330
1F
100
AcDbEntity
  8
}}ﾊﾊGG血CCТ
  6
CONTINUOUS
 62
     7
100
AcDbBlockReference
  2
FXTIP_ARROW_E
 10
622.300889
 20
516.098506
 30
0.0
 41
4.0
 42
4.0
 50
90.0
  0
LINE
  5
1B2
330
1F
100
AcDbEntity
  8
}}ﾊﾊGG血CCТ
  6
CONTINUOUS
 62
     7
100
AcDbLine
 10
545.504442
 20
413.098506
 30
0.0
 11
623.300889
 21
413.098506
 31
0.0
  0
LINE
  5
1B3
330
1F
100
AcDbEntity
  8
}}ﾊﾊGG血CCТ
  6
CONTINUOUS
 62
     7
100
AcDbLine
 10
545.504442
 20
516.098506
 30
0.0
 11
623.300889
 21
516.098506
 31
0.0
  0
LINE
  5
1B4
330
1F
100
AcDbEntity
  8
}}ﾊﾊGG血CCТ
  6
CONTINUOUS
 62
     3
100
AcDbLine
 10
471.504442
 20
508.598506
 30
0.0
 11
493.504442
 21
508.598506
 31
0.0
  0
LINE
  5
1B5
330
1F
100
AcDbEntity
  8
}}ﾊﾊGG血CCТ
  6
CONTINUOUS
 62
     3
100
AcDbLine
 10
493.504442
 20
508.598506
 30
0.0
 11
493.504442
 21
500.598506
 31
0.0
  0
LINE
  5
1B6
330
1F
100
AcDbEntity
  8
}}ﾊﾊGG血CCТ
  6
CONTINUOUS
 62
     3
100
AcDbLine
 10
493.504442
 20
500.598506
 30
0.0
 11
471.504442
 21
500.598506
 31
0.0
  0
LINE
  5
1B7
330
1F
100
AcDbEntity
  8
}}ﾊﾊGG血CCТ
  6
CONTINUOUS
 62
     3
100
AcDbLine
 10
471.504442
 20
500.598506
 30
0.0
 11
471.504442
 21
508.598506
 31
0.0
  0
LINE
  5
1B8
330
1F
100
AcDbEntity
  8
}}ﾊﾊGG血CCТ
  6
CONTINUOUS
 62
     3
100
AcDbLine
 10
482.504442
 20
507.616026
 30
0.0
 11
482.504442
 21
500.598506
 31
0.0
  0
ARC
  5
1B9
330
1F
100
AcDbEntity
  8
}}ﾊﾊGG血CCТ
  6
CONTINUOUS
 62
     3
100
AcDbCircle
 10
477.004442
 20
492.712556
 30
0.0
 40
15.88594976734553
100
AcDbArc
 50
69.743842
 51
110.256158
  0
ARC
  5
1BA
330
1F
100
AcDbEntity
  8
}}ﾊﾊGG血CCТ
  6
CONTINUOUS
 62
     3
100
AcDbCircle
 10
488.004442
 20
492.712556
 30
0.0
 40
15.88594976734553
100
AcDbArc
 50
69.743842
 51
110.256158
  0
ARC
  5
1BB
330
1F
100
AcDbEntity
  8
}}ﾊﾊGG血CCТ
  6
CONTINUOUS
 62
     3
100
AcDbCircle
 10
477.004442
 20
516.484456
 30
0.0
 40
15.88594976734553
100
AcDbArc
 50
249.743842
 51
290.256158
  0
ARC
  5
1BC
330
1F
100
AcDbEntity
  8
}}ﾊﾊGG血CCТ
  6
CONTINUOUS
 62
     3
100
AcDbCircle
 10
488.004442
 20
516.484456
 30
0.0
 40
15.88594976734553
100
AcDbArc
 50
249.743842
 51
290.256158
  0
ARC
  5
1BD
330
1F
100
AcDbEntity
  8
LAYERGROUP-1
  6
CONTINUOUS
 62
     6
100
AcDbCircle
 10
482.504442
 20
180.62465
 30
0.0
 40
83.0
100
AcDbArc
 50
-234.000964
 51
54.000964
  0
ARC
  5
1BE
330
1F
100
AcDbEntity
  8
LAYERGROUP-1
  6
CONTINUOUS
 62
     6
100
AcDbCircle
 10
482.504442
 20
180.62465
 30
0.0
 40
73.0
100
AcDbArc
 50
-231.669962
 51
51.669962
  0
ARC
  5
1BF
330
1F
100
AcDbEntity
  8
LAYERGROUP-1
  6
CONTINUOUS
 62
     6
100
AcDbCircle
 10
482.504442
 20
180.62465
 30
0.0
 40
31.5
100
AcDbArc
 50
-202.213141
 51
22.213141
  0
LINE
  5
1C0
330
1F
100
AcDbEntity
  8
LAYERGROUP-1
  6
CONTINUOUS
 62
     6
100
AcDbLine
 10
450.096436
 20
201.670655
 30
0.0
 11
429.437796
 21
215.086533
 31
0.0
  0
LINE
  5
1C1
330
1F
100
AcDbEntity
  8
LAYERGROUP-1
  6
CONTINUOUS
 62
     6
100
AcDbLine
 10
446.140064
 20
182.530426
 30
0.0
 11
419.316437
 21
183.936193
 31
0.0
  0
LINE
  5
1C2
330
1F
100
AcDbEntity
  8
LAYERGROUP-1
  6
CONTINUOUS
 62
     6
100
AcDbLine
 10
454.205229
 20
157.708399
 30
0.0
 11
433.330749
 21
140.804578
 31
0.0
  0
LINE
  5
1C3
330
1F
100
AcDbEntity
  8
LAYERGROUP-1
  6
CONTINUOUS
 62
     6
100
AcDbLine
 10
469.634342
 20
147.096892
 30
0.0
 11
459.82881
 21
121.552609
 31
0.0
  0
LINE
  5
1C4
330
1F
100
AcDbEntity
  8
LAYERGROUP-1
  6
CONTINUOUS
 62
     6
100
AcDbLine
 10
495.374543
 20
147.096892
 30
0.0
 11
505.180074
 21
121.552609
 31
0.0
  0
LINE
  5
1C5
330
1F
100
AcDbEntity
  8
LAYERGROUP-1
  6
CONTINUOUS
 62
     6
100
AcDbLine
 10
510.803655
 20
157.708399
 30
0.0
 11
531.678136
 21
140.804578
 31
0.0
  0
LINE
  5
1C6
330
1F
100
AcDbEntity
  8
LAYERGROUP-1
  6
CONTINUOUS
 62
     6
100
AcDbLine
 10
518.868821
 20
182.530426
 30
0.0
 11
545.692447
 21
183.936193
 31
0.0
  0
LINE
  5
1C7
330
1F
100
AcDbEntity
  8
LAYERGROUP-1
  6
CONTINUOUS
 62
     6
100
AcDbLine
 10
514.912448
 20
201.670655
 30
0.0
 11
535.571088
 21
215.086533
 31
0.0
  0
LINE
  5
1C8
330
1F
100
AcDbEntity
  8
LAYERGROUP-1
  6
DASHED
 62
     6
100
AcDbLine
 10
451.472851
 20
197.795893
 30
0.0
 11
419.942875
 21
218.271699
 31
0.0
  0
ARC
  5
1C9
330
1F
100
AcDbEntity
  8
LAYERGROUP-1
  6
CONTINUOUS
 62
     6
100
AcDbCircle
 10
418.545016
 20
198.313121
 30
0.0
 40
20.0
100
AcDbArc
 50
57.0
 51
85.955024
  0
LINE
  5
1CA
330
1F
100
AcDbEntity
  8
LAYERGROUP-1
  6
DASHED
 62
     6
100
AcDbLine
 10
451.277679
 20
184.764606
 30
0.0
 11
409.778088
 21
186.939507
 31
0.0
  0
ARC
  5
1CB
330
1F
100
AcDbEntity
  8
LAYERGROUP-1
  6
CONTINUOUS
 62
     6
100
AcDbCircle
 10
420.363156
 20
203.908784
 30
0.0
 40
20.0
100
AcDbArc
 50
238.044976
 51
267.0
  0
LINE
  5
1CC
330
1F
100
AcDbEntity
  8
LAYERGROUP-1
  6
DASHED
 62
     6
100
AcDbLine
 10
459.674865
 20
158.920724
 30
0.0
 11
427.379366
 21
132.768344
 31
0.0
  0
LINE
  5
1CD
330
1F
100
AcDbEntity
  8
LAYERGROUP-1
  6
DASHED
 62
     6
100
AcDbLine
 10
468.917509
 20
152.20555
 30
0.0
 11
454.024977
 21
113.409175
 31
0.0
  0
ARC
  5
1CE
330
1F
100
AcDbEntity
  8
LAYERGROUP-1
  6
CONTINUOUS
 62
     6
100
AcDbCircle
 10
445.917156
 20
125.261659
 30
0.0
 40
20.0
100
AcDbArc
 50
129.0
 51
157.955024
  0
ARC
  5
1CF
330
1F
100
AcDbEntity
  8
LAYERGROUP-1
  6
CONTINUOUS
 62
     6
100
AcDbCircle
 10
441.157202
 20
128.719968
 30
0.0
 40
20.0
100
AcDbArc
 50
310.044976
 51
339.0
  0
LINE
  5
1D0
330
1F
100
AcDbEntity
  8
LAYERGROUP-1
  6
DASHED
 62
     6
100
AcDbLine
 10
496.091375
 20
152.20555
 30
0.0
 11
510.983908
 21
113.409175
 31
0.0
  0
LINE
  5
1D1
330
1F
100
AcDbEntity
  8
LAYERGROUP-1
  6
DASHED
 62
     6
100
AcDbLine
 10
505.33402
 20
158.920724
 30
0.0
 11
537.629519
 21
132.768344
 31
0.0
  0
ARC
  5
1D2
330
1F
100
AcDbEntity
  8
LAYERGROUP-1
  6
CONTINUOUS
 62
     6
100
AcDbCircle
 10
519.091728
 20
125.261659
 30
0.0
 40
20.0
100
AcDbArc
 50
22.044976
 51
51.0
  0
ARC
  5
1D3
330
1F
100
AcDbEntity
  8
LAYERGROUP-1
  6
CONTINUOUS
 62
     6
100
AcDbCircle
 10
523.851683
 20
128.719968
 30
0.0
 40
20.0
100
AcDbArc
 50
201.0
 51
229.955024
  0
LINE
  5
1D4
330
1F
100
AcDbEntity
  8
LAYERGROUP-1
  6
DASHED
 62
     6
100
AcDbLine
 10
513.731206
 20
184.764606
 30
0.0
 11
555.230796
 21
186.939507
 31
0.0
  0
LINE
  5
1D5
330
1F
100
AcDbEntity
  8
LAYERGROUP-1
  6
DASHED
 62
     6
100
AcDbLine
 10
513.536034
 20
197.795893
 30
0.0
 11
545.053079
 21
218.263301
 31
0.0
  0
ARC
  5
1D6
330
1F
100
AcDbEntity
  8
LAYERGROUP-1
  6
CONTINUOUS
 62
     6
100
AcDbCircle
 10
546.463869
 20
198.313121
 30
0.0
 40
20.0
100
AcDbArc
 50
94.044976
 51
123.0
  0
ARC
  5
1D7
330
1F
100
AcDbEntity
  8
LAYERGROUP-1
  6
CONTINUOUS
 62
     6
100
AcDbCircle
 10
544.645728
 20
203.908784
 30
0.0
 40
20.0
100
AcDbArc
 50
273.0
 51
301.955024
  0
ARC
  5
1D8
330
1F
100
AcDbEntity
  8
LAYERGROUP-1
  6
CONTINUOUS
 62
     6
100
AcDbCircle
 10
482.504442
 20
180.62465
 30
0.0
 40
34.0
100
AcDbArc
 50
180.982079
 51
215.072557
  0
ARC
  5
1D9
330
1F
100
AcDbEntity
  8
LAYERGROUP-1
  6
CONTINUOUS
 62
     6
100
AcDbCircle
 10
446.009224
 20
180.033852
 30
0.0
 40
2.5
100
AcDbArc
 50
0.927443
 51
87.0
  0
ARC
  5
1DA
330
1F
100
AcDbEntity
  8
LAYERGROUP-1
  6
CONTINUOUS
 62
     6
100
AcDbCircle
 10
452.631928
 20
159.651264
 30
0.0
 40
2.5
100
AcDbArc
 50
-51.0
 51
35.072557
  0
LINE
  5
1DB
330
1F
100
AcDbEntity
  8
LAYERGROUP-1
  6
CONTINUOUS
 62
     6
100
AcDbLine
 10
446.140064
 20
182.530426
 30
0.0
 11
451.277679
 21
184.764606
 31
0.0
  0
LINE
  5
1DC
330
1F
100
AcDbEntity
  8
LAYERGROUP-1
  6
CONTINUOUS
 62
     6
100
AcDbLine
 10
451.277679
 20
184.764606
 30
0.0
 11
448.509437
 21
180.041901
 31
0.0
  0
LINE
  5
1DD
330
1F
100
AcDbEntity
  8
LAYERGROUP-1
  6
CONTINUOUS
 62
     6
100
AcDbLine
 10
454.205229
 20
157.708399
 30
0.0
 11
459.674865
 21
158.920724
 31
0.0
  0
LINE
  5
1DE
330
1F
100
AcDbEntity
  8
LAYERGROUP-1
  6
CONTINUOUS
 62
     6
100
AcDbLine
 10
459.674865
 20
158.920724
 30
0.0
 11
454.677991
 21
161.087797
 31
0.0
  0
ARC
  5
1DF
330
1F
100
AcDbEntity
  8
LAYERGROUP-1
  6
CONTINUOUS
 62
     6
100
AcDbCircle
 10
482.504442
 20
180.62465
 30
0.0
 40
34.0
100
AcDbArc
 50
252.982079
 51
287.017921
  0
ARC
  5
1E0
330
1F
100
AcDbEntity
  8
LAYERGROUP-1
  6
CONTINUOUS
 62
     6
100
AcDbCircle
 10
482.504442
 20
180.62465
 30
0.0
 40
34.0
100
AcDbArc
 50
324.982079
 51
359.017921
  0
ARC
  5
1E1
330
1F
100
AcDbEntity
  8
LAYERGROUP-1
  6
CONTINUOUS
 62
     6
100
AcDbCircle
 10
493.220203
 20
145.733068
 30
0.0
 40
2.5
100
AcDbArc
 50
21.0
 51
107.072557
  0
ARC
  5
1E2
330
1F
100
AcDbEntity
  8
LAYERGROUP-1
  6
CONTINUOUS
 62
     6
100
AcDbCircle
 10
471.788681
 20
145.733068
 30
0.0
 40
2.5
100
AcDbArc
 50
72.927443
 51
159.0
  0
ARC
  5
1E3
330
1F
100
AcDbEntity
  8
LAYERGROUP-1
  6
CONTINUOUS
 62
     6
100
AcDbCircle
 10
512.376956
 20
159.651264
 30
0.0
 40
2.5
100
AcDbArc
 50
144.927443
 51
231.0
  0
ARC
  5
1E4
330
1F
100
AcDbEntity
  8
LAYERGROUP-1
  6
CONTINUOUS
 62
     6
100
AcDbCircle
 10
518.999661
 20
180.033852
 30
0.0
 40
2.5
100
AcDbArc
 50
93.0
 51
179.072557
  0
LINE
  5
1E5
330
1F
100
AcDbEntity
  8
LAYERGROUP-1
  6
CONTINUOUS
 62
     6
100
AcDbLine
 10
518.868821
 20
182.530426
 30
0.0
 11
513.731206
 21
184.764606
 31
0.0
  0
LINE
  5
1E6
330
1F
100
AcDbEntity
  8
LAYERGROUP-1
  6
CONTINUOUS
 62
     6
100
AcDbLine
 10
513.731206
 20
184.764606
 30
0.0
 11
516.499448
 21
180.041901
 31
0.0
  0
LINE
  5
1E7
330
1F
100
AcDbEntity
  8
LAYERGROUP-1
  6
CONTINUOUS
 62
     6
100
AcDbLine
 10
510.349511
 20
161.11434
 30
0.0
 11
505.33402
 21
158.920724
 31
0.0
  0
LINE
  5
1E8
330
1F
100
AcDbEntity
  8
LAYERGROUP-1
  6
CONTINUOUS
 62
     6
100
AcDbLine
 10
505.33402
 20
158.920724
 30
0.0
 11
510.803655
 21
157.708399
 31
0.0
  0
ARC
  5
1E9
330
1F
100
AcDbEntity
  8
LAYERGROUP-1
  6
CONTINUOUS
 62
     6
100
AcDbCircle
 10
482.504442
 20
180.62465
 30
0.0
 40
66.0
100
AcDbArc
 50
293.170814
 51
318.829186
  0
ARC
  5
1EA
330
1F
100
AcDbEntity
  8
LAYERGROUP-1
  6
CONTINUOUS
 62
     6
100
AcDbCircle
 10
482.504442
 20
180.62465
 30
0.0
 40
66.0
100
AcDbArc
 50
221.170814
 51
246.829186
  0
ARC
  5
1EB
330
1F
100
AcDbEntity
  8
LAYERGROUP-1
  6
CONTINUOUS
 62
     6
100
AcDbCircle
 10
482.504442
 20
180.62465
 30
0.0
 40
66.0
100
AcDbArc
 50
149.170814
 51
174.829186
  0
ARC
  5
1EC
330
1F
100
AcDbEntity
  8
LAYERGROUP-1
  6
CONTINUOUS
 62
     6
100
AcDbCircle
 10
482.504442
 20
180.62465
 30
0.0
 40
66.0
100
AcDbArc
 50
5.170814
 51
30.829186
  0
LINE
  5
1ED
330
1F
100
AcDbEntity
  8
LAYERGROUP-1
  6
CONTINUOUS
 62
     6
100
AcDbLine
 10
469.45473
 20
146.628988
 30
0.0
 11
468.917509
 21
152.20555
 31
0.0
  0
LINE
  5
1EE
330
1F
100
AcDbEntity
  8
LAYERGROUP-1
  6
CONTINUOUS
 62
     6
100
AcDbLine
 10
468.917509
 20
152.20555
 30
0.0
 11
472.553635
 21
148.113399
 31
0.0
  0
LINE
  5
1EF
330
1F
100
AcDbEntity
  8
LAYERGROUP-1
  6
CONTINUOUS
 62
     6
100
AcDbLine
 10
492.45525
 20
148.113399
 30
0.0
 11
496.091375
 21
152.20555
 31
0.0
  0
LINE
  5
1F0
330
1F
100
AcDbEntity
  8
LAYERGROUP-1
  6
CONTINUOUS
 62
     6
100
AcDbLine
 10
496.091375
 20
152.20555
 30
0.0
 11
495.554154
 21
146.628988
 31
0.0
  0
ARC
  5
1F1
330
1F
100
AcDbEntity
  8
LAYERGROUP-1
  6
CONTINUOUS
 62
     6
100
AcDbCircle
 10
482.504442
 20
180.62465
 30
0.0
 40
64.56659999999999
100
AcDbArc
 50
248.92333
 51
291.07667
  0
ARC
  5
1F2
330
1F
100
AcDbEntity
  8
LAYERGROUP-1
  6
CONTINUOUS
 62
     6
100
AcDbCircle
 10
482.504442
 20
180.62465
 30
0.0
 40
64.56659999999999
100
AcDbArc
 50
-39.07667
 51
3.07667
  0
ARC
  5
1F3
330
1F
100
AcDbEntity
  8
LAYERGROUP-1
  6
CONTINUOUS
 62
     6
100
AcDbCircle
 10
482.504442
 20
180.62465
 30
0.0
 40
64.56659999999999
100
AcDbArc
 50
32.92333
 51
49.105773
  0
ARC
  5
1F4
330
1F
100
AcDbEntity
  8
LAYERGROUP-1
  6
CONTINUOUS
 62
     6
100
AcDbCircle
 10
482.504442
 20
180.62465
 30
0.0
 40
64.56659999999999
100
AcDbArc
 50
130.894227
 51
147.07667
  0
ARC
  5
1F5
330
1F
100
AcDbEntity
  8
LAYERGROUP-1
  6
CONTINUOUS
 62
     6
100
AcDbCircle
 10
482.504442
 20
180.62465
 30
0.0
 40
64.56659999999999
100
AcDbArc
 50
176.92333
 51
219.07667
  0
ARC
  5
1F6
330
1F
100
AcDbEntity
  8
LAYERGROUP-1
  6
CONTINUOUS
 62
     3
100
AcDbCircle
 10
482.504442
 20
180.62465
 30
0.0
 40
100.0
100
AcDbArc
 50
-236.85577
 51
56.85577
  0
ARC
  5
1F7
330
1F
100
AcDbEntity
  8
LAYERGROUP-1
  6
CONTINUOUS
 62
     3
100
AcDbCircle
 10
482.504442
 20
180.62465
 30
0.0
 40
23.49999999999994
100
AcDbArc
 50
194.372617
 51
345.627383
  0
ARC
  5
1F8
330
1F
100
AcDbEntity
  8
LAYERGROUP-1
  6
DASHED
 62
     6
100
AcDbCircle
 10
482.504442
 20
180.62465
 30
0.0
 40
22.49999999999992
100
AcDbArc
 50
209.105533
 51
330.894467
  0
ARC
  5
1F9
330
1F
100
AcDbEntity
  8
LAYERGROUP-1
  6
CONTINUOUS
 62
     3
100
AcDbCircle
 10
482.504442
 20
180.62465
 30
0.0
 40
79.0
100
AcDbArc
 50
-233.142859
 51
53.142859
  0
TEXT
  5
1FA
330
1F
100
AcDbEntity
  8
GR1-1
  6
CONTINUOUS
 62
     7
100
AcDbText
 10
403.09314
 20
145.088242
 30
0.0
 40
7.0
  1
G
 50
109.0
 41
1.166667
  7
FX_VECTOR
 72
     5
 11
400.814163
 21
151.706872
 31
0.0
100
AcDbText
  0
TEXT
  5
1FB
330
1F
100
AcDbEntity
  8
GR1-1
  6
CONTINUOUS
 62
     7
100
AcDbText
 10
400.009583
 20
152.991379
 30
0.0
 40
7.0
  1
O
 50
103.5
 41
1.105263
  7
FX_VECTOR
 72
     5
 11
398.375465
 21
159.797968
 31
0.0
100
AcDbText
  0
TEXT
  5
1FC
330
1F
100
AcDbEntity
  8
GR1-1
  6
CONTINUOUS
 62
     7
100
AcDbText
 10
397.830017
 20
160.643661
 30
0.0
 40
7.0
  1
L
 50
98.0
 41
1.3125
  7
FX_VECTOR
 72
     5
 11
396.855805
 21
167.575538
 31
0.0
100
AcDbText
  0
TEXT
  5
1FD
330
1F
100
AcDbEntity
  8
GR1-1
  6
CONTINUOUS
 62
     7
100
AcDbText
 10
396.292114
 20
168.944077
 30
0.0
 40
7.0
  1
D
 50
92.5
 41
1.166667
  7
FX_VECTOR
 72
     5
 11
395.986779
 21
175.937414
 31
0.0
100
AcDbText
  0
TEXT
  5
1FE
330
1F
100
AcDbEntity
  8
GR1-1
  6
CONTINUOUS
 62
     7
100
AcDbText
 10
395.624268
 20
185.188644
 30
0.0
 40
7.0
  1
C
 50
81.5
 41
1.166667
  7
FX_VECTOR
 72
     5
 11
396.658933
 21
192.111755
 31
0.0
100
AcDbText
  0
TEXT
  5
1FF
330
1F
100
AcDbEntity
  8
GR1-1
  6
CONTINUOUS
 62
     7
100
AcDbText
 10
396.50238
 20
193.764023
 30
0.0
 40
7.0
  1
A
 50
76.0
 41
1.235294
  7
FX_VECTOR
 72
     5
 11
398.195834
 21
200.556093
 31
0.0
100
AcDbText
  0
TEXT
  5
200
330
1F
100
AcDbEntity
  8
GR1-1
  6
CONTINUOUS
 62
     7
100
AcDbText
 10
398.189697
 20
202.072922
 30
0.0
 40
7.0
  1
S
 50
70.5
 41
1.235294
  7
FX_VECTOR
 72
     5
 11
400.526345
 21
208.671412
 31
0.0
100
AcDbText
  0
TEXT
  5
201
330
1F
100
AcDbEntity
  8
GR1-1
  6
CONTINUOUS
 62
     7
100
AcDbText
 10
400.5849
 20
209.91954
 30
0.0
 40
7.0
  1
T
 50
65.0
 41
1.4
  7
FX_VECTOR
 72
     5
 11
403.543228
 21
216.263695
 31
0.0
100
AcDbText
  0
TEXT
  5
202
330
1F
100
AcDbEntity
  8
GR1-1
  6
CONTINUOUS
 62
     7
100
AcDbText
 10
403.739502
 20
217.571701
 30
0.0
 40
7.0
  1
E
 50
59.5
 41
1.235294
  7
FX_VECTOR
 72
     5
 11
407.29227
 21
223.603105
 31
0.0
100
AcDbText
  0
TEXT
  5
203
330
1F
100
AcDbEntity
  8
GR1-1
  6
CONTINUOUS
 62
     7
100
AcDbText
 10
407.845947
 20
225.291306
 30
0.0
 40
7.0
  1
R
 50
54.0
 41
1.166667
  7
FX_VECTOR
 72
     5
 11
411.960444
 21
230.954425
 31
0.0
100
AcDbText
  0
TEXT
  5
204
330
1F
100
AcDbEntity
  8
GR1-1
  6
CONTINUOUS
 62
     7
100
AcDbText
 10
565.707214
 20
206.046982
 30
0.0
 40
7.0
  1
2
 50
285.0
 41
1.235294
  7
FX_VECTOR
 72
     5
 11
567.518948
 21
199.285501
 31
0.0
100
AcDbText
  0
TEXT
  5
205
330
1F
100
AcDbEntity
  8
GR1-1
  6
CONTINUOUS
 62
     7
100
AcDbText
 10
567.913879
 20
197.18425
 30
0.0
 40
7.0
  1
0
 50
279.0
 41
1.235294
  7
FX_VECTOR
 72
     5
 11
569.008921
 21
190.270431
 31
0.0
100
AcDbText
  0
TEXT
  5
206
330
1F
100
AcDbEntity
  8
GR1-1
  6
CONTINUOUS
 62
     7
100
AcDbText
 10
569.161072
 20
188.345993
 30
0.0
 40
7.0
  1
0
 50
273.0
 41
1.235294
  7
FX_VECTOR
 72
     5
 11
569.527423
 21
181.355586
 31
0.0
100
AcDbText
  0
TEXT
  5
207
330
1F
100
AcDbEntity
  8
GR1-1
  6
CONTINUOUS
 62
     7
100
AcDbText
 10
569.493591
 20
179.251755
 30
0.0
 40
7.0
  1
X
 50
267.0
 41
1.235294
  7
FX_VECTOR
 72
     5
 11
569.12724
 21
172.261348
 31
0.0
100
AcDbText
  0
TEXT
  5
208
330
1F
100
AcDbEntity
  8
GR1-1
  6
CONTINUOUS
 62
     7
100
AcDbText
 10
568.877869
 20
170.202133
 30
0.0
 40
7.0
  1
4
 50
261.0
 41
1.166667
  7
FX_VECTOR
 72
     5
 11
567.782827
 21
163.288315
 31
0.0
100
AcDbText
  0
TEXT
  5
209
330
1F
100
AcDbEntity
  8
GR1-1
  6
CONTINUOUS
 62
     7
100
AcDbText
 10
567.256775
 20
160.976669
 30
0.0
 40
7.0
  1
5
 50
255.0
 41
1.235294
  7
FX_VECTOR
 72
     5
 11
565.445042
 21
154.215189
 31
0.0
100
AcDbText
  0
LINE
  5
20A
330
1F
100
AcDbEntity
  8
GR1-1
  6
CONTINUOUS
 62
     7
100
AcDbLine
 10
406.141997
 20
127.457208
 30
0.0
 11
402.874162
 21
132.489231
 31
0.0
  0
LINE
  5
20B
330
1F
100
AcDbEntity
  8
GR1-1
  6
CONTINUOUS
 62
     7
100
AcDbLine
 10
402.874162
 20
132.489231
 30
0.0
 11
407.906186
 21
135.757066
 31
0.0
  0
LINE
  5
20C
330
1F
100
AcDbEntity
  8
GR1-1
  6
CONTINUOUS
 62
     7
100
AcDbLine
 10
407.906186
 20
135.757066
 30
0.0
 11
411.17402
 21
130.725042
 31
0.0
  0
LINE
  5
20D
330
1F
100
AcDbEntity
  8
GR1-1
  6
CONTINUOUS
 62
     7
100
AcDbLine
 10
411.17402
 20
130.725042
 30
0.0
 11
406.141997
 21
127.457208
 31
0.0
  0
LINE
  5
20E
330
1F
100
AcDbEntity
  8
GR1-1
  6
CONTINUOUS
 62
     7
100
AcDbLine
 10
408.564563
 20
129.235018
 30
0.0
 11
404.651973
 21
130.066665
 31
0.0
  0
LINE
  5
20F
330
1F
100
AcDbEntity
  8
GR1-1
  6
CONTINUOUS
 62
     7
100
AcDbLine
 10
404.651973
 20
130.066665
 30
0.0
 11
405.39541
 21
133.564262
 31
0.0
  0
LINE
  5
210
330
1F
100
AcDbEntity
  8
GR1-1
  6
CONTINUOUS
 62
     7
100
AcDbLine
 10
405.39541
 20
133.564262
 30
0.0
 11
406.165646
 21
132.378203
 31
0.0
  0
LINE
  5
211
330
1F
100
AcDbEntity
  8
GR1-1
  6
CONTINUOUS
 62
     7
100
AcDbLine
 10
406.165646
 20
132.378203
 30
0.0
 11
405.838032
 21
130.836901
 31
0.0
  0
LINE
  5
212
330
1F
100
AcDbEntity
  8
GR1-1
  6
CONTINUOUS
 62
     7
100
AcDbLine
 10
405.838032
 20
130.836901
 30
0.0
 11
407.794327
 21
130.421077
 31
0.0
  0
LINE
  5
213
330
1F
100
AcDbEntity
  8
GR1-1
  6
CONTINUOUS
 62
     7
100
AcDbLine
 10
407.794327
 20
130.421077
 30
0.0
 11
408.21015
 21
132.377373
 31
0.0
  0
LINE
  5
214
330
1F
100
AcDbEntity
  8
GR1-1
  6
CONTINUOUS
 62
     7
100
AcDbLine
 10
408.21015
 20
132.377373
 30
0.0
 11
407.181656
 21
132.595986
 31
0.0
  0
ARC
  5
215
330
1F
100
AcDbEntity
  8
GR1-1
  6
CONTINUOUS
 62
     7
100
AcDbCircle
 10
407.160865
 20
132.498171
 30
0.0
 40
0.1
100
AcDbArc
 50
78.0
 51
213.0
  0
LINE
  5
216
330
1F
100
AcDbEntity
  8
GR1-1
  6
CONTINUOUS
 62
     7
100
AcDbLine
 10
407.076998
 20
132.443707
 30
0.0
 11
407.443426
 21
131.879456
 31
0.0
  0
LINE
  5
217
330
1F
100
AcDbEntity
  8
GR1-1
  6
CONTINUOUS
 62
     7
100
AcDbLine
 10
407.443426
 20
131.879456
 30
0.0
 11
407.024091
 21
131.607137
 31
0.0
  0
LINE
  5
218
330
1F
100
AcDbEntity
  8
GR1-1
  6
CONTINUOUS
 62
     7
100
AcDbLine
 10
407.024091
 20
131.607137
 30
0.0
 11
405.483619
 21
133.979255
 31
0.0
  0
LINE
  5
219
330
1F
100
AcDbEntity
  8
GR1-1
  6
CONTINUOUS
 62
     7
100
AcDbLine
 10
405.483619
 20
133.979255
 30
0.0
 11
407.181357
 21
135.081779
 31
0.0
  0
LINE
  5
21A
330
1F
100
AcDbEntity
  8
GR1-1
  6
CONTINUOUS
 62
     7
100
AcDbLine
 10
407.181357
 20
135.081779
 30
0.0
 11
407.725997
 21
134.243109
 31
0.0
  0
LINE
  5
21B
330
1F
100
AcDbEntity
  8
GR1-1
  6
CONTINUOUS
 62
     7
100
AcDbLine
 10
407.725997
 20
134.243109
 30
0.0
 11
407.069402
 21
133.816711
 31
0.0
  0
ARC
  5
21C
330
1F
100
AcDbEntity
  8
GR1-1
  6
CONTINUOUS
 62
     7
100
AcDbCircle
 10
407.123866
 20
133.732844
 30
0.0
 40
0.1
100
AcDbArc
 50
123.0
 51
258.0
  0
LINE
  5
21D
330
1F
100
AcDbEntity
  8
GR1-1
  6
CONTINUOUS
 62
     7
100
AcDbLine
 10
407.103075
 20
133.635029
 30
0.0
 11
409.39621
 21
133.147609
 31
0.0
  0
LINE
  5
21E
330
1F
100
AcDbEntity
  8
GR1-1
  6
CONTINUOUS
 62
     7
100
AcDbLine
 10
409.39621
 20
133.147609
 30
0.0
 11
408.564563
 21
129.235018
 31
0.0
  0
TEXT
  5
21F
330
1F
100
AcDbEntity
  8
LAYERGROUP-1
  6
CONTINUOUS
 62
     7
100
AcDbText
 10
436.19519
 20
162.591339
 30
0.0
 40
6.855022
  1
２
 50
107.5
 41
1.167945
  7
FX_VECTOR
 72
     5
 11
434.47552
 21
168.045436
 31
0.0
100
AcDbText
  0
TEXT
  5
220
330
1F
100
AcDbEntity
  8
LAYERGROUP-1
  6
CONTINUOUS
 62
     7
100
AcDbText
 10
434.404236
 20
168.478836
 30
0.0
 40
7.194537
  1
０
 50
100.5
 41
1.124146
  7
FX_VECTOR
 72
     5
 11
433.351473
 21
174.159038
 31
0.0
100
AcDbText
  0
TEXT
  5
221
330
1F
100
AcDbEntity
  8
LAYERGROUP-1
  6
CONTINUOUS
 62
     7
100
AcDbText
 10
438.353455
 20
158.553192
 30
0.0
 40
6.374589
  1
-
 50
114.5
 41
0.855818
  7
FX_VECTOR
 72
     5
 11
435.983369
 21
163.753871
 31
0.0
100
AcDbText
  0
TEXT
  5
222
330
1F
100
AcDbEntity
  8
LAYERGROUP-1
  6
CONTINUOUS
 62
     7
100
AcDbText
 10
441.47168
 20
152.334564
 30
0.0
 40
6.531599
  1
W
 50
121.5
 41
0.941319
  7
FX_VECTOR
 72
     5
 11
438.106216
 21
157.826502
 31
0.0
100
AcDbText
  0
TEXT
  5
223
330
1F
100
AcDbEntity
  8
LAYERGROUP-1
  6
CONTINUOUS
 62
     7
100
AcDbText
 10
433.282593
 20
174.431305
 30
0.0
 40
7.194537
  1
０
 50
93.5
 41
1.124146
  7
FX_VECTOR
 72
     5
 11
432.929919
 21
180.197467
 31
0.0
100
AcDbText
  0
ARC
  5
224
330
1F
100
AcDbEntity
  8
1-1
  6
CONTINUOUS
 62
     3
100
AcDbCircle
 10
237.03749
 20
89.851106
 30
0.0
 40
8.0
100
AcDbArc
 50
210.0
 51
254.08577
  0
LINE
  5
225
330
1F
100
AcDbEntity
  8
1-1
  6
CONTINUOUS
 62
     3
100
AcDbLine
 10
230.109287
 20
85.851106
 30
0.0
 11
223.311828
 21
97.62465
 31
0.0
  0
ARC
  5
226
330
1F
100
AcDbEntity
  8
1-1
  6
CONTINUOUS
 62
     3
100
AcDbCircle
 10
245.811828
 20
120.62465
 30
0.0
 40
40.0
100
AcDbArc
 50
254.08577
 51
285.91423
  0
LINE
  5
227
330
1F
100
AcDbEntity
  8
LAYERGROUP-1
  6
CONTINUOUS
 62
     3
100
AcDbLine
 10
218.811828
 20
166.12465
 30
0.0
 11
221.311828
 21
166.12465
 31
0.0
  0
LINE
  5
228
330
1F
100
AcDbEntity
  8
LAYERGROUP-1
  6
CONTINUOUS
 62
     3
100
AcDbLine
 10
218.311828
 20
166.62465
 30
0.0
 11
218.311828
 21
194.62465
 31
0.0
  0
LINE
  5
229
330
1F
100
AcDbEntity
  8
LAYERGROUP-1
  6
CONTINUOUS
 62
     3
100
AcDbLine
 10
218.811828
 20
166.12465
 30
0.0
 11
218.311828
 21
166.62465
 31
0.0
  0
LINE
  5
22A
330
1F
100
AcDbEntity
  8
LAYERGROUP-1
  6
CONTINUOUS
 62
     3
100
AcDbLine
 10
223.311828
 20
147.45161
 30
0.0
 11
222.243601
 21
148.345203
 31
0.0
  0
ARC
  5
22B
330
1F
100
AcDbEntity
  8
LAYERGROUP-1
  6
CONTINUOUS
 62
     3
100
AcDbCircle
 10
223.911828
 20
150.339449
 30
0.0
 40
2.6
100
AcDbArc
 50
180.0
 51
230.086843
  0
LINE
  5
22C
330
1F
100
AcDbEntity
  8
LAYERGROUP-1
  6
CONTINUOUS
 62
     3
100
AcDbLine
 10
221.311828
 20
150.339449
 30
0.0
 11
221.311828
 21
210.90985
 31
0.0
  0
LINE
  5
22D
330
1F
100
AcDbEntity
  8
LAYERGROUP-1
  6
CONTINUOUS
 62
     3
100
AcDbLine
 10
223.311828
 20
97.62465
 30
0.0
 11
223.311828
 21
263.62465
 31
0.0
  0
LINE
  5
22E
330
1F
100
AcDbEntity
  8
GR1-1
  6
CONTINUOUS
 62
     6
100
AcDbLine
 10
233.311828
 20
82.771597
 30
0.0
 11
233.311828
 21
278.477703
 31
0.0
  0
ARC
  5
22F
330
1F
100
AcDbEntity
  8
1-1
  6
CONTINUOUS
 62
     3
100
AcDbCircle
 10
254.586166
 20
89.851106
 30
0.0
 40
8.0
100
AcDbArc
 50
285.91423
 51
330.0
  0
LINE
  5
230
330
1F
100
AcDbEntity
  8
1-1
  6
CONTINUOUS
 62
     3
100
AcDbLine
 10
261.514369
 20
85.851106
 30
0.0
 11
268.311828
 21
97.62465
 31
0.0
  0
LINE
  5
231
330
1F
100
AcDbEntity
  8
LAYERGROUP-1
  6
CONTINUOUS
 62
     3
100
AcDbLine
 10
272.811828
 20
166.12465
 30
0.0
 11
270.311828
 21
166.12465
 31
0.0
  0
LINE
  5
232
330
1F
100
AcDbEntity
  8
LAYERGROUP-1
  6
CONTINUOUS
 62
     3
100
AcDbLine
 10
273.311828
 20
166.62465
 30
0.0
 11
273.311828
 21
194.62465
 31
0.0
  0
LINE
  5
233
330
1F
100
AcDbEntity
  8
LAYERGROUP-1
  6
CONTINUOUS
 62
     3
100
AcDbLine
 10
272.811828
 20
166.12465
 30
0.0
 11
273.311828
 21
166.62465
 31
0.0
  0
LINE
  5
234
330
1F
100
AcDbEntity
  8
LAYERGROUP-1
  6
CONTINUOUS
 62
     3
100
AcDbLine
 10
268.311828
 20
147.45161
 30
0.0
 11
269.380055
 21
148.345203
 31
0.0
  0
ARC
  5
235
330
1F
100
AcDbEntity
  8
LAYERGROUP-1
  6
CONTINUOUS
 62
     3
100
AcDbCircle
 10
267.711828
 20
150.339449
 30
0.0
 40
2.6
100
AcDbArc
 50
309.913157
 51
360.0
  0
LINE
  5
236
330
1F
100
AcDbEntity
  8
LAYERGROUP-1
  6
CONTINUOUS
 62
     3
100
AcDbLine
 10
270.311828
 20
150.339449
 30
0.0
 11
270.311828
 21
210.90985
 31
0.0
  0
LINE
  5
237
330
1F
100
AcDbEntity
  8
LAYERGROUP-1
  6
CONTINUOUS
 62
     3
100
AcDbLine
 10
268.311828
 20
97.62465
 30
0.0
 11
268.311828
 21
263.62465
 31
0.0
  0
LINE
  5
238
330
1F
100
AcDbEntity
  8
GR1-1
  6
CONTINUOUS
 62
     6
100
AcDbLine
 10
258.311828
 20
82.771597
 30
0.0
 11
258.311828
 21
278.477703
 31
0.0
  0
ARC
  5
239
330
1F
100
AcDbEntity
  8
1-1
  6
CONTINUOUS
 62
     3
100
AcDbCircle
 10
237.03749
 20
271.398194
 30
0.0
 40
8.0
100
AcDbArc
 50
105.91423
 51
150.0
  0
LINE
  5
23A
330
1F
100
AcDbEntity
  8
1-1
  6
CONTINUOUS
 62
     3
100
AcDbLine
 10
230.109287
 20
275.398194
 30
0.0
 11
223.311828
 21
263.62465
 31
0.0
  0
ARC
  5
23B
330
1F
100
AcDbEntity
  8
1-1
  6
CONTINUOUS
 62
     3
100
AcDbCircle
 10
245.811828
 20
240.62465
 30
0.0
 40
40.0
100
AcDbArc
 50
74.08577
 51
105.91423
  0
LINE
  5
23C
330
1F
100
AcDbEntity
  8
LAYERGROUP-1
  6
CONTINUOUS
 62
     3
100
AcDbLine
 10
218.811828
 20
195.12465
 30
0.0
 11
221.311828
 21
195.12465
 31
0.0
  0
LINE
  5
23D
330
1F
100
AcDbEntity
  8
LAYERGROUP-1
  6
CONTINUOUS
 62
     3
100
AcDbLine
 10
218.811828
 20
195.12465
 30
0.0
 11
218.311828
 21
194.62465
 31
0.0
  0
LINE
  5
23E
330
1F
100
AcDbEntity
  8
LAYERGROUP-1
  6
CONTINUOUS
 62
     3
100
AcDbLine
 10
223.311828
 20
213.79769
 30
0.0
 11
222.243601
 21
212.904097
 31
0.0
  0
ARC
  5
23F
330
1F
100
AcDbEntity
  8
LAYERGROUP-1
  6
CONTINUOUS
 62
     3
100
AcDbCircle
 10
223.911828
 20
210.90985
 30
0.0
 40
2.6
100
AcDbArc
 50
129.913157
 51
180.0
  0
ARC
  5
240
330
1F
100
AcDbEntity
  8
1-1
  6
CONTINUOUS
 62
     3
100
AcDbCircle
 10
254.586166
 20
271.398194
 30
0.0
 40
8.0
100
AcDbArc
 50
30.0
 51
74.08577
  0
LINE
  5
241
330
1F
100
AcDbEntity
  8
1-1
  6
CONTINUOUS
 62
     3
100
AcDbLine
 10
261.514369
 20
275.398194
 30
0.0
 11
268.311828
 21
263.62465
 31
0.0
  0
LINE
  5
242
330
1F
100
AcDbEntity
  8
LAYERGROUP-1
  6
CONTINUOUS
 62
     3
100
AcDbLine
 10
272.811828
 20
195.12465
 30
0.0
 11
270.311828
 21
195.12465
 31
0.0
  0
LINE
  5
243
330
1F
100
AcDbEntity
  8
LAYERGROUP-1
  6
CONTINUOUS
 62
     3
100
AcDbLine
 10
272.811828
 20
195.12465
 30
0.0
 11
273.311828
 21
194.62465
 31
0.0
  0
LINE
  5
244
330
1F
100
AcDbEntity
  8
LAYERGROUP-1
  6
CONTINUOUS
 62
     3
100
AcDbLine
 10
268.311828
 20
213.79769
 30
0.0
 11
269.380055
 21
212.904097
 31
0.0
  0
ARC
  5
245
330
1F
100
AcDbEntity
  8
LAYERGROUP-1
  6
CONTINUOUS
 62
     3
100
AcDbCircle
 10
267.711828
 20
210.90985
 30
0.0
 40
2.6
100
AcDbArc
 50
0.0
 51
50.086843
  0
LINE
  5
246
330
1F
100
AcDbEntity
  8
GR1-1
  6
CONTINUOUS
 62
     3
100
AcDbLine
 10
218.311828
 20
190.62465
 30
0.0
 11
217.311828
 21
190.62465
 31
0.0
  0
LINE
  5
247
330
1F
100
AcDbEntity
  8
GR1-1
  6
CONTINUOUS
 62
     3
100
AcDbLine
 10
273.311828
 20
190.62465
 30
0.0
 11
274.311828
 21
190.62465
 31
0.0
  0
LINE
  5
248
330
1F
100
AcDbEntity
  8
GR1-1
  6
CONTINUOUS
 62
     3
100
AcDbLine
 10
218.311828
 20
170.62465
 30
0.0
 11
217.311828
 21
170.62465
 31
0.0
  0
LINE
  5
249
330
1F
100
AcDbEntity
  8
GR1-1
  6
CONTINUOUS
 62
     3
100
AcDbLine
 10
273.311828
 20
170.62465
 30
0.0
 11
274.311828
 21
170.62465
 31
0.0
  0
LINE
  5
24A
330
1F
100
AcDbEntity
  8
}}ﾊﾊGG血CCТ
  6
CONTINUOUS
 62
     7
100
AcDbLine
 10
20.0
 20
20.0
 30
0.0
 11
821.0
 21
20.0
 31
0.0
  0
LINE
  5
24B
330
1F
100
AcDbEntity
  8
}}ﾊﾊGG血CCТ
  6
CONTINUOUS
 62
     7
100
AcDbLine
 10
20.0
 20
20.0
 30
0.0
 11
20.0
 21
574.0
 31
0.0
  0
LINE
  5
24C
330
1F
100
AcDbEntity
  8
}}ﾊﾊGG血CCТ
  6
CONTINUOUS
 62
     7
100
AcDbLine
 10
20.0
 20
574.0
 30
0.0
 11
821.0
 21
574.0
 31
0.0
  0
LINE
  5
24D
330
1F
100
AcDbEntity
  8
}}ﾊﾊGG血CCТ
  6
CONTINUOUS
 62
     7
100
AcDbLine
 10
821.0
 20
574.0
 30
0.0
 11
821.0
 21
20.0
 31
0.0
  0
LINE
  5
24E
330
1F
100
AcDbEntity
  8
}}ﾊﾊGG血CCТ
  6
CONTINUOUS
 62
     7
100
AcDbLine
 10
564.0
 20
20.0
 30
0.0
 11
564.0
 21
30.0
 31
0.0
  0
TEXT
  5
24F
330
1F
100
AcDbEntity
  8
}}ﾊﾊGG血CCТ
  6
CONTINUOUS
 62
     7
100
AcDbText
 10
548.738831
 20
21.596878
 30
0.0
 40
6.648749
  1
品名
 41
1.083413
  7
FX_VECTOR
 72
     5
 11
560.058371
 21
21.596878
 31
0.0
100
AcDbText
  0
LINE
  5
250
330
1F
100
AcDbEntity
  8
}}ﾊﾊGG血CCТ
  6
CONTINUOUS
 62
     7
100
AcDbLine
 10
644.0
 20
30.0
 30
0.0
 11
644.0
 21
20.0
 31
0.0
  0
LINE
  5
251
330
1F
100
AcDbEntity
  8
}}ﾊﾊGG血CCТ
  6
CONTINUOUS
 62
     7
100
AcDbLine
 10
544.0
 20
30.0
 30
0.0
 11
821.0
 21
30.0
 31
0.0
  0
TEXT
  5
252
330
1F
100
AcDbEntity
  8
}}ﾊﾊGG血CCТ
  6
CONTINUOUS
 62
     7
100
AcDbText
 10
760.225769
 20
21.461285
 30
0.0
 40
7.170908
  1
GOLD CASTER
 41
0.63978
  7
FX_VECTOR
 72
     5
 11
806.977636
 21
21.461285
 31
0.0
100
AcDbText
  0
LINE
  5
253
330
1F
100
AcDbEntity
  8
}}ﾊﾊGG血CCТ
  6
CONTINUOUS
 62
     7
100
AcDbLine
 10
664.0
 20
20.0
 30
0.0
 11
664.0
 21
30.0
 31
0.0
  0
TEXT
  5
254
330
1F
100
AcDbEntity
  8
}}ﾊﾊGG血CCТ
  6
CONTINUOUS
 62
     7
100
AcDbText
 10
648.738831
 20
21.596878
 30
0.0
 40
6.648749
  1
図番
 41
1.083413
  7
FX_VECTOR
 72
     5
 11
660.058371
 21
21.596878
 31
0.0
100
AcDbText
  0
LINE
  5
255
330
1F
100
AcDbEntity
  8
}}ﾊﾊGG血CCТ
  6
CONTINUOUS
 62
     7
100
AcDbLine
 10
744.0
 20
30.0
 30
0.0
 11
744.0
 21
20.0
 31
0.0
  0
LINE
  5
256
330
1F
100
AcDbEntity
  8
}}ﾊﾊGG血CCТ
  6
CONTINUOUS
 62
     7
100
AcDbLine
 10
544.0
 20
30.0
 30
0.0
 11
544.0
 21
20.0
 31
0.0
  0
LINE
  5
257
330
1F
100
AcDbEntity
  8
GR1-1
  6
CONTINUOUS
 62
     7
100
AcDbLine
 10
408.060233
 20
135.519854
 30
0.0
 11
407.668974
 21
135.603018
 31
0.0
  0
LINE
  5
258
330
1F
100
AcDbEntity
  8
GR1-1
  6
CONTINUOUS
 62
     7
100
AcDbLine
 10
408.21428
 20
135.282642
 30
0.0
 11
407.431762
 21
135.448971
 31
0.0
  0
LINE
  5
259
330
1F
100
AcDbEntity
  8
GR1-1
  6
CONTINUOUS
 62
     7
100
AcDbLine
 10
408.368327
 20
135.04543
 30
0.0
 11
407.19455
 21
135.294924
 31
0.0
  0
LINE
  5
25A
330
1F
100
AcDbEntity
  8
GR1-1
  6
CONTINUOUS
 62
     7
100
AcDbLine
 10
408.522375
 20
134.808218
 30
0.0
 11
406.957338
 21
135.140877
 31
0.0
  0
LINE
  5
25B
330
1F
100
AcDbEntity
  8
GR1-1
  6
CONTINUOUS
 62
     7
100
AcDbLine
 10
408.676422
 20
134.571006
 30
0.0
 11
407.326755
 21
134.857887
 31
0.0
  0
LINE
  5
25C
330
1F
100
AcDbEntity
  8
GR1-1
  6
CONTINUOUS
 62
     7
100
AcDbLine
 10
406.957465
 20
134.936382
 30
0.0
 11
406.720126
 21
134.98683
 31
0.0
  0
LINE
  5
25D
330
1F
100
AcDbEntity
  8
GR1-1
  6
CONTINUOUS
 62
     7
100
AcDbLine
 10
408.830469
 20
134.333794
 30
0.0
 11
407.480802
 21
134.620675
 31
0.0
  0
LINE
  5
25E
330
1F
100
AcDbEntity
  8
GR1-1
  6
CONTINUOUS
 62
     7
100
AcDbLine
 10
406.720253
 20
134.782335
 30
0.0
 11
406.482915
 21
134.832782
 31
0.0
  0
LINE
  5
25F
330
1F
100
AcDbEntity
  8
GR1-1
  6
CONTINUOUS
 62
     7
100
AcDbLine
 10
408.984516
 20
134.096583
 30
0.0
 11
407.634849
 21
134.383463
 31
0.0
  0
LINE
  5
260
330
1F
100
AcDbEntity
  8
GR1-1
  6
CONTINUOUS
 62
     7
100
AcDbLine
 10
406.483041
 20
134.628287
 30
0.0
 11
406.245703
 21
134.678735
 31
0.0
  0
LINE
  5
261
330
1F
100
AcDbEntity
  8
GR1-1
  6
CONTINUOUS
 62
     7
100
AcDbLine
 10
409.138563
 20
133.859371
 30
0.0
 11
407.629139
 21
134.180209
 31
0.0
  0
LINE
  5
262
330
1F
100
AcDbEntity
  8
GR1-1
  6
CONTINUOUS
 62
     7
100
AcDbLine
 10
406.245829
 20
134.47424
 30
0.0
 11
406.008491
 21
134.524688
 31
0.0
  0
LINE
  5
263
330
1F
100
AcDbEntity
  8
GR1-1
  6
CONTINUOUS
 62
     7
100
AcDbLine
 10
409.29261
 20
133.622159
 30
0.0
 11
407.391927
 21
134.026162
 31
0.0
  0
LINE
  5
264
330
1F
100
AcDbEntity
  8
GR1-1
  6
CONTINUOUS
 62
     7
100
AcDbLine
 10
406.008617
 20
134.320193
 30
0.0
 11
405.771279
 21
134.370641
 31
0.0
  0
LINE
  5
265
330
1F
100
AcDbEntity
  8
GR1-1
  6
CONTINUOUS
 62
     7
100
AcDbLine
 10
409.446658
 20
133.384947
 30
0.0
 11
407.154715
 21
133.872114
 31
0.0
  0
LINE
  5
266
330
1F
100
AcDbEntity
  8
GR1-1
  6
CONTINUOUS
 62
     7
100
AcDbLine
 10
405.771406
 20
134.166146
 30
0.0
 11
405.534067
 21
134.216594
 31
0.0
  0
LINE
  5
267
330
1F
100
AcDbEntity
  8
GR1-1
  6
CONTINUOUS
 62
     7
100
AcDbLine
 10
409.600705
 20
133.147735
 30
0.0
 11
407.031816
 21
133.693769
 31
0.0
  0
LINE
  5
268
330
1F
100
AcDbEntity
  8
GR1-1
  6
CONTINUOUS
 62
     7
100
AcDbLine
 10
405.534194
 20
134.012099
 30
0.0
 11
405.296855
 21
134.062547
 31
0.0
  0
LINE
  5
269
330
1F
100
AcDbEntity
  8
GR1-1
  6
CONTINUOUS
 62
     7
100
AcDbLine
 10
409.754752
 20
132.910523
 30
0.0
 11
409.363493
 21
132.993688
 31
0.0
  0
LINE
  5
26A
330
1F
100
AcDbEntity
  8
GR1-1
  6
CONTINUOUS
 62
     7
100
AcDbLine
 10
405.604823
 20
133.792618
 30
0.0
 11
405.059643
 21
133.908499
 31
0.0
  0
LINE
  5
26B
330
1F
100
AcDbEntity
  8
GR1-1
  6
CONTINUOUS
 62
     7
100
AcDbLine
 10
409.908799
 20
132.673311
 30
0.0
 11
409.321911
 21
132.798058
 31
0.0
  0
LINE
  5
26C
330
1F
100
AcDbEntity
  8
GR1-1
  6
CONTINUOUS
 62
     7
100
AcDbLine
 10
405.75887
 20
133.555406
 30
0.0
 11
404.822432
 21
133.754452
 31
0.0
  0
LINE
  5
26D
330
1F
100
AcDbEntity
  8
GR1-1
  6
CONTINUOUS
 62
     7
100
AcDbLine
 10
410.062846
 20
132.4361
 30
0.0
 11
409.280328
 21
132.602429
 31
0.0
  0
LINE
  5
26E
330
1F
100
AcDbEntity
  8
GR1-1
  6
CONTINUOUS
 62
     7
100
AcDbLine
 10
405.912918
 20
133.318194
 30
0.0
 11
405.497925
 21
133.406404
 31
0.0
  0
LINE
  5
26F
330
1F
100
AcDbEntity
  8
GR1-1
  6
CONTINUOUS
 62
     7
100
AcDbLine
 10
405.367738
 20
133.434076
 30
0.0
 11
404.58522
 21
133.600405
 31
0.0
  0
LINE
  5
270
330
1F
100
AcDbEntity
  8
GR1-1
  6
CONTINUOUS
 62
     7
100
AcDbLine
 10
410.216894
 20
132.198888
 30
0.0
 11
409.238746
 21
132.406799
 31
0.0
  0
LINE
  5
271
330
1F
100
AcDbEntity
  8
GR1-1
  6
CONTINUOUS
 62
     7
100
AcDbLine
 10
406.066965
 20
133.080982
 30
0.0
 11
405.651972
 21
133.169192
 31
0.0
  0
LINE
  5
272
330
1F
100
AcDbEntity
  8
GR1-1
  6
CONTINUOUS
 62
     7
100
AcDbLine
 10
405.326156
 20
133.238446
 30
0.0
 11
404.348008
 21
133.446358
 31
0.0
  0
LINE
  5
273
330
1F
100
AcDbEntity
  8
GR1-1
  6
CONTINUOUS
 62
     7
100
AcDbLine
 10
410.370941
 20
131.961676
 30
0.0
 11
409.197164
 21
132.21117
 31
0.0
  0
LINE
  5
274
330
1F
100
AcDbEntity
  8
GR1-1
  6
CONTINUOUS
 62
     7
100
AcDbLine
 10
406.221012
 20
132.84377
 30
0.0
 11
405.806019
 21
132.93198
 31
0.0
  0
LINE
  5
275
330
1F
100
AcDbEntity
  8
GR1-1
  6
CONTINUOUS
 62
     7
100
AcDbLine
 10
405.284573
 20
133.042817
 30
0.0
 11
404.110796
 21
133.292311
 31
0.0
  0
LINE
  5
276
330
1F
100
AcDbEntity
  8
GR1-1
  6
CONTINUOUS
 62
     7
100
AcDbLine
 10
410.524988
 20
131.724464
 30
0.0
 11
409.155581
 21
132.01554
 31
0.0
  0
LINE
  5
277
330
1F
100
AcDbEntity
  8
GR1-1
  6
CONTINUOUS
 62
     7
100
AcDbLine
 10
408.177434
 20
132.223452
 30
0.0
 11
407.068815
 21
132.459096
 31
0.0
  0
LINE
  5
278
330
1F
100
AcDbEntity
  8
GR1-1
  6
CONTINUOUS
 62
     7
100
AcDbLine
 10
406.375059
 20
132.606559
 30
0.0
 11
405.960066
 21
132.694768
 31
0.0
  0
LINE
  5
279
330
1F
100
AcDbEntity
  8
GR1-1
  6
CONTINUOUS
 62
     7
100
AcDbLine
 10
405.242991
 20
132.847187
 30
0.0
 11
403.873584
 21
133.138263
 31
0.0
  0
LINE
  5
27A
330
1F
100
AcDbEntity
  8
GR1-1
  6
CONTINUOUS
 62
     7
100
AcDbLine
 10
410.679035
 20
131.487252
 30
0.0
 11
409.113999
 21
131.819911
 31
0.0
  0
LINE
  5
27B
330
1F
100
AcDbEntity
  8
GR1-1
  6
CONTINUOUS
 62
     7
100
AcDbLine
 10
408.135851
 20
132.027822
 30
0.0
 11
407.220761
 21
132.222331
 31
0.0
  0
LINE
  5
27C
330
1F
100
AcDbEntity
  8
GR1-1
  6
CONTINUOUS
 62
     7
100
AcDbLine
 10
406.529106
 20
132.369347
 30
0.0
 11
406.114113
 21
132.457556
 31
0.0
  0
LINE
  5
27D
330
1F
100
AcDbEntity
  8
GR1-1
  6
CONTINUOUS
 62
     7
100
AcDbLine
 10
405.201408
 20
132.651558
 30
0.0
 11
403.636372
 21
132.984216
 31
0.0
  0
LINE
  5
27E
330
1F
100
AcDbEntity
  8
GR1-1
  6
CONTINUOUS
 62
     7
100
AcDbLine
 10
410.833082
 20
131.25004
 30
0.0
 11
409.072417
 21
131.624281
 31
0.0
  0
LINE
  5
27F
330
1F
100
AcDbEntity
  8
GR1-1
  6
CONTINUOUS
 62
     7
100
AcDbLine
 10
408.094269
 20
131.832193
 30
0.0
 11
407.374808
 21
131.985119
 31
0.0
  0
LINE
  5
280
330
1F
100
AcDbEntity
  8
GR1-1
  6
CONTINUOUS
 62
     7
100
AcDbLine
 10
406.683153
 20
132.132135
 30
0.0
 11
406.137974
 21
132.248016
 31
0.0
  0
LINE
  5
281
330
1F
100
AcDbEntity
  8
GR1-1
  6
CONTINUOUS
 62
     7
100
AcDbLine
 10
405.159826
 20
132.455928
 30
0.0
 11
403.39916
 21
132.830169
 31
0.0
  0
LINE
  5
282
330
1F
100
AcDbEntity
  8
GR1-1
  6
CONTINUOUS
 62
     7
100
AcDbLine
 10
410.987129
 20
131.012828
 30
0.0
 11
409.030834
 21
131.428652
 31
0.0
  0
LINE
  5
283
330
1F
100
AcDbEntity
  8
GR1-1
  6
CONTINUOUS
 62
     7
100
AcDbLine
 10
408.052687
 20
131.636563
 30
0.0
 11
407.311877
 21
131.794027
 31
0.0
  0
LINE
  5
284
330
1F
100
AcDbEntity
  8
GR1-1
  6
CONTINUOUS
 62
     7
100
AcDbLine
 10
406.837201
 20
131.894923
 30
0.0
 11
406.096391
 21
132.052387
 31
0.0
  0
LINE
  5
285
330
1F
100
AcDbEntity
  8
GR1-1
  6
CONTINUOUS
 62
     7
100
AcDbLine
 10
405.118244
 20
132.260299
 30
0.0
 11
403.161949
 21
132.676122
 31
0.0
  0
LINE
  5
286
330
1F
100
AcDbEntity
  8
GR1-1
  6
CONTINUOUS
 62
     7
100
AcDbLine
 10
411.141177
 20
130.775617
 30
0.0
 11
408.989252
 21
131.233022
 31
0.0
  0
LINE
  5
287
330
1F
100
AcDbEntity
  8
GR1-1
  6
CONTINUOUS
 62
     7
100
AcDbLine
 10
408.011104
 20
131.440934
 30
0.0
 11
407.074666
 21
131.63998
 31
0.0
  0
LINE
  5
288
330
1F
100
AcDbEntity
  8
GR1-1
  6
CONTINUOUS
 62
     7
100
AcDbLine
 10
406.991248
 20
131.657711
 30
0.0
 11
406.054809
 21
131.856757
 31
0.0
  0
LINE
  5
289
330
1F
100
AcDbEntity
  8
GR1-1
  6
CONTINUOUS
 62
     7
100
AcDbLine
 10
405.076661
 20
132.064669
 30
0.0
 11
402.924737
 21
132.522075
 31
0.0
  0
LINE
  5
28A
330
1F
100
AcDbEntity
  8
GR1-1
  6
CONTINUOUS
 62
     7
100
AcDbLine
 10
410.987383
 20
130.603838
 30
0.0
 11
408.94767
 21
131.037393
 31
0.0
  0
LINE
  5
28B
330
1F
100
AcDbEntity
  8
GR1-1
  6
CONTINUOUS
 62
     7
100
AcDbLine
 10
407.969522
 20
131.245304
 30
0.0
 11
406.013227
 21
131.661128
 31
0.0
  0
LINE
  5
28C
330
1F
100
AcDbEntity
  8
GR1-1
  6
CONTINUOUS
 62
     7
100
AcDbLine
 10
405.035079
 20
131.869039
 30
0.0
 11
402.995366
 21
132.302594
 31
0.0
  0
LINE
  5
28D
330
1F
100
AcDbEntity
  8
GR1-1
  6
CONTINUOUS
 62
     7
100
AcDbLine
 10
410.750171
 20
130.449791
 30
0.0
 11
408.906087
 21
130.841763
 31
0.0
  0
LINE
  5
28E
330
1F
100
AcDbEntity
  8
GR1-1
  6
CONTINUOUS
 62
     7
100
AcDbLine
 10
407.92794
 20
131.049675
 30
0.0
 11
405.971644
 21
131.465498
 31
0.0
  0
LINE
  5
28F
330
1F
100
AcDbEntity
  8
GR1-1
  6
CONTINUOUS
 62
     7
100
AcDbLine
 10
404.993497
 20
131.67341
 30
0.0
 11
403.149413
 21
132.065382
 31
0.0
  0
LINE
  5
290
330
1F
100
AcDbEntity
  8
GR1-1
  6
CONTINUOUS
 62
     7
100
AcDbLine
 10
410.512959
 20
130.295744
 30
0.0
 11
408.864505
 21
130.646134
 31
0.0
  0
LINE
  5
291
330
1F
100
AcDbEntity
  8
GR1-1
  6
CONTINUOUS
 62
     7
100
AcDbLine
 10
407.886357
 20
130.854045
 30
0.0
 11
405.930062
 21
131.269869
 31
0.0
  0
LINE
  5
292
330
1F
100
AcDbEntity
  8
GR1-1
  6
CONTINUOUS
 62
     7
100
AcDbLine
 10
404.951914
 20
131.47778
 30
0.0
 11
403.303461
 21
131.82817
 31
0.0
  0
LINE
  5
293
330
1F
100
AcDbEntity
  8
GR1-1
  6
CONTINUOUS
 62
     7
100
AcDbLine
 10
410.275747
 20
130.141697
 30
0.0
 11
408.822923
 21
130.450504
 31
0.0
  0
LINE
  5
294
330
1F
100
AcDbEntity
  8
GR1-1
  6
CONTINUOUS
 62
     7
100
AcDbLine
 10
407.844775
 20
130.658416
 30
0.0
 11
405.88848
 21
131.074239
 31
0.0
  0
LINE
  5
295
330
1F
100
AcDbEntity
  8
GR1-1
  6
CONTINUOUS
 62
     7
100
AcDbLine
 10
404.910332
 20
131.282151
 30
0.0
 11
403.457508
 21
131.590958
 31
0.0
  0
LINE
  5
296
330
1F
100
AcDbEntity
  8
GR1-1
  6
CONTINUOUS
 62
     7
100
AcDbLine
 10
410.038535
 20
129.98765
 30
0.0
 11
408.78134
 21
130.254875
 31
0.0
  0
LINE
  5
297
330
1F
100
AcDbEntity
  8
GR1-1
  6
CONTINUOUS
 62
     7
100
AcDbLine
 10
407.803193
 20
130.462786
 30
0.0
 11
405.846897
 21
130.87861
 31
0.0
  0
LINE
  5
298
330
1F
100
AcDbEntity
  8
GR1-1
  6
CONTINUOUS
 62
     7
100
AcDbLine
 10
404.86875
 20
131.086521
 30
0.0
 11
403.611555
 21
131.353746
 31
0.0
  0
LINE
  5
299
330
1F
100
AcDbEntity
  8
GR1-1
  6
CONTINUOUS
 62
     7
100
AcDbLine
 10
409.801323
 20
129.833602
 30
0.0
 11
408.739758
 21
130.059245
 31
0.0
  0
LINE
  5
29A
330
1F
100
AcDbEntity
  8
GR1-1
  6
CONTINUOUS
 62
     7
100
AcDbLine
 10
404.827167
 20
130.890892
 30
0.0
 11
403.765602
 21
131.116535
 31
0.0
  0
LINE
  5
29B
330
1F
100
AcDbEntity
  8
GR1-1
  6
CONTINUOUS
 62
     7
100
AcDbLine
 10
409.564111
 20
129.679555
 30
0.0
 11
408.698176
 21
129.863616
 31
0.0
  0
LINE
  5
29C
330
1F
100
AcDbEntity
  8
GR1-1
  6
CONTINUOUS
 62
     7
100
AcDbLine
 10
404.785585
 20
130.695262
 30
0.0
 11
403.919649
 21
130.879323
 31
0.0
  0
LINE
  5
29D
330
1F
100
AcDbEntity
  8
GR1-1
  6
CONTINUOUS
 62
     7
100
AcDbLine
 10
409.3269
 20
129.525508
 30
0.0
 11
408.656593
 21
129.667986
 31
0.0
  0
LINE
  5
29E
330
1F
100
AcDbEntity
  8
GR1-1
  6
CONTINUOUS
 62
     7
100
AcDbLine
 10
404.744003
 20
130.499633
 30
0.0
 11
404.073696
 21
130.642111
 31
0.0
  0
LINE
  5
29F
330
1F
100
AcDbEntity
  8
GR1-1
  6
CONTINUOUS
 62
     7
100
AcDbLine
 10
409.089688
 20
129.371461
 30
0.0
 11
408.615011
 21
129.472357
 31
0.0
  0
LINE
  5
2A0
330
1F
100
AcDbEntity
  8
GR1-1
  6
CONTINUOUS
 62
     7
100
AcDbLine
 10
404.70242
 20
130.304003
 30
0.0
 11
404.227744
 21
130.404899
 31
0.0
  0
LINE
  5
2A1
330
1F
100
AcDbEntity
  8
GR1-1
  6
CONTINUOUS
 62
     7
100
AcDbLine
 10
408.852476
 20
129.217414
 30
0.0
 11
408.573429
 21
129.276727
 31
0.0
  0
LINE
  5
2A2
330
1F
100
AcDbEntity
  8
GR1-1
  6
CONTINUOUS
 62
     7
100
AcDbLine
 10
404.660838
 20
130.108374
 30
0.0
 11
404.381791
 21
130.167687
 31
0.0
  0
LINE
  5
2A3
330
1F
100
AcDbEntity
  8
GR1-1
  6
CONTINUOUS
 62
     7
100
AcDbLine
 10
408.615264
 20
129.063367
 30
0.0
 11
404.535838
 21
129.930475
 31
0.0
  0
LINE
  5
2A4
330
1F
100
AcDbEntity
  8
GR1-1
  6
CONTINUOUS
 62
     7
100
AcDbLine
 10
408.378052
 20
128.909319
 30
0.0
 11
404.689885
 21
129.693263
 31
0.0
  0
LINE
  5
2A5
330
1F
100
AcDbEntity
  8
GR1-1
  6
CONTINUOUS
 62
     7
100
AcDbLine
 10
408.14084
 20
128.755272
 30
0.0
 11
404.843932
 21
129.456052
 31
0.0
  0
LINE
  5
2A6
330
1F
100
AcDbEntity
  8
GR1-1
  6
CONTINUOUS
 62
     7
100
AcDbLine
 10
407.903628
 20
128.601225
 30
0.0
 11
404.99798
 21
129.21884
 31
0.0
  0
LINE
  5
2A7
330
1F
100
AcDbEntity
  8
GR1-1
  6
CONTINUOUS
 62
     7
100
AcDbLine
 10
407.666417
 20
128.447178
 30
0.0
 11
405.152027
 21
128.981628
 31
0.0
  0
LINE
  5
2A8
330
1F
100
AcDbEntity
  8
GR1-1
  6
CONTINUOUS
 62
     7
100
AcDbLine
 10
407.429205
 20
128.293131
 30
0.0
 11
405.306074
 21
128.744416
 31
0.0
  0
LINE
  5
2A9
330
1F
100
AcDbEntity
  8
GR1-1
  6
CONTINUOUS
 62
     7
100
AcDbLine
 10
407.191993
 20
128.139083
 30
0.0
 11
405.460121
 21
128.507204
 31
0.0
  0
LINE
  5
2AA
330
1F
100
AcDbEntity
  8
GR1-1
  6
CONTINUOUS
 62
     7
100
AcDbLine
 10
406.954781
 20
127.985036
 30
0.0
 11
405.614168
 21
128.269992
 31
0.0
  0
LINE
  5
2AB
330
1F
100
AcDbEntity
  8
GR1-1
  6
CONTINUOUS
 62
     7
100
AcDbLine
 10
406.717569
 20
127.830989
 30
0.0
 11
405.768215
 21
128.03278
 31
0.0
  0
LINE
  5
2AC
330
1F
100
AcDbEntity
  8
GR1-1
  6
CONTINUOUS
 62
     7
100
AcDbLine
 10
406.480357
 20
127.676942
 30
0.0
 11
405.922263
 21
127.795569
 31
0.0
  0
LINE
  5
2AD
330
1F
100
AcDbEntity
  8
GR1-1
  6
CONTINUOUS
 62
     7
100
AcDbLine
 10
406.243145
 20
127.522895
 30
0.0
 11
406.07631
 21
127.558357
 31
0.0
  0
LINE
  5
2AF
330
1F
100
AcDbEntity
  8
0-1
  6
CONTINUOUS
 62
     7
100
AcDbLine
 10
755.8019
 20
27.913462
 30
0.0
 11
749.8019
 21
27.913462
 31
0.0
  0
LINE
  5
2B0
330
1F
100
AcDbEntity
  8
0-1
  6
CONTINUOUS
 62
     7
100
AcDbLine
 10
749.8019
 20
27.913462
 30
0.0
 11
749.8019
 21
21.913462
 31
0.0
  0
LINE
  5
2B1
330
1F
100
AcDbEntity
  8
0-1
  6
CONTINUOUS
 62
     7
100
AcDbLine
 10
749.8019
 20
21.913462
 30
0.0
 11
755.8019
 21
21.913462
 31
0.0
  0
LINE
  5
2B2
330
1F
100
AcDbEntity
  8
0-1
  6
CONTINUOUS
 62
     7
100
AcDbLine
 10
755.8019
 20
21.913462
 30
0.0
 11
755.8019
 21
27.913462
 31
0.0
  0
LINE
  5
2B3
330
1F
100
AcDbEntity
  8
0-1
  6
CONTINUOUS
 62
     7
100
AcDbLine
 10
755.224977
 20
25.346154
 30
0.0
 11
752.8019
 21
27.769231
 31
0.0
  0
LINE
  5
2B4
330
1F
100
AcDbEntity
  8
0-1
  6
CONTINUOUS
 62
     7
100
AcDbLine
 10
752.8019
 20
27.769231
 30
0.0
 11
749.946131
 21
24.913462
 31
0.0
  0
LINE
  5
2B5
330
1F
100
AcDbEntity
  8
0-1
  6
CONTINUOUS
 62
     7
100
AcDbLine
 10
749.946131
 20
24.913462
 30
0.0
 11
752.8019
 21
22.057692
 31
0.0
  0
LINE
  5
2B6
330
1F
100
AcDbEntity
  8
0-1
  6
CONTINUOUS
 62
     7
100
AcDbLine
 10
752.8019
 20
22.057692
 30
0.0
 11
754.359592
 21
23.615385
 31
0.0
  0
LINE
  5
2B7
330
1F
100
AcDbEntity
  8
0-1
  6
CONTINUOUS
 62
     7
100
AcDbLine
 10
754.359592
 20
23.615385
 30
0.0
 11
754.359592
 21
22.980769
 31
0.0
  0
LINE
  5
2B8
330
1F
100
AcDbEntity
  8
0-1
  6
CONTINUOUS
 62
     7
100
AcDbLine
 10
754.359592
 20
22.980769
 30
0.0
 11
755.224977
 21
22.980769
 31
0.0
  0
LINE
  5
2B9
330
1F
100
AcDbEntity
  8
0-1
  6
CONTINUOUS
 62
     7
100
AcDbLine
 10
755.224977
 20
22.980769
 30
0.0
 11
755.224977
 21
25.0
 31
0.0
  0
LINE
  5
2BA
330
1F
100
AcDbEntity
  8
0-1
  6
CONTINUOUS
 62
     7
100
AcDbLine
 10
755.224977
 20
25.0
 30
0.0
 11
752.8019
 21
25.0
 31
0.0
  0
LINE
  5
2BB
330
1F
100
AcDbEntity
  8
0-1
  6
CONTINUOUS
 62
     7
100
AcDbLine
 10
752.8019
 20
25.0
 30
0.0
 11
752.8019
 21
24.134615
 31
0.0
  0
LINE
  5
2BC
330
1F
100
AcDbEntity
  8
0-1
  6
CONTINUOUS
 62
     7
100
AcDbLine
 10
752.8019
 20
24.134615
 30
0.0
 11
753.246131
 21
24.134615
 31
0.0
  0
LINE
  5
2BD
330
1F
100
AcDbEntity
  8
0-1
  6
CONTINUOUS
 62
     7
100
AcDbLine
 10
753.246131
 20
24.134615
 30
0.0
 11
752.8019
 21
23.690385
 31
0.0
  0
LINE
  5
2BE
330
1F
100
AcDbEntity
  8
0-1
  6
CONTINUOUS
 62
     7
100
AcDbLine
 10
752.8019
 20
23.690385
 30
0.0
 11
751.578823
 21
24.913462
 31
0.0
  0
LINE
  5
2BF
330
1F
100
AcDbEntity
  8
0-1
  6
CONTINUOUS
 62
     7
100
AcDbLine
 10
751.578823
 20
24.913462
 30
0.0
 11
752.8019
 21
26.136538
 31
0.0
  0
LINE
  5
2C0
330
1F
100
AcDbEntity
  8
0-1
  6
CONTINUOUS
 62
     7
100
AcDbLine
 10
752.8019
 20
26.136538
 30
0.0
 11
753.592284
 21
25.346154
 31
0.0
  0
LINE
  5
2C1
330
1F
100
AcDbEntity
  8
0-1
  6
CONTINUOUS
 62
     7
100
AcDbLine
 10
753.592284
 20
25.346154
 30
0.0
 11
755.224977
 21
25.346154
 31
0.0
  0
LINE
  5
2C2
330
1F
100
AcDbEntity
  8
GR1-1
  6
CONTINUOUS
 62
     7
100
AcDbLine
 10
750.72238
 20
21.913462
 30
0.0
 11
751.834255
 21
23.025337
 31
0.0
  0
LINE
  5
2C3
330
1F
100
AcDbEntity
  8
GR1-1
  6
CONTINUOUS
 62
     7
100
AcDbLine
 10
752.650601
 20
23.841683
 30
0.0
 11
752.943534
 21
24.134615
 31
0.0
  0
LINE
  5
2C4
330
1F
100
AcDbEntity
  8
GR1-1
  6
CONTINUOUS
 62
     7
100
AcDbLine
 10
753.808918
 20
25.0
 30
0.0
 11
754.155072
 21
25.346154
 31
0.0
  0
LINE
  5
2C5
330
1F
100
AcDbEntity
  8
GR1-1
  6
CONTINUOUS
 62
     7
100
AcDbLine
 10
754.690024
 20
25.881106
 30
0.0
 11
755.8019
 21
26.992981
 31
0.0
  0
LINE
  5
2C6
330
1F
100
AcDbEntity
  8
GR1-1
  6
CONTINUOUS
 62
     7
100
AcDbLine
 10
750.651669
 20
21.913462
 30
0.0
 11
751.7989
 21
23.060692
 31
0.0
  0
LINE
  5
2C7
330
1F
100
AcDbEntity
  8
GR1-1
  6
CONTINUOUS
 62
     7
100
AcDbLine
 10
752.615246
 20
23.877038
 30
0.0
 11
752.872823
 21
24.134615
 31
0.0
  0
LINE
  5
2C8
330
1F
100
AcDbEntity
  8
GR1-1
  6
CONTINUOUS
 62
     7
100
AcDbLine
 10
753.738208
 20
25.0
 30
0.0
 11
754.084362
 21
25.346154
 31
0.0
  0
LINE
  5
2C9
330
1F
100
AcDbEntity
  8
GR1-1
  6
CONTINUOUS
 62
     7
100
AcDbLine
 10
754.654669
 20
25.916461
 30
0.0
 11
755.8019
 21
27.063692
 31
0.0
  0
LINE
  5
2CA
330
1F
100
AcDbEntity
  8
GR1-1
  6
CONTINUOUS
 62
     7
100
AcDbLine
 10
750.580959
 20
21.913462
 30
0.0
 11
751.763545
 21
23.096047
 31
0.0
  0
LINE
  5
2CB
330
1F
100
AcDbEntity
  8
GR1-1
  6
CONTINUOUS
 62
     7
100
AcDbLine
 10
752.579891
 20
23.912394
 30
0.0
 11
752.802112
 21
24.134615
 31
0.0
  0
LINE
  5
2CC
330
1F
100
AcDbEntity
  8
GR1-1
  6
CONTINUOUS
 62
     7
100
AcDbLine
 10
753.667497
 20
25.0
 30
0.0
 11
754.013651
 21
25.346154
 31
0.0
  0
LINE
  5
2CD
330
1F
100
AcDbEntity
  8
GR1-1
  6
CONTINUOUS
 62
     7
100
AcDbLine
 10
754.619314
 20
25.951817
 30
0.0
 11
755.8019
 21
27.134403
 31
0.0
  0
LINE
  5
2CE
330
1F
100
AcDbEntity
  8
GR1-1
  6
CONTINUOUS
 62
     7
100
AcDbLine
 10
750.510248
 20
21.913462
 30
0.0
 11
751.728189
 21
23.131403
 31
0.0
  0
LINE
  5
2CF
330
1F
100
AcDbEntity
  8
GR1-1
  6
CONTINUOUS
 62
     7
100
AcDbLine
 10
752.544535
 20
23.947749
 30
0.0
 11
752.8019
 21
24.205113
 31
0.0
  0
LINE
  5
2D0
330
1F
100
AcDbEntity
  8
GR1-1
  6
CONTINUOUS
 62
     7
100
AcDbLine
 10
753.596786
 20
25.0
 30
0.0
 11
753.94294
 21
25.346154
 31
0.0
  0
LINE
  5
2D1
330
1F
100
AcDbEntity
  8
GR1-1
  6
CONTINUOUS
 62
     7
100
AcDbLine
 10
754.583958
 20
25.987172
 30
0.0
 11
755.8019
 21
27.205113
 31
0.0
  0
LINE
  5
2D2
330
1F
100
AcDbEntity
  8
GR1-1
  6
CONTINUOUS
 62
     7
100
AcDbLine
 10
750.439537
 20
21.913462
 30
0.0
 11
751.692834
 21
23.166758
 31
0.0
  0
LINE
  5
2D3
330
1F
100
AcDbEntity
  8
GR1-1
  6
CONTINUOUS
 62
     7
100
AcDbLine
 10
752.50918
 20
23.983104
 30
0.0
 11
752.8019
 21
24.275824
 31
0.0
  0
LINE
  5
2D4
330
1F
100
AcDbEntity
  8
GR1-1
  6
CONTINUOUS
 62
     7
100
AcDbLine
 10
753.526076
 20
25.0
 30
0.0
 11
753.87223
 21
25.346154
 31
0.0
  0
LINE
  5
2D5
330
1F
100
AcDbEntity
  8
GR1-1
  6
CONTINUOUS
 62
     7
100
AcDbLine
 10
754.548603
 20
26.022527
 30
0.0
 11
755.8019
 21
27.275824
 31
0.0
  0
LINE
  5
2D6
330
1F
100
AcDbEntity
  8
GR1-1
  6
CONTINUOUS
 62
     7
100
AcDbLine
 10
750.368827
 20
21.913462
 30
0.0
 11
751.657479
 21
23.202114
 31
0.0
  0
LINE
  5
2D7
330
1F
100
AcDbEntity
  8
GR1-1
  6
CONTINUOUS
 62
     7
100
AcDbLine
 10
752.473825
 20
24.01846
 30
0.0
 11
752.8019
 21
24.346535
 31
0.0
  0
LINE
  5
2D8
330
1F
100
AcDbEntity
  8
GR1-1
  6
CONTINUOUS
 62
     7
100
AcDbLine
 10
753.455365
 20
25.0
 30
0.0
 11
753.801519
 21
25.346154
 31
0.0
  0
LINE
  5
2D9
330
1F
100
AcDbEntity
  8
GR1-1
  6
CONTINUOUS
 62
     7
100
AcDbLine
 10
754.513248
 20
26.057883
 30
0.0
 11
755.8019
 21
27.346535
 31
0.0
  0
LINE
  5
2DA
330
1F
100
AcDbEntity
  8
GR1-1
  6
CONTINUOUS
 62
     7
100
AcDbLine
 10
750.298116
 20
21.913462
 30
0.0
 11
751.622123
 21
23.237469
 31
0.0
  0
LINE
  5
2DB
330
1F
100
AcDbEntity
  8
GR1-1
  6
CONTINUOUS
 62
     7
100
AcDbLine
 10
752.438469
 20
24.053815
 30
0.0
 11
752.8019
 21
24.417245
 31
0.0
  0
LINE
  5
2DC
330
1F
100
AcDbEntity
  8
GR1-1
  6
CONTINUOUS
 62
     7
100
AcDbLine
 10
753.384654
 20
25.0
 30
0.0
 11
753.730808
 21
25.346154
 31
0.0
  0
LINE
  5
2DD
330
1F
100
AcDbEntity
  8
GR1-1
  6
CONTINUOUS
 62
     7
100
AcDbLine
 10
754.477892
 20
26.093238
 30
0.0
 11
755.8019
 21
27.417245
 31
0.0
  0
LINE
  5
2DE
330
1F
100
AcDbEntity
  8
GR1-1
  6
CONTINUOUS
 62
     7
100
AcDbLine
 10
750.227405
 20
21.913462
 30
0.0
 11
751.586768
 21
23.272824
 31
0.0
  0
LINE
  5
2DF
330
1F
100
AcDbEntity
  8
GR1-1
  6
CONTINUOUS
 62
     7
100
AcDbLine
 10
752.403114
 20
24.08917
 30
0.0
 11
752.8019
 21
24.487956
 31
0.0
  0
LINE
  5
2E0
330
1F
100
AcDbEntity
  8
GR1-1
  6
CONTINUOUS
 62
     7
100
AcDbLine
 10
753.313944
 20
25.0
 30
0.0
 11
753.660097
 21
25.346154
 31
0.0
  0
LINE
  5
2E1
330
1F
100
AcDbEntity
  8
GR1-1
  6
CONTINUOUS
 62
     7
100
AcDbLine
 10
754.442537
 20
26.128593
 30
0.0
 11
755.8019
 21
27.487956
 31
0.0
  0
LINE
  5
2E2
330
1F
100
AcDbEntity
  8
GR1-1
  6
CONTINUOUS
 62
     7
100
AcDbLine
 10
750.156695
 20
21.913462
 30
0.0
 11
751.551413
 21
23.30818
 31
0.0
  0
LINE
  5
2E3
330
1F
100
AcDbEntity
  8
GR1-1
  6
CONTINUOUS
 62
     7
100
AcDbLine
 10
752.367759
 20
24.124526
 30
0.0
 11
752.8019
 21
24.558667
 31
0.0
  0
LINE
  5
2E4
330
1F
100
AcDbEntity
  8
GR1-1
  6
CONTINUOUS
 62
     7
100
AcDbLine
 10
753.243233
 20
25.0
 30
0.0
 11
753.590836
 21
25.347603
 31
0.0
  0
LINE
  5
2E5
330
1F
100
AcDbEntity
  8
GR1-1
  6
CONTINUOUS
 62
     7
100
AcDbLine
 10
754.407182
 20
26.163949
 30
0.0
 11
755.8019
 21
27.558667
 31
0.0
  0
LINE
  5
2E6
330
1F
100
AcDbEntity
  8
GR1-1
  6
CONTINUOUS
 62
     7
100
AcDbLine
 10
750.085984
 20
21.913462
 30
0.0
 11
751.516057
 21
23.343535
 31
0.0
  0
LINE
  5
2E7
330
1F
100
AcDbEntity
  8
GR1-1
  6
CONTINUOUS
 62
     7
100
AcDbLine
 10
752.332403
 20
24.159881
 30
0.0
 11
752.8019
 21
24.629377
 31
0.0
  0
LINE
  5
2E8
330
1F
100
AcDbEntity
  8
GR1-1
  6
CONTINUOUS
 62
     7
100
AcDbLine
 10
753.172522
 20
25.0
 30
0.0
 11
753.55548
 21
25.382958
 31
0.0
  0
LINE
  5
2E9
330
1F
100
AcDbEntity
  8
GR1-1
  6
CONTINUOUS
 62
     7
100
AcDbLine
 10
754.371826
 20
26.199304
 30
0.0
 11
755.8019
 21
27.629377
 31
0.0
  0
LINE
  5
2EA
330
1F
100
AcDbEntity
  8
GR1-1
  6
CONTINUOUS
 62
     7
100
AcDbLine
 10
750.015273
 20
21.913462
 30
0.0
 11
751.480702
 21
23.37889
 31
0.0
  0
LINE
  5
2EB
330
1F
100
AcDbEntity
  8
GR1-1
  6
CONTINUOUS
 62
     7
100
AcDbLine
 10
752.297048
 20
24.195236
 30
0.0
 11
752.8019
 21
24.700088
 31
0.0
  0
LINE
  5
2EC
330
1F
100
AcDbEntity
  8
GR1-1
  6
CONTINUOUS
 62
     7
100
AcDbLine
 10
753.101812
 20
25.0
 30
0.0
 11
753.520125
 21
25.418313
 31
0.0
  0
LINE
  5
2ED
330
1F
100
AcDbEntity
  8
GR1-1
  6
CONTINUOUS
 62
     7
100
AcDbLine
 10
754.336471
 20
26.234659
 30
0.0
 11
755.8019
 21
27.700088
 31
0.0
  0
LINE
  5
2EE
330
1F
100
AcDbEntity
  8
GR1-1
  6
CONTINUOUS
 62
     7
100
AcDbLine
 10
749.944563
 20
21.913462
 30
0.0
 11
751.445347
 21
23.414246
 31
0.0
  0
LINE
  5
2EF
330
1F
100
AcDbEntity
  8
GR1-1
  6
CONTINUOUS
 62
     7
100
AcDbLine
 10
752.261693
 20
24.230592
 30
0.0
 11
752.8019
 21
24.770799
 31
0.0
  0
LINE
  5
2F0
330
1F
100
AcDbEntity
  8
GR1-1
  6
CONTINUOUS
 62
     7
100
AcDbLine
 10
753.031101
 20
25.0
 30
0.0
 11
753.48477
 21
25.453669
 31
0.0
  0
LINE
  5
2F1
330
1F
100
AcDbEntity
  8
GR1-1
  6
CONTINUOUS
 62
     7
100
AcDbLine
 10
754.301116
 20
26.270015
 30
0.0
 11
755.8019
 21
27.770799
 31
0.0
  0
LINE
  5
2F2
330
1F
100
AcDbEntity
  8
GR1-1
  6
CONTINUOUS
 62
     7
100
AcDbLine
 10
749.873852
 20
21.913462
 30
0.0
 11
751.409991
 21
23.449601
 31
0.0
  0
LINE
  5
2F3
330
1F
100
AcDbEntity
  8
GR1-1
  6
CONTINUOUS
 62
     7
100
AcDbLine
 10
752.226337
 20
24.265947
 30
0.0
 11
752.8019
 21
24.841509
 31
0.0
  0
LINE
  5
2F4
330
1F
100
AcDbEntity
  8
GR1-1
  6
CONTINUOUS
 62
     7
100
AcDbLine
 10
752.96039
 20
25.0
 30
0.0
 11
753.449414
 21
25.489024
 31
0.0
  0
LINE
  5
2F5
330
1F
100
AcDbEntity
  8
GR1-1
  6
CONTINUOUS
 62
     7
100
AcDbLine
 10
754.26576
 20
26.30537
 30
0.0
 11
755.8019
 21
27.841509
 31
0.0
  0
LINE
  5
2F6
330
1F
100
AcDbEntity
  8
GR1-1
  6
CONTINUOUS
 62
     7
100
AcDbLine
 10
749.803141
 20
21.913462
 30
0.0
 11
751.374636
 21
23.484956
 31
0.0
  0
LINE
  5
2F7
330
1F
100
AcDbEntity
  8
GR1-1
  6
CONTINUOUS
 62
     7
100
AcDbLine
 10
752.190982
 20
24.301302
 30
0.0
 11
752.8019
 21
24.91222
 31
0.0
  0
LINE
  5
2F8
330
1F
100
AcDbEntity
  8
GR1-1
  6
CONTINUOUS
 62
     7
100
AcDbLine
 10
752.88968
 20
25.0
 30
0.0
 11
753.414059
 21
25.524379
 31
0.0
  0
LINE
  5
2F9
330
1F
100
AcDbEntity
  8
GR1-1
  6
CONTINUOUS
 62
     7
100
AcDbLine
 10
754.230405
 20
26.340725
 30
0.0
 11
755.8019
 21
27.91222
 31
0.0
  0
LINE
  5
2FA
330
1F
100
AcDbEntity
  8
GR1-1
  6
CONTINUOUS
 62
     7
100
AcDbLine
 10
749.8019
 20
21.982931
 30
0.0
 11
751.339281
 21
23.520312
 31
0.0
  0
LINE
  5
2FB
330
1F
100
AcDbEntity
  8
GR1-1
  6
CONTINUOUS
 62
     7
100
AcDbLine
 10
752.155627
 20
24.336658
 30
0.0
 11
752.8019
 21
24.982931
 31
0.0
  0
LINE
  5
2FC
330
1F
100
AcDbEntity
  8
GR1-1
  6
CONTINUOUS
 62
     7
100
AcDbLine
 10
752.818969
 20
25.0
 30
0.0
 11
753.378704
 21
25.559735
 31
0.0
  0
LINE
  5
2FD
330
1F
100
AcDbEntity
  8
GR1-1
  6
CONTINUOUS
 62
     7
100
AcDbLine
 10
754.19505
 20
26.376081
 30
0.0
 11
755.73243
 21
27.913462
 31
0.0
  0
LINE
  5
2FE
330
1F
100
AcDbEntity
  8
GR1-1
  6
CONTINUOUS
 62
     7
100
AcDbLine
 10
749.8019
 20
22.053642
 30
0.0
 11
751.303925
 21
23.555667
 31
0.0
  0
LINE
  5
2FF
330
1F
100
AcDbEntity
  8
GR1-1
  6
CONTINUOUS
 62
     7
100
AcDbLine
 10
752.120271
 20
24.372013
 30
0.0
 11
753.343348
 21
25.59509
 31
0.0
  0
LINE
  5
300
330
1F
100
AcDbEntity
  8
GR1-1
  6
CONTINUOUS
 62
     7
100
AcDbLine
 10
754.159694
 20
26.411436
 30
0.0
 11
755.66172
 21
27.913462
 31
0.0
  0
LINE
  5
301
330
1F
100
AcDbEntity
  8
GR1-1
  6
CONTINUOUS
 62
     7
100
AcDbLine
 10
749.8019
 20
22.124352
 30
0.0
 11
751.26857
 21
23.591022
 31
0.0
  0
LINE
  5
302
330
1F
100
AcDbEntity
  8
GR1-1
  6
CONTINUOUS
 62
     7
100
AcDbLine
 10
752.084916
 20
24.407368
 30
0.0
 11
753.307993
 21
25.630445
 31
0.0
  0
LINE
  5
303
330
1F
100
AcDbEntity
  8
GR1-1
  6
CONTINUOUS
 62
     7
100
AcDbLine
 10
754.124339
 20
26.446791
 30
0.0
 11
755.591009
 21
27.913462
 31
0.0
  0
LINE
  5
304
330
1F
100
AcDbEntity
  8
GR1-1
  6
CONTINUOUS
 62
     7
100
AcDbLine
 10
749.8019
 20
22.195063
 30
0.0
 11
751.233214
 21
23.626378
 31
0.0
  0
LINE
  5
305
330
1F
100
AcDbEntity
  8
GR1-1
  6
CONTINUOUS
 62
     7
100
AcDbLine
 10
752.049561
 20
24.442724
 30
0.0
 11
753.272638
 21
25.665801
 31
0.0
  0
LINE
  5
306
330
1F
100
AcDbEntity
  8
GR1-1
  6
CONTINUOUS
 62
     7
100
AcDbLine
 10
754.088984
 20
26.482147
 30
0.0
 11
755.520298
 21
27.913462
 31
0.0
  0
LINE
  5
307
330
1F
100
AcDbEntity
  8
GR1-1
  6
CONTINUOUS
 62
     7
100
AcDbLine
 10
749.8019
 20
22.265774
 30
0.0
 11
751.197859
 21
23.661733
 31
0.0
  0
LINE
  5
308
330
1F
100
AcDbEntity
  8
GR1-1
  6
CONTINUOUS
 62
     7
100
AcDbLine
 10
752.014205
 20
24.478079
 30
0.0
 11
753.237282
 21
25.701156
 31
0.0
  0
LINE
  5
309
330
1F
100
AcDbEntity
  8
GR1-1
  6
CONTINUOUS
 62
     7
100
AcDbLine
 10
754.053628
 20
26.517502
 30
0.0
 11
755.449588
 21
27.913462
 31
0.0
  0
LINE
  5
30A
330
1F
100
AcDbEntity
  8
GR1-1
  6
CONTINUOUS
 62
     7
100
AcDbLine
 10
749.8019
 20
22.336484
 30
0.0
 11
751.162504
 21
23.697088
 31
0.0
  0
LINE
  5
30B
330
1F
100
AcDbEntity
  8
GR1-1
  6
CONTINUOUS
 62
     7
100
AcDbLine
 10
751.97885
 20
24.513434
 30
0.0
 11
753.201927
 21
25.736511
 31
0.0
  0
LINE
  5
30C
330
1F
100
AcDbEntity
  8
GR1-1
  6
CONTINUOUS
 62
     7
100
AcDbLine
 10
754.018273
 20
26.552857
 30
0.0
 11
755.378877
 21
27.913462
 31
0.0
  0
LINE
  5
30D
330
1F
100
AcDbEntity
  8
GR1-1
  6
CONTINUOUS
 62
     7
100
AcDbLine
 10
749.8019
 20
22.407195
 30
0.0
 11
751.127148
 21
23.732444
 31
0.0
  0
LINE
  5
30E
330
1F
100
AcDbEntity
  8
GR1-1
  6
CONTINUOUS
 62
     7
100
AcDbLine
 10
751.943495
 20
24.54879
 30
0.0
 11
753.166572
 21
25.771867
 31
0.0
  0
LINE
  5
30F
330
1F
100
AcDbEntity
  8
GR1-1
  6
CONTINUOUS
 62
     7
100
AcDbLine
 10
753.982918
 20
26.588213
 30
0.0
 11
755.308166
 21
27.913462
 31
0.0
  0
LINE
  5
310
330
1F
100
AcDbEntity
  8
GR1-1
  6
CONTINUOUS
 62
     7
100
AcDbLine
 10
749.8019
 20
22.477906
 30
0.0
 11
751.091793
 21
23.767799
 31
0.0
  0
LINE
  5
311
330
1F
100
AcDbEntity
  8
GR1-1
  6
CONTINUOUS
 62
     7
100
AcDbLine
 10
751.908139
 20
24.584145
 30
0.0
 11
753.131216
 21
25.807222
 31
0.0
  0
LINE
  5
312
330
1F
100
AcDbEntity
  8
GR1-1
  6
CONTINUOUS
 62
     7
100
AcDbLine
 10
753.947562
 20
26.623568
 30
0.0
 11
755.237456
 21
27.913462
 31
0.0
  0
LINE
  5
313
330
1F
100
AcDbEntity
  8
GR1-1
  6
CONTINUOUS
 62
     7
100
AcDbLine
 10
749.8019
 20
22.548616
 30
0.0
 11
751.056438
 21
23.803154
 31
0.0
  0
LINE
  5
314
330
1F
100
AcDbEntity
  8
GR1-1
  6
CONTINUOUS
 62
     7
100
AcDbLine
 10
751.872784
 20
24.6195
 30
0.0
 11
753.095861
 21
25.842577
 31
0.0
  0
LINE
  5
315
330
1F
100
AcDbEntity
  8
GR1-1
  6
CONTINUOUS
 62
     7
100
AcDbLine
 10
753.912207
 20
26.658923
 30
0.0
 11
755.166745
 21
27.913462
 31
0.0
  0
LINE
  5
316
330
1F
100
AcDbEntity
  8
GR1-1
  6
CONTINUOUS
 62
     7
100
AcDbLine
 10
749.8019
 20
22.619327
 30
0.0
 11
751.021082
 21
23.83851
 31
0.0
  0
LINE
  5
317
330
1F
100
AcDbEntity
  8
GR1-1
  6
CONTINUOUS
 62
     7
100
AcDbLine
 10
751.837429
 20
24.654856
 30
0.0
 11
753.060506
 21
25.877933
 31
0.0
  0
LINE
  5
318
330
1F
100
AcDbEntity
  8
GR1-1
  6
CONTINUOUS
 62
     7
100
AcDbLine
 10
753.876852
 20
26.694279
 30
0.0
 11
755.096034
 21
27.913462
 31
0.0
  0
LINE
  5
319
330
1F
100
AcDbEntity
  8
GR1-1
  6
CONTINUOUS
 62
     7
100
AcDbLine
 10
749.8019
 20
22.690038
 30
0.0
 11
750.985727
 21
23.873865
 31
0.0
  0
LINE
  5
31A
330
1F
100
AcDbEntity
  8
GR1-1
  6
CONTINUOUS
 62
     7
100
AcDbLine
 10
751.802073
 20
24.690211
 30
0.0
 11
753.02515
 21
25.913288
 31
0.0
  0
LINE
  5
31B
330
1F
100
AcDbEntity
  8
GR1-1
  6
CONTINUOUS
 62
     7
100
AcDbLine
 10
753.841496
 20
26.729634
 30
0.0
 11
755.025324
 21
27.913462
 31
0.0
  0
LINE
  5
31C
330
1F
100
AcDbEntity
  8
GR1-1
  6
CONTINUOUS
 62
     7
100
AcDbLine
 10
749.8019
 20
22.760748
 30
0.0
 11
750.950372
 21
23.90922
 31
0.0
  0
LINE
  5
31D
330
1F
100
AcDbEntity
  8
GR1-1
  6
CONTINUOUS
 62
     7
100
AcDbLine
 10
751.766718
 20
24.725566
 30
0.0
 11
752.989795
 21
25.948643
 31
0.0
  0
LINE
  5
31E
330
1F
100
AcDbEntity
  8
GR1-1
  6
CONTINUOUS
 62
     7
100
AcDbLine
 10
753.806141
 20
26.76499
 30
0.0
 11
754.954613
 21
27.913462
 31
0.0
  0
LINE
  5
31F
330
1F
100
AcDbEntity
  8
GR1-1
  6
CONTINUOUS
 62
     7
100
AcDbLine
 10
749.8019
 20
22.831459
 30
0.0
 11
750.915016
 21
23.944576
 31
0.0
  0
LINE
  5
320
330
1F
100
AcDbEntity
  8
GR1-1
  6
CONTINUOUS
 62
     7
100
AcDbLine
 10
751.731363
 20
24.760922
 30
0.0
 11
752.95444
 21
25.983999
 31
0.0
  0
LINE
  5
321
330
1F
100
AcDbEntity
  8
GR1-1
  6
CONTINUOUS
 62
     7
100
AcDbLine
 10
753.770786
 20
26.800345
 30
0.0
 11
754.883902
 21
27.913462
 31
0.0
  0
LINE
  5
322
330
1F
100
AcDbEntity
  8
GR1-1
  6
CONTINUOUS
 62
     7
100
AcDbLine
 10
749.8019
 20
22.90217
 30
0.0
 11
750.879661
 21
23.979931
 31
0.0
  0
LINE
  5
323
330
1F
100
AcDbEntity
  8
GR1-1
  6
CONTINUOUS
 62
     7
100
AcDbLine
 10
751.696007
 20
24.796277
 30
0.0
 11
752.919084
 21
26.019354
 31
0.0
  0
LINE
  5
324
330
1F
100
AcDbEntity
  8
GR1-1
  6
CONTINUOUS
 62
     7
100
AcDbLine
 10
753.73543
 20
26.8357
 30
0.0
 11
754.813192
 21
27.913462
 31
0.0
  0
LINE
  5
325
330
1F
100
AcDbEntity
  8
GR1-1
  6
CONTINUOUS
 62
     7
100
AcDbLine
 10
749.8019
 20
22.97288
 30
0.0
 11
750.844306
 21
24.015286
 31
0.0
  0
LINE
  5
326
330
1F
100
AcDbEntity
  8
GR1-1
  6
CONTINUOUS
 62
     7
100
AcDbLine
 10
751.660652
 20
24.831632
 30
0.0
 11
752.883729
 21
26.054709
 31
0.0
  0
LINE
  5
327
330
1F
100
AcDbEntity
  8
GR1-1
  6
CONTINUOUS
 62
     7
100
AcDbLine
 10
753.700075
 20
26.871056
 30
0.0
 11
754.742481
 21
27.913462
 31
0.0
  0
LINE
  5
328
330
1F
100
AcDbEntity
  8
GR1-1
  6
CONTINUOUS
 62
     7
100
AcDbLine
 10
749.8019
 20
23.043591
 30
0.0
 11
750.80895
 21
24.050642
 31
0.0
  0
LINE
  5
329
330
1F
100
AcDbEntity
  8
GR1-1
  6
CONTINUOUS
 62
     7
100
AcDbLine
 10
751.625297
 20
24.866988
 30
0.0
 11
752.848373
 21
26.090065
 31
0.0
  0
LINE
  5
32A
330
1F
100
AcDbEntity
  8
GR1-1
  6
CONTINUOUS
 62
     7
100
AcDbLine
 10
753.66472
 20
26.906411
 30
0.0
 11
754.67177
 21
27.913462
 31
0.0
  0
LINE
  5
32B
330
1F
100
AcDbEntity
  8
GR1-1
  6
CONTINUOUS
 62
     7
100
AcDbLine
 10
749.8019
 20
23.114302
 30
0.0
 11
750.773595
 21
24.085997
 31
0.0
  0
LINE
  5
32C
330
1F
100
AcDbEntity
  8
GR1-1
  6
CONTINUOUS
 62
     7
100
AcDbLine
 10
751.589941
 20
24.902343
 30
0.0
 11
752.813018
 21
26.12542
 31
0.0
  0
LINE
  5
32D
330
1F
100
AcDbEntity
  8
GR1-1
  6
CONTINUOUS
 62
     7
100
AcDbLine
 10
753.629364
 20
26.941766
 30
0.0
 11
754.60106
 21
27.913462
 31
0.0
  0
LINE
  5
32E
330
1F
100
AcDbEntity
  8
GR1-1
  6
CONTINUOUS
 62
     7
100
AcDbLine
 10
749.8019
 20
23.185012
 30
0.0
 11
750.73824
 21
24.121352
 31
0.0
  0
LINE
  5
32F
330
1F
100
AcDbEntity
  8
GR1-1
  6
CONTINUOUS
 62
     7
100
AcDbLine
 10
753.594009
 20
26.977122
 30
0.0
 11
754.530349
 21
27.913462
 31
0.0
  0
LINE
  5
330
330
1F
100
AcDbEntity
  8
GR1-1
  6
CONTINUOUS
 62
     7
100
AcDbLine
 10
749.8019
 20
23.255723
 30
0.0
 11
750.702884
 21
24.156708
 31
0.0
  0
LINE
  5
331
330
1F
100
AcDbEntity
  8
GR1-1
  6
CONTINUOUS
 62
     7
100
AcDbLine
 10
753.558654
 20
27.012477
 30
0.0
 11
754.459638
 21
27.913462
 31
0.0
  0
LINE
  5
332
330
1F
100
AcDbEntity
  8
GR1-1
  6
CONTINUOUS
 62
     7
100
AcDbLine
 10
749.8019
 20
23.326434
 30
0.0
 11
750.667529
 21
24.192063
 31
0.0
  0
LINE
  5
333
330
1F
100
AcDbEntity
  8
GR1-1
  6
CONTINUOUS
 62
     7
100
AcDbLine
 10
753.523298
 20
27.047832
 30
0.0
 11
754.388928
 21
27.913462
 31
0.0
  0
LINE
  5
334
330
1F
100
AcDbEntity
  8
GR1-1
  6
CONTINUOUS
 62
     7
100
AcDbLine
 10
749.8019
 20
23.397144
 30
0.0
 11
750.632174
 21
24.227418
 31
0.0
  0
LINE
  5
335
330
1F
100
AcDbEntity
  8
GR1-1
  6
CONTINUOUS
 62
     7
100
AcDbLine
 10
753.487943
 20
27.083188
 30
0.0
 11
754.318217
 21
27.913462
 31
0.0
  0
LINE
  5
336
330
1F
100
AcDbEntity
  8
GR1-1
  6
CONTINUOUS
 62
     7
100
AcDbLine
 10
749.8019
 20
23.467855
 30
0.0
 11
750.596818
 21
24.262774
 31
0.0
  0
LINE
  5
337
330
1F
100
AcDbEntity
  8
GR1-1
  6
CONTINUOUS
 62
     7
100
AcDbLine
 10
753.452588
 20
27.118543
 30
0.0
 11
754.247506
 21
27.913462
 31
0.0
  0
LINE
  5
338
330
1F
100
AcDbEntity
  8
GR1-1
  6
CONTINUOUS
 62
     7
100
AcDbLine
 10
749.8019
 20
23.538566
 30
0.0
 11
750.561463
 21
24.298129
 31
0.0
  0
LINE
  5
339
330
1F
100
AcDbEntity
  8
GR1-1
  6
CONTINUOUS
 62
     7
100
AcDbLine
 10
753.417232
 20
27.153898
 30
0.0
 11
754.176796
 21
27.913462
 31
0.0
  0
LINE
  5
33A
330
1F
100
AcDbEntity
  8
GR1-1
  6
CONTINUOUS
 62
     7
100
AcDbLine
 10
749.8019
 20
23.609276
 30
0.0
 11
750.526108
 21
24.333484
 31
0.0
  0
LINE
  5
33B
330
1F
100
AcDbEntity
  8
GR1-1
  6
CONTINUOUS
 62
     7
100
AcDbLine
 10
753.381877
 20
27.189254
 30
0.0
 11
754.106085
 21
27.913462
 31
0.0
  0
LINE
  5
33C
330
1F
100
AcDbEntity
  8
GR1-1
  6
CONTINUOUS
 62
     7
100
AcDbLine
 10
749.8019
 20
23.679987
 30
0.0
 11
750.490752
 21
24.36884
 31
0.0
  0
LINE
  5
33D
330
1F
100
AcDbEntity
  8
GR1-1
  6
CONTINUOUS
 62
     7
100
AcDbLine
 10
753.346522
 20
27.224609
 30
0.0
 11
754.035374
 21
27.913462
 31
0.0
  0
LINE
  5
33E
330
1F
100
AcDbEntity
  8
GR1-1
  6
CONTINUOUS
 62
     7
100
AcDbLine
 10
749.8019
 20
23.750698
 30
0.0
 11
750.455397
 21
24.404195
 31
0.0
  0
LINE
  5
33F
330
1F
100
AcDbEntity
  8
GR1-1
  6
CONTINUOUS
 62
     7
100
AcDbLine
 10
753.311166
 20
27.259964
 30
0.0
 11
753.964664
 21
27.913462
 31
0.0
  0
LINE
  5
340
330
1F
100
AcDbEntity
  8
GR1-1
  6
CONTINUOUS
 62
     7
100
AcDbLine
 10
749.8019
 20
23.821408
 30
0.0
 11
750.420042
 21
24.43955
 31
0.0
  0
LINE
  5
341
330
1F
100
AcDbEntity
  8
GR1-1
  6
CONTINUOUS
 62
     7
100
AcDbLine
 10
753.275811
 20
27.29532
 30
0.0
 11
753.893953
 21
27.913462
 31
0.0
  0
LINE
  5
342
330
1F
100
AcDbEntity
  8
GR1-1
  6
CONTINUOUS
 62
     7
100
AcDbLine
 10
749.8019
 20
23.892119
 30
0.0
 11
750.384686
 21
24.474906
 31
0.0
  0
LINE
  5
343
330
1F
100
AcDbEntity
  8
GR1-1
  6
CONTINUOUS
 62
     7
100
AcDbLine
 10
753.240456
 20
27.330675
 30
0.0
 11
753.823242
 21
27.913462
 31
0.0
  0
LINE
  5
344
330
1F
100
AcDbEntity
  8
GR1-1
  6
CONTINUOUS
 62
     7
100
AcDbLine
 10
749.8019
 20
23.96283
 30
0.0
 11
750.349331
 21
24.510261
 31
0.0
  0
LINE
  5
345
330
1F
100
AcDbEntity
  8
GR1-1
  6
CONTINUOUS
 62
     7
100
AcDbLine
 10
753.2051
 20
27.36603
 30
0.0
 11
753.752531
 21
27.913462
 31
0.0
  0
LINE
  5
346
330
1F
100
AcDbEntity
  8
GR1-1
  6
CONTINUOUS
 62
     7
100
AcDbLine
 10
749.8019
 20
24.033541
 30
0.0
 11
750.313976
 21
24.545616
 31
0.0
  0
LINE
  5
347
330
1F
100
AcDbEntity
  8
GR1-1
  6
CONTINUOUS
 62
     7
100
AcDbLine
 10
753.169745
 20
27.401386
 30
0.0
 11
753.681821
 21
27.913462
 31
0.0
  0
LINE
  5
348
330
1F
100
AcDbEntity
  8
GR1-1
  6
CONTINUOUS
 62
     7
100
AcDbLine
 10
749.8019
 20
24.104251
 30
0.0
 11
750.27862
 21
24.580972
 31
0.0
  0
LINE
  5
349
330
1F
100
AcDbEntity
  8
GR1-1
  6
CONTINUOUS
 62
     7
100
AcDbLine
 10
753.13439
 20
27.436741
 30
0.0
 11
753.61111
 21
27.913462
 31
0.0
  0
LINE
  5
34A
330
1F
100
AcDbEntity
  8
GR1-1
  6
CONTINUOUS
 62
     7
100
AcDbLine
 10
749.8019
 20
24.174962
 30
0.0
 11
750.243265
 21
24.616327
 31
0.0
  0
LINE
  5
34B
330
1F
100
AcDbEntity
  8
GR1-1
  6
CONTINUOUS
 62
     7
100
AcDbLine
 10
753.099034
 20
27.472096
 30
0.0
 11
753.540399
 21
27.913462
 31
0.0
  0
LINE
  5
34C
330
1F
100
AcDbEntity
  8
GR1-1
  6
CONTINUOUS
 62
     7
100
AcDbLine
 10
749.8019
 20
24.245673
 30
0.0
 11
750.20791
 21
24.651682
 31
0.0
  0
LINE
  5
34D
330
1F
100
AcDbEntity
  8
GR1-1
  6
CONTINUOUS
 62
     7
100
AcDbLine
 10
753.063679
 20
27.507452
 30
0.0
 11
753.469689
 21
27.913462
 31
0.0
  0
LINE
  5
34E
330
1F
100
AcDbEntity
  8
GR1-1
  6
CONTINUOUS
 62
     7
100
AcDbLine
 10
749.8019
 20
24.316383
 30
0.0
 11
750.172554
 21
24.687038
 31
0.0
  0
LINE
  5
34F
330
1F
100
AcDbEntity
  8
GR1-1
  6
CONTINUOUS
 62
     7
100
AcDbLine
 10
753.028324
 20
27.542807
 30
0.0
 11
753.398978
 21
27.913462
 31
0.0
  0
LINE
  5
350
330
1F
100
AcDbEntity
  8
GR1-1
  6
CONTINUOUS
 62
     7
100
AcDbLine
 10
749.8019
 20
24.387094
 30
0.0
 11
750.137199
 21
24.722393
 31
0.0
  0
LINE
  5
351
330
1F
100
AcDbEntity
  8
GR1-1
  6
CONTINUOUS
 62
     7
100
AcDbLine
 10
752.992968
 20
27.578162
 30
0.0
 11
753.328267
 21
27.913462
 31
0.0
  0
LINE
  5
352
330
1F
100
AcDbEntity
  8
GR1-1
  6
CONTINUOUS
 62
     7
100
AcDbLine
 10
749.8019
 20
24.457805
 30
0.0
 11
750.101844
 21
24.757748
 31
0.0
  0
LINE
  5
353
330
1F
100
AcDbEntity
  8
GR1-1
  6
CONTINUOUS
 62
     7
100
AcDbLine
 10
752.957613
 20
27.613518
 30
0.0
 11
753.257557
 21
27.913462
 31
0.0
  0
LINE
  5
354
330
1F
100
AcDbEntity
  8
GR1-1
  6
CONTINUOUS
 62
     7
100
AcDbLine
 10
749.8019
 20
24.528515
 30
0.0
 11
750.066488
 21
24.793104
 31
0.0
  0
LINE
  5
355
330
1F
100
AcDbEntity
  8
GR1-1
  6
CONTINUOUS
 62
     7
100
AcDbLine
 10
752.922258
 20
27.648873
 30
0.0
 11
753.186846
 21
27.913462
 31
0.0
  0
LINE
  5
356
330
1F
100
AcDbEntity
  8
GR1-1
  6
CONTINUOUS
 62
     7
100
AcDbLine
 10
749.8019
 20
24.599226
 30
0.0
 11
750.031133
 21
24.828459
 31
0.0
  0
LINE
  5
357
330
1F
100
AcDbEntity
  8
GR1-1
  6
CONTINUOUS
 62
     7
100
AcDbLine
 10
752.886902
 20
27.684228
 30
0.0
 11
753.116135
 21
27.913462
 31
0.0
  0
LINE
  5
358
330
1F
100
AcDbEntity
  8
GR1-1
  6
CONTINUOUS
 62
     7
100
AcDbLine
 10
749.8019
 20
24.669937
 30
0.0
 11
749.995778
 21
24.863814
 31
0.0
  0
LINE
  5
359
330
1F
100
AcDbEntity
  8
GR1-1
  6
CONTINUOUS
 62
     7
100
AcDbLine
 10
752.851547
 20
27.719584
 30
0.0
 11
753.045425
 21
27.913462
 31
0.0
  0
LINE
  5
35A
330
1F
100
AcDbEntity
  8
GR1-1
  6
CONTINUOUS
 62
     7
100
AcDbLine
 10
749.8019
 20
24.740647
 30
0.0
 11
749.960422
 21
24.89917
 31
0.0
  0
LINE
  5
35B
330
1F
100
AcDbEntity
  8
GR1-1
  6
CONTINUOUS
 62
     7
100
AcDbLine
 10
752.816192
 20
27.754939
 30
0.0
 11
752.974714
 21
27.913462
 31
0.0
  0
LINE
  5
35C
330
1F
100
AcDbEntity
  8
GR1-1
  6
CONTINUOUS
 62
     7
100
AcDbLine
 10
749.8019
 20
24.811358
 30
0.0
 11
752.904003
 21
27.913462
 31
0.0
  0
LINE
  5
35D
330
1F
100
AcDbEntity
  8
GR1-1
  6
CONTINUOUS
 62
     7
100
AcDbLine
 10
749.8019
 20
24.882069
 30
0.0
 11
752.833293
 21
27.913462
 31
0.0
  0
LINE
  5
35E
330
1F
100
AcDbEntity
  8
GR1-1
  6
CONTINUOUS
 62
     7
100
AcDbLine
 10
749.8019
 20
24.952779
 30
0.0
 11
752.762582
 21
27.913462
 31
0.0
  0
LINE
  5
35F
330
1F
100
AcDbEntity
  8
GR1-1
  6
CONTINUOUS
 62
     7
100
AcDbLine
 10
749.8019
 20
25.02349
 30
0.0
 11
752.691871
 21
27.913462
 31
0.0
  0
LINE
  5
360
330
1F
100
AcDbEntity
  8
GR1-1
  6
CONTINUOUS
 62
     7
100
AcDbLine
 10
749.8019
 20
25.094201
 30
0.0
 11
752.621161
 21
27.913462
 31
0.0
  0
LINE
  5
361
330
1F
100
AcDbEntity
  8
GR1-1
  6
CONTINUOUS
 62
     7
100
AcDbLine
 10
749.8019
 20
25.164911
 30
0.0
 11
752.55045
 21
27.913462
 31
0.0
  0
LINE
  5
362
330
1F
100
AcDbEntity
  8
GR1-1
  6
CONTINUOUS
 62
     7
100
AcDbLine
 10
749.8019
 20
25.235622
 30
0.0
 11
752.479739
 21
27.913462
 31
0.0
  0
LINE
  5
363
330
1F
100
AcDbEntity
  8
GR1-1
  6
CONTINUOUS
 62
     7
100
AcDbLine
 10
749.8019
 20
25.306333
 30
0.0
 11
752.409029
 21
27.913462
 31
0.0
  0
LINE
  5
364
330
1F
100
AcDbEntity
  8
GR1-1
  6
CONTINUOUS
 62
     7
100
AcDbLine
 10
749.8019
 20
25.377043
 30
0.0
 11
752.338318
 21
27.913462
 31
0.0
  0
LINE
  5
365
330
1F
100
AcDbEntity
  8
GR1-1
  6
CONTINUOUS
 62
     7
100
AcDbLine
 10
749.8019
 20
25.447754
 30
0.0
 11
752.267607
 21
27.913462
 31
0.0
  0
LINE
  5
366
330
1F
100
AcDbEntity
  8
GR1-1
  6
CONTINUOUS
 62
     7
100
AcDbLine
 10
749.8019
 20
25.518465
 30
0.0
 11
752.196897
 21
27.913462
 31
0.0
  0
LINE
  5
367
330
1F
100
AcDbEntity
  8
GR1-1
  6
CONTINUOUS
 62
     7
100
AcDbLine
 10
749.8019
 20
25.589175
 30
0.0
 11
752.126186
 21
27.913462
 31
0.0
  0
LINE
  5
368
330
1F
100
AcDbEntity
  8
GR1-1
  6
CONTINUOUS
 62
     7
100
AcDbLine
 10
749.8019
 20
25.659886
 30
0.0
 11
752.055475
 21
27.913462
 31
0.0
  0
LINE
  5
369
330
1F
100
AcDbEntity
  8
GR1-1
  6
CONTINUOUS
 62
     7
100
AcDbLine
 10
749.8019
 20
25.730597
 30
0.0
 11
751.984765
 21
27.913462
 31
0.0
  0
LINE
  5
36A
330
1F
100
AcDbEntity
  8
GR1-1
  6
CONTINUOUS
 62
     7
100
AcDbLine
 10
749.8019
 20
25.801307
 30
0.0
 11
751.914054
 21
27.913462
 31
0.0
  0
LINE
  5
36B
330
1F
100
AcDbEntity
  8
GR1-1
  6
CONTINUOUS
 62
     7
100
AcDbLine
 10
749.8019
 20
25.872018
 30
0.0
 11
751.843343
 21
27.913462
 31
0.0
  0
LINE
  5
36C
330
1F
100
AcDbEntity
  8
GR1-1
  6
CONTINUOUS
 62
     7
100
AcDbLine
 10
749.8019
 20
25.942729
 30
0.0
 11
751.772632
 21
27.913462
 31
0.0
  0
LINE
  5
36D
330
1F
100
AcDbEntity
  8
GR1-1
  6
CONTINUOUS
 62
     7
100
AcDbLine
 10
749.8019
 20
26.013439
 30
0.0
 11
751.701922
 21
27.913462
 31
0.0
  0
LINE
  5
36E
330
1F
100
AcDbEntity
  8
GR1-1
  6
CONTINUOUS
 62
     7
100
AcDbLine
 10
749.8019
 20
26.08415
 30
0.0
 11
751.631211
 21
27.913462
 31
0.0
  0
LINE
  5
36F
330
1F
100
AcDbEntity
  8
GR1-1
  6
CONTINUOUS
 62
     7
100
AcDbLine
 10
749.8019
 20
26.154861
 30
0.0
 11
751.5605
 21
27.913462
 31
0.0
  0
LINE
  5
370
330
1F
100
AcDbEntity
  8
GR1-1
  6
CONTINUOUS
 62
     7
100
AcDbLine
 10
749.8019
 20
26.225572
 30
0.0
 11
751.48979
 21
27.913462
 31
0.0
  0
LINE
  5
371
330
1F
100
AcDbEntity
  8
GR1-1
  6
CONTINUOUS
 62
     7
100
AcDbLine
 10
749.8019
 20
26.296282
 30
0.0
 11
751.419079
 21
27.913462
 31
0.0
  0
LINE
  5
372
330
1F
100
AcDbEntity
  8
GR1-1
  6
CONTINUOUS
 62
     7
100
AcDbLine
 10
749.8019
 20
26.366993
 30
0.0
 11
751.348368
 21
27.913462
 31
0.0
  0
LINE
  5
373
330
1F
100
AcDbEntity
  8
GR1-1
  6
CONTINUOUS
 62
     7
100
AcDbLine
 10
749.8019
 20
26.437704
 30
0.0
 11
751.277658
 21
27.913462
 31
0.0
  0
LINE
  5
374
330
1F
100
AcDbEntity
  8
GR1-1
  6
CONTINUOUS
 62
     7
100
AcDbLine
 10
749.8019
 20
26.508414
 30
0.0
 11
751.206947
 21
27.913462
 31
0.0
  0
LINE
  5
375
330
1F
100
AcDbEntity
  8
GR1-1
  6
CONTINUOUS
 62
     7
100
AcDbLine
 10
749.8019
 20
26.579125
 30
0.0
 11
751.136236
 21
27.913462
 31
0.0
  0
LINE
  5
376
330
1F
100
AcDbEntity
  8
GR1-1
  6
CONTINUOUS
 62
     7
100
AcDbLine
 10
749.8019
 20
26.649836
 30
0.0
 11
751.065526
 21
27.913462
 31
0.0
  0
LINE
  5
377
330
1F
100
AcDbEntity
  8
GR1-1
  6
CONTINUOUS
 62
     7
100
AcDbLine
 10
749.8019
 20
26.720546
 30
0.0
 11
750.994815
 21
27.913462
 31
0.0
  0
LINE
  5
378
330
1F
100
AcDbEntity
  8
GR1-1
  6
CONTINUOUS
 62
     7
100
AcDbLine
 10
749.8019
 20
26.791257
 30
0.0
 11
750.924104
 21
27.913462
 31
0.0
  0
LINE
  5
379
330
1F
100
AcDbEntity
  8
GR1-1
  6
CONTINUOUS
 62
     7
100
AcDbLine
 10
749.8019
 20
26.861968
 30
0.0
 11
750.853394
 21
27.913462
 31
0.0
  0
LINE
  5
37A
330
1F
100
AcDbEntity
  8
GR1-1
  6
CONTINUOUS
 62
     7
100
AcDbLine
 10
749.8019
 20
26.932678
 30
0.0
 11
750.782683
 21
27.913462
 31
0.0
  0
LINE
  5
37B
330
1F
100
AcDbEntity
  8
GR1-1
  6
CONTINUOUS
 62
     7
100
AcDbLine
 10
749.8019
 20
27.003389
 30
0.0
 11
750.711972
 21
27.913462
 31
0.0
  0
LINE
  5
37C
330
1F
100
AcDbEntity
  8
GR1-1
  6
CONTINUOUS
 62
     7
100
AcDbLine
 10
749.8019
 20
27.0741
 30
0.0
 11
750.641262
 21
27.913462
 31
0.0
  0
LINE
  5
37D
330
1F
100
AcDbEntity
  8
GR1-1
  6
CONTINUOUS
 62
     7
100
AcDbLine
 10
749.8019
 20
27.14481
 30
0.0
 11
750.570551
 21
27.913462
 31
0.0
  0
LINE
  5
37E
330
1F
100
AcDbEntity
  8
GR1-1
  6
CONTINUOUS
 62
     7
100
AcDbLine
 10
749.8019
 20
27.215521
 30
0.0
 11
750.49984
 21
27.913462
 31
0.0
  0
LINE
  5
37F
330
1F
100
AcDbEntity
  8
GR1-1
  6
CONTINUOUS
 62
     7
100
AcDbLine
 10
749.8019
 20
27.286232
 30
0.0
 11
750.42913
 21
27.913462
 31
0.0
  0
LINE
  5
380
330
1F
100
AcDbEntity
  8
GR1-1
  6
CONTINUOUS
 62
     7
100
AcDbLine
 10
749.8019
 20
27.356942
 30
0.0
 11
750.358419
 21
27.913462
 31
0.0
  0
LINE
  5
381
330
1F
100
AcDbEntity
  8
GR1-1
  6
CONTINUOUS
 62
     7
100
AcDbLine
 10
749.8019
 20
27.427653
 30
0.0
 11
750.287708
 21
27.913462
 31
0.0
  0
LINE
  5
382
330
1F
100
AcDbEntity
  8
GR1-1
  6
CONTINUOUS
 62
     7
100
AcDbLine
 10
749.8019
 20
27.498364
 30
0.0
 11
750.216998
 21
27.913462
 31
0.0
  0
LINE
  5
383
330
1F
100
AcDbEntity
  8
GR1-1
  6
CONTINUOUS
 62
     7
100
AcDbLine
 10
749.8019
 20
27.569074
 30
0.0
 11
750.146287
 21
27.913462
 31
0.0
  0
LINE
  5
384
330
1F
100
AcDbEntity
  8
GR1-1
  6
CONTINUOUS
 62
     7
100
AcDbLine
 10
749.8019
 20
27.639785
 30
0.0
 11
750.075576
 21
27.913462
 31
0.0
  0
LINE
  5
385
330
1F
100
AcDbEntity
  8
GR1-1
  6
CONTINUOUS
 62
     7
100
AcDbLine
 10
749.8019
 20
27.710496
 30
0.0
 11
750.004866
 21
27.913462
 31
0.0
  0
LINE
  5
386
330
1F
100
AcDbEntity
  8
GR1-1
  6
CONTINUOUS
 62
     7
100
AcDbLine
 10
749.8019
 20
27.781206
 30
0.0
 11
749.934155
 21
27.913462
 31
0.0
  0
LINE
  5
387
330
1F
100
AcDbEntity
  8
GR1-1
  6
CONTINUOUS
 62
     7
100
AcDbLine
 10
749.8019
 20
27.851917
 30
0.0
 11
749.863444
 21
27.913462
 31
0.0
  0
LINE
  5
388
330
1F
100
AcDbEntity
  8
GR1-1
  6
CONTINUOUS
 62
     7
100
AcDbLine
 10
750.793091
 20
21.913462
 30
0.0
 11
751.869611
 21
22.989981
 31
0.0
  0
LINE
  5
389
330
1F
100
AcDbEntity
  8
GR1-1
  6
CONTINUOUS
 62
     7
100
AcDbLine
 10
752.685957
 20
23.806328
 30
0.0
 11
753.014245
 21
24.134615
 31
0.0
  0
LINE
  5
38A
330
1F
100
AcDbEntity
  8
GR1-1
  6
CONTINUOUS
 62
     7
100
AcDbLine
 10
753.879629
 20
25.0
 30
0.0
 11
754.225783
 21
25.346154
 31
0.0
  0
LINE
  5
38B
330
1F
100
AcDbEntity
  8
GR1-1
  6
CONTINUOUS
 62
     7
100
AcDbLine
 10
754.72538
 20
25.845751
 30
0.0
 11
755.8019
 21
26.922271
 31
0.0
  0
LINE
  5
38C
330
1F
100
AcDbEntity
  8
GR1-1
  6
CONTINUOUS
 62
     7
100
AcDbLine
 10
750.863801
 20
21.913462
 30
0.0
 11
751.904966
 21
22.954626
 31
0.0
  0
LINE
  5
38D
330
1F
100
AcDbEntity
  8
GR1-1
  6
CONTINUOUS
 62
     7
100
AcDbLine
 10
752.721312
 20
23.770972
 30
0.0
 11
753.084955
 21
24.134615
 31
0.0
  0
LINE
  5
38E
330
1F
100
AcDbEntity
  8
GR1-1
  6
CONTINUOUS
 62
     7
100
AcDbLine
 10
753.95034
 20
25.0
 30
0.0
 11
754.296494
 21
25.346154
 31
0.0
  0
LINE
  5
38F
330
1F
100
AcDbEntity
  8
GR1-1
  6
CONTINUOUS
 62
     7
100
AcDbLine
 10
754.760735
 20
25.810395
 30
0.0
 11
755.8019
 21
26.85156
 31
0.0
  0
LINE
  5
390
330
1F
100
AcDbEntity
  8
GR1-1
  6
CONTINUOUS
 62
     7
100
AcDbLine
 10
750.934512
 20
21.913462
 30
0.0
 11
751.940321
 21
22.919271
 31
0.0
  0
LINE
  5
391
330
1F
100
AcDbEntity
  8
GR1-1
  6
CONTINUOUS
 62
     7
100
AcDbLine
 10
752.756667
 20
23.735617
 30
0.0
 11
753.155666
 21
24.134615
 31
0.0
  0
LINE
  5
392
330
1F
100
AcDbEntity
  8
GR1-1
  6
CONTINUOUS
 62
     7
100
AcDbLine
 10
754.02105
 20
25.0
 30
0.0
 11
754.367204
 21
25.346154
 31
0.0
  0
LINE
  5
393
330
1F
100
AcDbEntity
  8
GR1-1
  6
CONTINUOUS
 62
     7
100
AcDbLine
 10
754.79609
 20
25.77504
 30
0.0
 11
755.8019
 21
26.780849
 31
0.0
  0
LINE
  5
394
330
1F
100
AcDbEntity
  8
GR1-1
  6
CONTINUOUS
 62
     7
100
AcDbLine
 10
751.005223
 20
21.913462
 30
0.0
 11
751.975677
 21
22.883915
 31
0.0
  0
LINE
  5
395
330
1F
100
AcDbEntity
  8
GR1-1
  6
CONTINUOUS
 62
     7
100
AcDbLine
 10
752.792023
 20
23.700262
 30
0.0
 11
753.226377
 21
24.134615
 31
0.0
  0
LINE
  5
396
330
1F
100
AcDbEntity
  8
GR1-1
  6
CONTINUOUS
 62
     7
100
AcDbLine
 10
754.091761
 20
25.0
 30
0.0
 11
754.437915
 21
25.346154
 31
0.0
  0
LINE
  5
397
330
1F
100
AcDbEntity
  8
GR1-1
  6
CONTINUOUS
 62
     7
100
AcDbLine
 10
754.831446
 20
25.739685
 30
0.0
 11
755.8019
 21
26.710139
 31
0.0
  0
LINE
  5
398
330
1F
100
AcDbEntity
  8
GR1-1
  6
CONTINUOUS
 62
     7
100
AcDbLine
 10
751.075933
 20
21.913462
 30
0.0
 11
752.011032
 21
22.84856
 31
0.0
  0
LINE
  5
399
330
1F
100
AcDbEntity
  8
GR1-1
  6
CONTINUOUS
 62
     7
100
AcDbLine
 10
754.162472
 20
25.0
 30
0.0
 11
754.508626
 21
25.346154
 31
0.0
  0
LINE
  5
39A
330
1F
100
AcDbEntity
  8
GR1-1
  6
CONTINUOUS
 62
     7
100
AcDbLine
 10
754.866801
 20
25.704329
 30
0.0
 11
755.8019
 21
26.639428
 31
0.0
  0
LINE
  5
39B
330
1F
100
AcDbEntity
  8
GR1-1
  6
CONTINUOUS
 62
     7
100
AcDbLine
 10
751.146644
 20
21.913462
 30
0.0
 11
752.046387
 21
22.813205
 31
0.0
  0
LINE
  5
39C
330
1F
100
AcDbEntity
  8
GR1-1
  6
CONTINUOUS
 62
     7
100
AcDbLine
 10
754.233183
 20
25.0
 30
0.0
 11
754.579336
 21
25.346154
 31
0.0
  0
LINE
  5
39D
330
1F
100
AcDbEntity
  8
GR1-1
  6
CONTINUOUS
 62
     7
100
AcDbLine
 10
754.902157
 20
25.668974
 30
0.0
 11
755.8019
 21
26.568717
 31
0.0
  0
LINE
  5
39E
330
1F
100
AcDbEntity
  8
GR1-1
  6
CONTINUOUS
 62
     7
100
AcDbLine
 10
751.217355
 20
21.913462
 30
0.0
 11
752.081743
 21
22.777849
 31
0.0
  0
LINE
  5
39F
330
1F
100
AcDbEntity
  8
GR1-1
  6
CONTINUOUS
 62
     7
100
AcDbLine
 10
754.303893
 20
25.0
 30
0.0
 11
754.650047
 21
25.346154
 31
0.0
  0
LINE
  5
3A0
330
1F
100
AcDbEntity
  8
GR1-1
  6
CONTINUOUS
 62
     7
100
AcDbLine
 10
754.937512
 20
25.633619
 30
0.0
 11
755.8019
 21
26.498007
 31
0.0
  0
LINE
  5
3A1
330
1F
100
AcDbEntity
  8
GR1-1
  6
CONTINUOUS
 62
     7
100
AcDbLine
 10
751.288065
 20
21.913462
 30
0.0
 11
752.117098
 21
22.742494
 31
0.0
  0
LINE
  5
3A2
330
1F
100
AcDbEntity
  8
GR1-1
  6
CONTINUOUS
 62
     7
100
AcDbLine
 10
754.374604
 20
25.0
 30
0.0
 11
754.720758
 21
25.346154
 31
0.0
  0
LINE
  5
3A3
330
1F
100
AcDbEntity
  8
GR1-1
  6
CONTINUOUS
 62
     7
100
AcDbLine
 10
754.972867
 20
25.598263
 30
0.0
 11
755.8019
 21
26.427296
 31
0.0
  0
LINE
  5
3A4
330
1F
100
AcDbEntity
  8
GR1-1
  6
CONTINUOUS
 62
     7
100
AcDbLine
 10
751.358776
 20
21.913462
 30
0.0
 11
752.152453
 21
22.707139
 31
0.0
  0
LINE
  5
3A5
330
1F
100
AcDbEntity
  8
GR1-1
  6
CONTINUOUS
 62
     7
100
AcDbLine
 10
754.445315
 20
25.0
 30
0.0
 11
754.791468
 21
25.346154
 31
0.0
  0
LINE
  5
3A6
330
1F
100
AcDbEntity
  8
GR1-1
  6
CONTINUOUS
 62
     7
100
AcDbLine
 10
755.008223
 20
25.562908
 30
0.0
 11
755.8019
 21
26.356585
 31
0.0
  0
LINE
  5
3A7
330
1F
100
AcDbEntity
  8
GR1-1
  6
CONTINUOUS
 62
     7
100
AcDbLine
 10
751.429487
 20
21.913462
 30
0.0
 11
752.187809
 21
22.671783
 31
0.0
  0
LINE
  5
3A8
330
1F
100
AcDbEntity
  8
GR1-1
  6
CONTINUOUS
 62
     7
100
AcDbLine
 10
754.516025
 20
25.0
 30
0.0
 11
754.862179
 21
25.346154
 31
0.0
  0
LINE
  5
3A9
330
1F
100
AcDbEntity
  8
GR1-1
  6
CONTINUOUS
 62
     7
100
AcDbLine
 10
755.043578
 20
25.527553
 30
0.0
 11
755.8019
 21
26.285875
 31
0.0
  0
LINE
  5
3AA
330
1F
100
AcDbEntity
  8
GR1-1
  6
CONTINUOUS
 62
     7
100
AcDbLine
 10
751.500197
 20
21.913462
 30
0.0
 11
752.223164
 21
22.636428
 31
0.0
  0
LINE
  5
3AB
330
1F
100
AcDbEntity
  8
GR1-1
  6
CONTINUOUS
 62
     7
100
AcDbLine
 10
754.586736
 20
25.0
 30
0.0
 11
754.93289
 21
25.346154
 31
0.0
  0
LINE
  5
3AC
330
1F
100
AcDbEntity
  8
GR1-1
  6
CONTINUOUS
 62
     7
100
AcDbLine
 10
755.078933
 20
25.492197
 30
0.0
 11
755.8019
 21
26.215164
 31
0.0
  0
LINE
  5
3AD
330
1F
100
AcDbEntity
  8
GR1-1
  6
CONTINUOUS
 62
     7
100
AcDbLine
 10
751.570908
 20
21.913462
 30
0.0
 11
752.258519
 21
22.601073
 31
0.0
  0
LINE
  5
3AE
330
1F
100
AcDbEntity
  8
GR1-1
  6
CONTINUOUS
 62
     7
100
AcDbLine
 10
754.657447
 20
25.0
 30
0.0
 11
755.0036
 21
25.346154
 31
0.0
  0
LINE
  5
3AF
330
1F
100
AcDbEntity
  8
GR1-1
  6
CONTINUOUS
 62
     7
100
AcDbLine
 10
755.114289
 20
25.456842
 30
0.0
 11
755.8019
 21
26.144453
 31
0.0
  0
LINE
  5
3B0
330
1F
100
AcDbEntity
  8
GR1-1
  6
CONTINUOUS
 62
     7
100
AcDbLine
 10
751.641619
 20
21.913462
 30
0.0
 11
752.293875
 21
22.565717
 31
0.0
  0
LINE
  5
3B1
330
1F
100
AcDbEntity
  8
GR1-1
  6
CONTINUOUS
 62
     7
100
AcDbLine
 10
754.728157
 20
25.0
 30
0.0
 11
755.074311
 21
25.346154
 31
0.0
  0
LINE
  5
3B2
330
1F
100
AcDbEntity
  8
GR1-1
  6
CONTINUOUS
 62
     7
100
AcDbLine
 10
755.149644
 20
25.421487
 30
0.0
 11
755.8019
 21
26.073743
 31
0.0
  0
LINE
  5
3B3
330
1F
100
AcDbEntity
  8
GR1-1
  6
CONTINUOUS
 62
     7
100
AcDbLine
 10
751.712329
 20
21.913462
 30
0.0
 11
752.32923
 21
22.530362
 31
0.0
  0
LINE
  5
3B4
330
1F
100
AcDbEntity
  8
GR1-1
  6
CONTINUOUS
 62
     7
100
AcDbLine
 10
754.798868
 20
25.0
 30
0.0
 11
755.145022
 21
25.346154
 31
0.0
  0
LINE
  5
3B5
330
1F
100
AcDbEntity
  8
GR1-1
  6
CONTINUOUS
 62
     7
100
AcDbLine
 10
755.184999
 20
25.386131
 30
0.0
 11
755.8019
 21
26.003032
 31
0.0
  0
LINE
  5
3B6
330
1F
100
AcDbEntity
  8
GR1-1
  6
CONTINUOUS
 62
     7
100
AcDbLine
 10
751.78304
 20
21.913462
 30
0.0
 11
752.364585
 21
22.495007
 31
0.0
  0
LINE
  5
3B7
330
1F
100
AcDbEntity
  8
GR1-1
  6
CONTINUOUS
 62
     7
100
AcDbLine
 10
754.869579
 20
25.0
 30
0.0
 11
755.215732
 21
25.346154
 31
0.0
  0
LINE
  5
3B8
330
1F
100
AcDbEntity
  8
GR1-1
  6
CONTINUOUS
 62
     7
100
AcDbLine
 10
755.220355
 20
25.350776
 30
0.0
 11
755.8019
 21
25.932321
 31
0.0
  0
LINE
  5
3B9
330
1F
100
AcDbEntity
  8
GR1-1
  6
CONTINUOUS
 62
     7
100
AcDbLine
 10
751.853751
 20
21.913462
 30
0.0
 11
752.399941
 21
22.459651
 31
0.0
  0
LINE
  5
3BA
330
1F
100
AcDbEntity
  8
GR1-1
  6
CONTINUOUS
 62
     7
100
AcDbLine
 10
754.940289
 20
25.0
 30
0.0
 11
755.8019
 21
25.86161
 31
0.0
  0
LINE
  5
3BB
330
1F
100
AcDbEntity
  8
GR1-1
  6
CONTINUOUS
 62
     7
100
AcDbLine
 10
751.924461
 20
21.913462
 30
0.0
 11
752.435296
 21
22.424296
 31
0.0
  0
LINE
  5
3BC
330
1F
100
AcDbEntity
  8
GR1-1
  6
CONTINUOUS
 62
     7
100
AcDbLine
 10
755.011
 20
25.0
 30
0.0
 11
755.8019
 21
25.7909
 31
0.0
  0
LINE
  5
3BD
330
1F
100
AcDbEntity
  8
GR1-1
  6
CONTINUOUS
 62
     7
100
AcDbLine
 10
751.995172
 20
21.913462
 30
0.0
 11
752.470651
 21
22.388941
 31
0.0
  0
LINE
  5
3BE
330
1F
100
AcDbEntity
  8
GR1-1
  6
CONTINUOUS
 62
     7
100
AcDbLine
 10
755.081711
 20
25.0
 30
0.0
 11
755.8019
 21
25.720189
 31
0.0
  0
LINE
  5
3BF
330
1F
100
AcDbEntity
  8
GR1-1
  6
CONTINUOUS
 62
     7
100
AcDbLine
 10
752.065883
 20
21.913462
 30
0.0
 11
752.506007
 21
22.353585
 31
0.0
  0
LINE
  5
3C0
330
1F
100
AcDbEntity
  8
GR1-1
  6
CONTINUOUS
 62
     7
100
AcDbLine
 10
755.152421
 20
25.0
 30
0.0
 11
755.8019
 21
25.649478
 31
0.0
  0
LINE
  5
3C1
330
1F
100
AcDbEntity
  8
GR1-1
  6
CONTINUOUS
 62
     7
100
AcDbLine
 10
752.136594
 20
21.913462
 30
0.0
 11
752.541362
 21
22.31823
 31
0.0
  0
LINE
  5
3C2
330
1F
100
AcDbEntity
  8
GR1-1
  6
CONTINUOUS
 62
     7
100
AcDbLine
 10
755.223132
 20
25.0
 30
0.0
 11
755.8019
 21
25.578768
 31
0.0
  0
LINE
  5
3C3
330
1F
100
AcDbEntity
  8
GR1-1
  6
CONTINUOUS
 62
     7
100
AcDbLine
 10
752.207304
 20
21.913462
 30
0.0
 11
752.576717
 21
22.282875
 31
0.0
  0
LINE
  5
3C4
330
1F
100
AcDbEntity
  8
GR1-1
  6
CONTINUOUS
 62
     7
100
AcDbLine
 10
755.224977
 20
24.931134
 30
0.0
 11
755.8019
 21
25.508057
 31
0.0
  0
LINE
  5
3C5
330
1F
100
AcDbEntity
  8
GR1-1
  6
CONTINUOUS
 62
     7
100
AcDbLine
 10
752.278015
 20
21.913462
 30
0.0
 11
752.612073
 21
22.247519
 31
0.0
  0
LINE
  5
3C6
330
1F
100
AcDbEntity
  8
GR1-1
  6
CONTINUOUS
 62
     7
100
AcDbLine
 10
755.224977
 20
24.860423
 30
0.0
 11
755.8019
 21
25.437346
 31
0.0
  0
LINE
  5
3C7
330
1F
100
AcDbEntity
  8
GR1-1
  6
CONTINUOUS
 62
     7
100
AcDbLine
 10
752.348726
 20
21.913462
 30
0.0
 11
752.647428
 21
22.212164
 31
0.0
  0
LINE
  5
3C8
330
1F
100
AcDbEntity
  8
GR1-1
  6
CONTINUOUS
 62
     7
100
AcDbLine
 10
755.224977
 20
24.789713
 30
0.0
 11
755.8019
 21
25.366636
 31
0.0
  0
LINE
  5
3C9
330
1F
100
AcDbEntity
  8
GR1-1
  6
CONTINUOUS
 62
     7
100
AcDbLine
 10
752.419436
 20
21.913462
 30
0.0
 11
752.682783
 21
22.176809
 31
0.0
  0
LINE
  5
3CA
330
1F
100
AcDbEntity
  8
GR1-1
  6
CONTINUOUS
 62
     7
100
AcDbLine
 10
755.224977
 20
24.719002
 30
0.0
 11
755.8019
 21
25.295925
 31
0.0
  0
LINE
  5
3CB
330
1F
100
AcDbEntity
  8
GR1-1
  6
CONTINUOUS
 62
     7
100
AcDbLine
 10
752.490147
 20
21.913462
 30
0.0
 11
752.718139
 21
22.141453
 31
0.0
  0
LINE
  5
3CC
330
1F
100
AcDbEntity
  8
GR1-1
  6
CONTINUOUS
 62
     7
100
AcDbLine
 10
755.224977
 20
24.648291
 30
0.0
 11
755.8019
 21
25.225214
 31
0.0
  0
LINE
  5
3CD
330
1F
100
AcDbEntity
  8
GR1-1
  6
CONTINUOUS
 62
     7
100
AcDbLine
 10
752.560858
 20
21.913462
 30
0.0
 11
752.753494
 21
22.106098
 31
0.0
  0
LINE
  5
3CE
330
1F
100
AcDbEntity
  8
GR1-1
  6
CONTINUOUS
 62
     7
100
AcDbLine
 10
755.224977
 20
24.577581
 30
0.0
 11
755.8019
 21
25.154504
 31
0.0
  0
LINE
  5
3CF
330
1F
100
AcDbEntity
  8
GR1-1
  6
CONTINUOUS
 62
     7
100
AcDbLine
 10
752.631568
 20
21.913462
 30
0.0
 11
752.788849
 21
22.070743
 31
0.0
  0
LINE
  5
3D0
330
1F
100
AcDbEntity
  8
GR1-1
  6
CONTINUOUS
 62
     7
100
AcDbLine
 10
755.224977
 20
24.50687
 30
0.0
 11
755.8019
 21
25.083793
 31
0.0
  0
LINE
  5
3D1
330
1F
100
AcDbEntity
  8
GR1-1
  6
CONTINUOUS
 62
     7
100
AcDbLine
 10
752.702279
 20
21.913462
 30
0.0
 11
754.359592
 21
23.570775
 31
0.0
  0
LINE
  5
3D2
330
1F
100
AcDbEntity
  8
GR1-1
  6
CONTINUOUS
 62
     7
100
AcDbLine
 10
755.224977
 20
24.436159
 30
0.0
 11
755.8019
 21
25.013082
 31
0.0
  0
LINE
  5
3D3
330
1F
100
AcDbEntity
  8
GR1-1
  6
CONTINUOUS
 62
     7
100
AcDbLine
 10
752.77299
 20
21.913462
 30
0.0
 11
754.359592
 21
23.500064
 31
0.0
  0
LINE
  5
3D4
330
1F
100
AcDbEntity
  8
GR1-1
  6
CONTINUOUS
 62
     7
100
AcDbLine
 10
755.224977
 20
24.365449
 30
0.0
 11
755.8019
 21
24.942372
 31
0.0
  0
LINE
  5
3D5
330
1F
100
AcDbEntity
  8
GR1-1
  6
CONTINUOUS
 62
     7
100
AcDbLine
 10
752.8437
 20
21.913462
 30
0.0
 11
754.359592
 21
23.429353
 31
0.0
  0
LINE
  5
3D6
330
1F
100
AcDbEntity
  8
GR1-1
  6
CONTINUOUS
 62
     7
100
AcDbLine
 10
755.224977
 20
24.294738
 30
0.0
 11
755.8019
 21
24.871661
 31
0.0
  0
LINE
  5
3D7
330
1F
100
AcDbEntity
  8
GR1-1
  6
CONTINUOUS
 62
     7
100
AcDbLine
 10
752.914411
 20
21.913462
 30
0.0
 11
754.359592
 21
23.358643
 31
0.0
  0
LINE
  5
3D8
330
1F
100
AcDbEntity
  8
GR1-1
  6
CONTINUOUS
 62
     7
100
AcDbLine
 10
755.224977
 20
24.224027
 30
0.0
 11
755.8019
 21
24.80095
 31
0.0
  0
LINE
  5
3D9
330
1F
100
AcDbEntity
  8
GR1-1
  6
CONTINUOUS
 62
     7
100
AcDbLine
 10
752.985122
 20
21.913462
 30
0.0
 11
754.359592
 21
23.287932
 31
0.0
  0
LINE
  5
3DA
330
1F
100
AcDbEntity
  8
GR1-1
  6
CONTINUOUS
 62
     7
100
AcDbLine
 10
755.224977
 20
24.153317
 30
0.0
 11
755.8019
 21
24.73024
 31
0.0
  0
LINE
  5
3DB
330
1F
100
AcDbEntity
  8
GR1-1
  6
CONTINUOUS
 62
     7
100
AcDbLine
 10
753.055832
 20
21.913462
 30
0.0
 11
754.359592
 21
23.217221
 31
0.0
  0
LINE
  5
3DC
330
1F
100
AcDbEntity
  8
GR1-1
  6
CONTINUOUS
 62
     7
100
AcDbLine
 10
755.224977
 20
24.082606
 30
0.0
 11
755.8019
 21
24.659529
 31
0.0
  0
LINE
  5
3DD
330
1F
100
AcDbEntity
  8
GR1-1
  6
CONTINUOUS
 62
     7
100
AcDbLine
 10
753.126543
 20
21.913462
 30
0.0
 11
754.359592
 21
23.146511
 31
0.0
  0
LINE
  5
3DE
330
1F
100
AcDbEntity
  8
GR1-1
  6
CONTINUOUS
 62
     7
100
AcDbLine
 10
755.224977
 20
24.011895
 30
0.0
 11
755.8019
 21
24.588818
 31
0.0
  0
LINE
  5
3DF
330
1F
100
AcDbEntity
  8
GR1-1
  6
CONTINUOUS
 62
     7
100
AcDbLine
 10
753.197254
 20
21.913462
 30
0.0
 11
754.359592
 21
23.0758
 31
0.0
  0
LINE
  5
3E0
330
1F
100
AcDbEntity
  8
GR1-1
  6
CONTINUOUS
 62
     7
100
AcDbLine
 10
755.224977
 20
23.941185
 30
0.0
 11
755.8019
 21
24.518108
 31
0.0
  0
LINE
  5
3E1
330
1F
100
AcDbEntity
  8
GR1-1
  6
CONTINUOUS
 62
     7
100
AcDbLine
 10
753.267964
 20
21.913462
 30
0.0
 11
754.359592
 21
23.005089
 31
0.0
  0
LINE
  5
3E2
330
1F
100
AcDbEntity
  8
GR1-1
  6
CONTINUOUS
 62
     7
100
AcDbLine
 10
755.224977
 20
23.870474
 30
0.0
 11
755.8019
 21
24.447397
 31
0.0
  0
LINE
  5
3E3
330
1F
100
AcDbEntity
  8
GR1-1
  6
CONTINUOUS
 62
     7
100
AcDbLine
 10
753.338675
 20
21.913462
 30
0.0
 11
754.405983
 21
22.980769
 31
0.0
  0
LINE
  5
3E4
330
1F
100
AcDbEntity
  8
GR1-1
  6
CONTINUOUS
 62
     7
100
AcDbLine
 10
755.224977
 20
23.799763
 30
0.0
 11
755.8019
 21
24.376686
 31
0.0
  0
LINE
  5
3E5
330
1F
100
AcDbEntity
  8
GR1-1
  6
CONTINUOUS
 62
     7
100
AcDbLine
 10
753.409386
 20
21.913462
 30
0.0
 11
754.476693
 21
22.980769
 31
0.0
  0
LINE
  5
3E6
330
1F
100
AcDbEntity
  8
GR1-1
  6
CONTINUOUS
 62
     7
100
AcDbLine
 10
755.224977
 20
23.729052
 30
0.0
 11
755.8019
 21
24.305976
 31
0.0
  0
LINE
  5
3E7
330
1F
100
AcDbEntity
  8
GR1-1
  6
CONTINUOUS
 62
     7
100
AcDbLine
 10
753.480096
 20
21.913462
 30
0.0
 11
754.547404
 21
22.980769
 31
0.0
  0
LINE
  5
3E8
330
1F
100
AcDbEntity
  8
GR1-1
  6
CONTINUOUS
 62
     7
100
AcDbLine
 10
755.224977
 20
23.658342
 30
0.0
 11
755.8019
 21
24.235265
 31
0.0
  0
LINE
  5
3E9
330
1F
100
AcDbEntity
  8
GR1-1
  6
CONTINUOUS
 62
     7
100
AcDbLine
 10
753.550807
 20
21.913462
 30
0.0
 11
754.618115
 21
22.980769
 31
0.0
  0
LINE
  5
3EA
330
1F
100
AcDbEntity
  8
GR1-1
  6
CONTINUOUS
 62
     7
100
AcDbLine
 10
755.224977
 20
23.587631
 30
0.0
 11
755.8019
 21
24.164554
 31
0.0
  0
LINE
  5
3EB
330
1F
100
AcDbEntity
  8
GR1-1
  6
CONTINUOUS
 62
     7
100
AcDbLine
 10
753.621518
 20
21.913462
 30
0.0
 11
754.688825
 21
22.980769
 31
0.0
  0
LINE
  5
3EC
330
1F
100
AcDbEntity
  8
GR1-1
  6
CONTINUOUS
 62
     7
100
AcDbLine
 10
755.224977
 20
23.51692
 30
0.0
 11
755.8019
 21
24.093844
 31
0.0
  0
LINE
  5
3ED
330
1F
100
AcDbEntity
  8
GR1-1
  6
CONTINUOUS
 62
     7
100
AcDbLine
 10
753.692228
 20
21.913462
 30
0.0
 11
754.759536
 21
22.980769
 31
0.0
  0
LINE
  5
3EE
330
1F
100
AcDbEntity
  8
GR1-1
  6
CONTINUOUS
 62
     7
100
AcDbLine
 10
755.224977
 20
23.44621
 30
0.0
 11
755.8019
 21
24.023133
 31
0.0
  0
LINE
  5
3EF
330
1F
100
AcDbEntity
  8
GR1-1
  6
CONTINUOUS
 62
     7
100
AcDbLine
 10
753.762939
 20
21.913462
 30
0.0
 11
754.830247
 21
22.980769
 31
0.0
  0
LINE
  5
3F0
330
1F
100
AcDbEntity
  8
GR1-1
  6
CONTINUOUS
 62
     7
100
AcDbLine
 10
755.224977
 20
23.375499
 30
0.0
 11
755.8019
 21
23.952422
 31
0.0
  0
LINE
  5
3F1
330
1F
100
AcDbEntity
  8
GR1-1
  6
CONTINUOUS
 62
     7
100
AcDbLine
 10
753.83365
 20
21.913462
 30
0.0
 11
754.900958
 21
22.980769
 31
0.0
  0
LINE
  5
3F2
330
1F
100
AcDbEntity
  8
GR1-1
  6
CONTINUOUS
 62
     7
100
AcDbLine
 10
755.224977
 20
23.304788
 30
0.0
 11
755.8019
 21
23.881712
 31
0.0
  0
LINE
  5
3F3
330
1F
100
AcDbEntity
  8
GR1-1
  6
CONTINUOUS
 62
     7
100
AcDbLine
 10
753.90436
 20
21.913462
 30
0.0
 11
754.971668
 21
22.980769
 31
0.0
  0
LINE
  5
3F4
330
1F
100
AcDbEntity
  8
GR1-1
  6
CONTINUOUS
 62
     7
100
AcDbLine
 10
755.224977
 20
23.234078
 30
0.0
 11
755.8019
 21
23.811001
 31
0.0
  0
LINE
  5
3F5
330
1F
100
AcDbEntity
  8
GR1-1
  6
CONTINUOUS
 62
     7
100
AcDbLine
 10
753.975071
 20
21.913462
 30
0.0
 11
755.042379
 21
22.980769
 31
0.0
  0
LINE
  5
3F6
330
1F
100
AcDbEntity
  8
GR1-1
  6
CONTINUOUS
 62
     7
100
AcDbLine
 10
755.224977
 20
23.163367
 30
0.0
 11
755.8019
 21
23.74029
 31
0.0
  0
LINE
  5
3F7
330
1F
100
AcDbEntity
  8
GR1-1
  6
CONTINUOUS
 62
     7
100
AcDbLine
 10
754.045782
 20
21.913462
 30
0.0
 11
755.11309
 21
22.980769
 31
0.0
  0
LINE
  5
3F8
330
1F
100
AcDbEntity
  8
GR1-1
  6
CONTINUOUS
 62
     7
100
AcDbLine
 10
755.224977
 20
23.092656
 30
0.0
 11
755.8019
 21
23.669579
 31
0.0
  0
LINE
  5
3F9
330
1F
100
AcDbEntity
  8
GR1-1
  6
CONTINUOUS
 62
     7
100
AcDbLine
 10
754.116493
 20
21.913462
 30
0.0
 11
755.1838
 21
22.980769
 31
0.0
  0
LINE
  5
3FA
330
1F
100
AcDbEntity
  8
GR1-1
  6
CONTINUOUS
 62
     7
100
AcDbLine
 10
755.224977
 20
23.021946
 30
0.0
 11
755.8019
 21
23.598869
 31
0.0
  0
LINE
  5
3FB
330
1F
100
AcDbEntity
  8
GR1-1
  6
CONTINUOUS
 62
     7
100
AcDbLine
 10
754.187203
 20
21.913462
 30
0.0
 11
755.8019
 21
23.528158
 31
0.0
  0
LINE
  5
3FC
330
1F
100
AcDbEntity
  8
GR1-1
  6
CONTINUOUS
 62
     7
100
AcDbLine
 10
754.257914
 20
21.913462
 30
0.0
 11
755.8019
 21
23.457447
 31
0.0
  0
LINE
  5
3FD
330
1F
100
AcDbEntity
  8
GR1-1
  6
CONTINUOUS
 62
     7
100
AcDbLine
 10
754.328625
 20
21.913462
 30
0.0
 11
755.8019
 21
23.386737
 31
0.0
  0
LINE
  5
3FE
330
1F
100
AcDbEntity
  8
GR1-1
  6
CONTINUOUS
 62
     7
100
AcDbLine
 10
754.399335
 20
21.913462
 30
0.0
 11
755.8019
 21
23.316026
 31
0.0
  0
LINE
  5
3FF
330
1F
100
AcDbEntity
  8
GR1-1
  6
CONTINUOUS
 62
     7
100
AcDbLine
 10
754.470046
 20
21.913462
 30
0.0
 11
755.8019
 21
23.245315
 31
0.0
  0
LINE
  5
400
330
1F
100
AcDbEntity
  8
GR1-1
  6
CONTINUOUS
 62
     7
100
AcDbLine
 10
754.540757
 20
21.913462
 30
0.0
 11
755.8019
 21
23.174605
 31
0.0
  0
LINE
  5
401
330
1F
100
AcDbEntity
  8
GR1-1
  6
CONTINUOUS
 62
     7
100
AcDbLine
 10
754.611467
 20
21.913462
 30
0.0
 11
755.8019
 21
23.103894
 31
0.0
  0
LINE
  5
402
330
1F
100
AcDbEntity
  8
GR1-1
  6
CONTINUOUS
 62
     7
100
AcDbLine
 10
754.682178
 20
21.913462
 30
0.0
 11
755.8019
 21
23.033183
 31
0.0
  0
LINE
  5
403
330
1F
100
AcDbEntity
  8
GR1-1
  6
CONTINUOUS
 62
     7
100
AcDbLine
 10
754.752889
 20
21.913462
 30
0.0
 11
755.8019
 21
22.962473
 31
0.0
  0
LINE
  5
404
330
1F
100
AcDbEntity
  8
GR1-1
  6
CONTINUOUS
 62
     7
100
AcDbLine
 10
754.823599
 20
21.913462
 30
0.0
 11
755.8019
 21
22.891762
 31
0.0
  0
LINE
  5
405
330
1F
100
AcDbEntity
  8
GR1-1
  6
CONTINUOUS
 62
     7
100
AcDbLine
 10
754.89431
 20
21.913462
 30
0.0
 11
755.8019
 21
22.821051
 31
0.0
  0
LINE
  5
406
330
1F
100
AcDbEntity
  8
GR1-1
  6
CONTINUOUS
 62
     7
100
AcDbLine
 10
754.965021
 20
21.913462
 30
0.0
 11
755.8019
 21
22.750341
 31
0.0
  0
LINE
  5
407
330
1F
100
AcDbEntity
  8
GR1-1
  6
CONTINUOUS
 62
     7
100
AcDbLine
 10
755.035731
 20
21.913462
 30
0.0
 11
755.8019
 21
22.67963
 31
0.0
  0
LINE
  5
408
330
1F
100
AcDbEntity
  8
GR1-1
  6
CONTINUOUS
 62
     7
100
AcDbLine
 10
755.106442
 20
21.913462
 30
0.0
 11
755.8019
 21
22.608919
 31
0.0
  0
LINE
  5
409
330
1F
100
AcDbEntity
  8
GR1-1
  6
CONTINUOUS
 62
     7
100
AcDbLine
 10
755.177153
 20
21.913462
 30
0.0
 11
755.8019
 21
22.538209
 31
0.0
  0
LINE
  5
40A
330
1F
100
AcDbEntity
  8
GR1-1
  6
CONTINUOUS
 62
     7
100
AcDbLine
 10
755.247863
 20
21.913462
 30
0.0
 11
755.8019
 21
22.467498
 31
0.0
  0
LINE
  5
40B
330
1F
100
AcDbEntity
  8
GR1-1
  6
CONTINUOUS
 62
     7
100
AcDbLine
 10
755.318574
 20
21.913462
 30
0.0
 11
755.8019
 21
22.396787
 31
0.0
  0
LINE
  5
40C
330
1F
100
AcDbEntity
  8
GR1-1
  6
CONTINUOUS
 62
     7
100
AcDbLine
 10
755.389285
 20
21.913462
 30
0.0
 11
755.8019
 21
22.326077
 31
0.0
  0
LINE
  5
40D
330
1F
100
AcDbEntity
  8
GR1-1
  6
CONTINUOUS
 62
     7
100
AcDbLine
 10
755.459995
 20
21.913462
 30
0.0
 11
755.8019
 21
22.255366
 31
0.0
  0
LINE
  5
40E
330
1F
100
AcDbEntity
  8
GR1-1
  6
CONTINUOUS
 62
     7
100
AcDbLine
 10
755.530706
 20
21.913462
 30
0.0
 11
755.8019
 21
22.184655
 31
0.0
  0
LINE
  5
40F
330
1F
100
AcDbEntity
  8
GR1-1
  6
CONTINUOUS
 62
     7
100
AcDbLine
 10
755.601417
 20
21.913462
 30
0.0
 11
755.8019
 21
22.113945
 31
0.0
  0
LINE
  5
410
330
1F
100
AcDbEntity
  8
GR1-1
  6
CONTINUOUS
 62
     7
100
AcDbLine
 10
755.672127
 20
21.913462
 30
0.0
 11
755.8019
 21
22.043234
 31
0.0
  0
LINE
  5
411
330
1F
100
AcDbEntity
  8
GR1-1
  6
CONTINUOUS
 62
     7
100
AcDbLine
 10
755.742838
 20
21.913462
 30
0.0
 11
755.8019
 21
21.972523
 31
0.0
  0
ENDSEC
  0
SECTION
  2
OBJECTS
  0
DICTIONARY
  5
C
330
0
100
AcDbDictionary
  3
ACAD_GROUP
350
D
  3
ACAD_LAYOUT
350
1A
  3
ACAD_MLINESTYLE
350
17
  3
ACAD_PLOTSETTINGS
350
19
  3
ACDBHEADERROUNDTRIPXREC
350
412
  0
DICTIONARY
  5
D
102
{ACAD_REACTORS
330
C
102
}
330
C
100
AcDbDictionary
  0
DICTIONARY
  5
1A
102
{ACAD_REACTORS
330
C
102
}
330
C
100
AcDbDictionary
  0
DICTIONARY
  5
17
102
{ACAD_REACTORS
330
C
102
}
330
C
100
AcDbDictionary
  3
STANDARD
350
18
  0
DICTIONARY
  5
19
102
{ACAD_REACTORS
330
C
102
}
330
C
100
AcDbDictionary
  0
DICTIONARY
  5
412
102
{ACAD_REACTORS
330
C
102
}
330
C
100
AcDbDictionary
  3
CEPSNTYPE
350
41B
  3
DIMSTYLEDATA
350
431
  3
FINGERPRINTGUID
350
41C
  3
HYPERLINKBASE
350
415
  3
INSUNITS
350
41A
  3
LAYOUTDICT
350
417
  3
LWETCUNION
350
419
  3
PLOTSETDICT
350
418
  3
PSVPSCALE
350
41E
  3
PUCSBASE
350
421
  3
PUCSORGBACK
350
427
  3
PUCSORGBOTTOM
350
423
  3
PUCSORGFRONT
350
426
  3
PUCSORGLEFT
350
424
  3
PUCSORGRIGHT
350
425
  3
PUCSORGTOP
350
422
  3
PUCSORTHOREF
350
41F
  3
PUCSORTHOVIEW
350
420
  3
STYLESHEET
350
416
  3
TSTACKALIGN
350
413
  3
TSTACKSIZE
350
414
  3
UCSBASE
350
42A
  3
UCSORGBACK
350
430
  3
UCSORGBOTTOM
350
42C
  3
UCSORGFRONT
350
42F
  3
UCSORGLEFT
350
42D
  3
UCSORGRIGHT
350
42E
  3
UCSORGTOP
350
42B
  3
UCSORTHOREF
350
428
  3
UCSORTHOVIEW
350
429
  3
VERSIONGUID
350
41D
  0
MLINESTYLE
  5
18
102
{ACAD_REACTORS
330
17
102
}
330
17
100
AcDbMlineStyle
  2
Standard
 70
     0
  3

 62
   256
 51
90.0
 52
90.0
 71
     2
 49
0.5
 62
   256
  6
BYLAYER
 49
-0.5
 62
   256
  6
BYLAYER
  0
XRECORD
  5
41B
102
{ACAD_REACTORS
330
412
102
}
330
412
100
AcDbXrecord
 90
        0
  0
XRECORD
  5
431
102
{ACAD_REACTORS
330
412
102
}
330
412
100
AcDbXrecord
1000
DSTYLE
1002
{
1070
   179
 70
     2
1070
   171
 70
     3
1070
   143
 40
0.03937
1070
   274
 70
     3
1070
    41
 40
4.0
1070
   343
340
41
1070
   344
340
47
1070
   141
 40
2.5
1070
   176
 70
     7
1070
   177
 70
     7
1070
   178
 70
     7
1070
   271
 70
     2
1070
    46
 40
6.0
1070
    43
 40
10.0
1070
    44
 40
1.0
1070
    42
 40
1.0
1070
   147
 40
1.0
1070
   341
340
41
1070
   173
 70
     1
1070
    77
 70
     1
1070
   272
 70
     2
1070
    73
 70
     0
1070
   172
 70
     1
1070
    74
 70
     0
1070
   283
 70
     0
1070
   340
340
3F
1070
   140
 40
4.0
1070
   284
 70
     8
1070
    78
 70
     8
1002
}
  0
XRECORD
  5
41C
102
{ACAD_REACTORS
330
412
102
}
330
412
100
AcDbXrecord
  1
{F2D4EF56-A95A-4834-AEDE-96B5DC52A2EB}
  0
XRECORD
  5
415
102
{ACAD_REACTORS
330
412
102
}
330
412
100
AcDbXrecord
  1

  0
XRECORD
  5
41A
102
{ACAD_REACTORS
330
412
102
}
330
412
100
AcDbXrecord
 90
        1
  0
XRECORD
  5
417
102
{ACAD_REACTORS
330
412
102
}
330
412
100
AcDbXrecord
340
1A
  0
XRECORD
  5
419
102
{ACAD_REACTORS
330
412
102
}
330
412
100
AcDbXrecord
 90
    10781
  0
XRECORD
  5
418
102
{ACAD_REACTORS
330
412
102
}
330
412
100
AcDbXrecord
340
19
  0
XRECORD
  5
41E
102
{ACAD_REACTORS
330
412
102
}
330
412
100
AcDbXrecord
 40
0.0
  0
XRECORD
  5
421
102
{ACAD_REACTORS
330
412
102
}
330
412
100
AcDbXrecord
340
0
  0
XRECORD
  5
427
102
{ACAD_REACTORS
330
412
102
}
330
412
100
AcDbXrecord
 10
0.0
 20
0.0
 30
0.0
  0
XRECORD
  5
423
102
{ACAD_REACTORS
330
412
102
}
330
412
100
AcDbXrecord
 10
0.0
 20
0.0
 30
0.0
  0
XRECORD
  5
426
102
{ACAD_REACTORS
330
412
102
}
330
412
100
AcDbXrecord
 10
0.0
 20
0.0
 30
0.0
  0
XRECORD
  5
424
102
{ACAD_REACTORS
330
412
102
}
330
412
100
AcDbXrecord
 10
0.0
 20
0.0
 30
0.0
  0
XRECORD
  5
425
102
{ACAD_REACTORS
330
412
102
}
330
412
100
AcDbXrecord
 10
0.0
 20
0.0
 30
0.0
  0
XRECORD
  5
422
102
{ACAD_REACTORS
330
412
102
}
330
412
100
AcDbXrecord
 10
0.0
 20
0.0
 30
0.0
  0
XRECORD
  5
41F
102
{ACAD_REACTORS
330
412
102
}
330
412
100
AcDbXrecord
340
0
  0
XRECORD
  5
420
102
{ACAD_REACTORS
330
412
102
}
330
412
100
AcDbXrecord
 70
     0
  0
XRECORD
  5
416
102
{ACAD_REACTORS
330
412
102
}
330
412
100
AcDbXrecord
  1

  0
XRECORD
  5
413
102
{ACAD_REACTORS
330
412
102
}
330
412
100
AcDbXrecord
 90
        1
  0
XRECORD
  5
414
102
{ACAD_REACTORS
330
412
102
}
330
412
100
AcDbXrecord
 90
       70
  0
XRECORD
  5
42A
102
{ACAD_REACTORS
330
412
102
}
330
412
100
AcDbXrecord
340
0
  0
XRECORD
  5
430
102
{ACAD_REACTORS
330
412
102
}
330
412
100
AcDbXrecord
 10
0.0
 20
0.0
 30
0.0
  0
XRECORD
  5
42C
102
{ACAD_REACTORS
330
412
102
}
330
412
100
AcDbXrecord
 10
0.0
 20
0.0
 30
0.0
  0
XRECORD
  5
42F
102
{ACAD_REACTORS
330
412
102
}
330
412
100
AcDbXrecord
 10
0.0
 20
0.0
 30
0.0
  0
XRECORD
  5
42D
102
{ACAD_REACTORS
330
412
102
}
330
412
100
AcDbXrecord
 10
0.0
 20
0.0
 30
0.0
  0
XRECORD
  5
42E
102
{ACAD_REACTORS
330
412
102
}
330
412
100
AcDbXrecord
 10
0.0
 20
0.0
 30
0.0
  0
XRECORD
  5
42B
102
{ACAD_REACTORS
330
412
102
}
330
412
100
AcDbXrecord
 10
0.0
 20
0.0
 30
0.0
  0
XRECORD
  5
428
102
{ACAD_REACTORS
330
412
102
}
330
412
100
AcDbXrecord
340
0
  0
XRECORD
  5
429
102
{ACAD_REACTORS
330
412
102
}
330
412
100
AcDbXrecord
 70
     0
  0
XRECORD
  5
41D
102
{ACAD_REACTORS
330
412
102
}
330
412
100
AcDbXrecord
  1
{FAEB1C32-E019-11D5-929B-00C0DF256EC4}
  0
ENDSEC
  0
EOF
