  0
SECTION
  2
HEADER
  9
$ACADVER
  1
AC1014
  9
$ACADMAINTVER
 70
     9
  9
$DWGCODEPAGE
  3
ANSI_932
  9
$INSBASE
 10
0.0
 20
0.0
 30
0.0
  9
$EXTMIN
 10
0.0
 20
0.0
 30
0.0
  9
$EXTMAX
 10
420.0
 20
297.0
 30
0.0
  9
$LIMMIN
 10
0.0
 20
0.0
  9
$LIMMAX
 10
420.0
 20
297.0
  9
$ORTHOMODE
 70
     0
  9
$REGENMODE
 70
     1
  9
$FILLMODE
 70
     1
  9
$QTEXTMODE
 70
     0
  9
$MIRRTEXT
 70
     1
  9
$DRAGMODE
 70
     2
  9
$LTSCALE
 40
1.0
  9
$OSMODE
 70
    37
  9
$ATTMODE
 70
     1
  9
$TEXTSIZE
 40
0.2
  9
$TRACEWID
 40
0.05
  9
$TEXTSTYLE
  7
STYLE1
  9
$CLAYER
  8
0
  9
$CELTYPE
  6
BYLAYER
  9
$CECOLOR
 62
   256
  9
$CELTSCALE
 40
1.0
  9
$DELOBJ
 70
     1
  9
$DISPSILH
 70
     0
  9
$DIMSCALE
 40
1.0
  9
$DIMASZ
 40
4.0
  9
$DIMEXO
 40
1.0
  9
$DIMDLI
 40
10.0
  9
$DIMRND
 40
0.0
  9
$DIMDLE
 40
6.0
  9
$DIMEXE
 40
1.0
  9
$DIMTP
 40
0.0
  9
$DIMTM
 40
0.0
  9
$DIMTXT
 40
4.0
  9
$DIMCEN
 40
2.5
  9
$DIMTSZ
 40
0.0
  9
$DIMTOL
 70
     0
  9
$DIMLIM
 70
     0
  9
$DIMTIH
 70
     0
  9
$DIMTOH
 70
     0
  9
$DIMSE1
 70
     0
  9
$DIMSE2
 70
     0
  9
$DIMTAD
 70
     1
  9
$DIMZIN
 70
     8
  9
$DIMBLK
  1

  9
$DIMASO
 70
     1
  9
$DIMSHO
 70
     1
  9
$DIMPOST
  1

  9
$DIMAPOST
  1

  9
$DIMALT
 70
     0
  9
$DIMALTD
 70
     3
  9
$DIMALTF
 40
0.03937
  9
$DIMLFAC
 40
1.0
  9
$DIMTOFL
 70
     1
  9
$DIMTVP
 40
0.0
  9
$DIMTIX
 70
     0
  9
$DIMSOXD
 70
     0
  9
$DIMSAH
 70
     1
  9
$DIMBLK1
  1
FXTIP_ARROW_S
  9
$DIMBLK2
  1
FXTIP_ARROW_E
  9
$DIMSTYLE
  2
FXDIMINFO
  9
$DIMCLRD
 70
     7
  9
$DIMCLRE
 70
     7
  9
$DIMCLRT
 70
     7
  9
$DIMTFAC
 40
1.0
  9
$DIMGAP
 40
1.0
  9
$DIMJUST
 70
     0
  9
$DIMSD1
 70
     0
  9
$DIMSD2
 70
     0
  9
$DIMTOLJ
 70
     0
  9
$DIMTZIN
 70
     8
  9
$DIMALTZ
 70
     0
  9
$DIMALTTZ
 70
     0
  9
$DIMFIT
 70
     3
  9
$DIMUPT
 70
     0
  9
$DIMUNIT
 70
     2
  9
$DIMDEC
 70
     2
  9
$DIMTDEC
 70
     2
  9
$DIMALTU
 70
     2
  9
$DIMALTTD
 70
     3
  9
$DIMTXSTY
  7
STYLE1
  9
$DIMAUNIT
 70
     0
  9
$LUNITS
 70
     2
  9
$LUPREC
 70
     4
  9
$SKETCHINC
 40
0.1
  9
$FILLETRAD
 40
0.5
  9
$AUNITS
 70
     0
  9
$AUPREC
 70
     0
  9
$MENU
  1
.
  9
$ELEVATION
 40
0.0
  9
$PELEVATION
 40
0.0
  9
$THICKNESS
 40
0.0
  9
$LIMCHECK
 70
     0
  9
$CHAMFERA
 40
0.5
  9
$CHAMFERB
 40
0.5
  9
$CHAMFERC
 40
1.0
  9
$CHAMFERD
 40
0.0
  9
$SKPOLY
 70
     0
  9
$TDCREATE
 40
2455308.376819051
  9
$TDUPDATE
 40
2455308.376819063
  9
$TDINDWG
 40
0.0000000116
  9
$TDUSRTIMER
 40
0.0000000116
  9
$USRTIMER
 70
     1
  9
$ANGBASE
 50
0.0
  9
$ANGDIR
 70
     0
  9
$PDMODE
 70
     0
  9
$PDSIZE
 40
0.0
  9
$PLINEWID
 40
0.0
  9
$COORDS
 70
     1
  9
$SPLFRAME
 70
     0
  9
$SPLINETYPE
 70
     6
  9
$SPLINESEGS
 70
     8
  9
$ATTDIA
 70
     0
  9
$ATTREQ
 70
     1
  9
$HANDLING
 70
     1
  9
$HANDSEED
  5
2AE
  9
$SURFTAB1
 70
     6
  9
$SURFTAB2
 70
     6
  9
$SURFTYPE
 70
     6
  9
$SURFU
 70
     6
  9
$SURFV
 70
     6
  9
$UCSNAME
  2

  9
$UCSORG
 10
0.0
 20
0.0
 30
0.0
  9
$UCSXDIR
 10
1.0
 20
0.0
 30
0.0
  9
$UCSYDIR
 10
0.0
 20
1.0
 30
0.0
  9
$PUCSNAME
  2

  9
$PUCSORG
 10
0.0
 20
0.0
 30
0.0
  9
$PUCSXDIR
 10
1.0
 20
0.0
 30
0.0
  9
$PUCSYDIR
 10
0.0
 20
1.0
 30
0.0
  9
$USERI1
 70
     0
  9
$USERI2
 70
     0
  9
$USERI3
 70
     0
  9
$USERI4
 70
     0
  9
$USERI5
 70
     0
  9
$USERR1
 40
0.0
  9
$USERR2
 40
0.0
  9
$USERR3
 40
0.0
  9
$USERR4
 40
0.0
  9
$USERR5
 40
0.0
  9
$WORLDVIEW
 70
     1
  9
$SHADEDGE
 70
     3
  9
$SHADEDIF
 70
    70
  9
$TILEMODE
 70
     1
  9
$MAXACTVP
 70
    64
  9
$PINSBASE
 10
0.0
 20
0.0
 30
0.0
  9
$PLIMCHECK
 70
     0
  9
$PEXTMIN
 10
1.000000E+20
 20
1.000000E+20
 30
1.000000E+20
  9
$PEXTMAX
 10
-1.000000E+20
 20
-1.000000E+20
 30
-1.000000E+20
  9
$PLIMMIN
 10
0.0
 20
0.0
  9
$PLIMMAX
 10
12.0
 20
9.0
  9
$UNITMODE
 70
     0
  9
$VISRETAIN
 70
     1
  9
$PLINEGEN
 70
     0
  9
$PSLTSCALE
 70
     1
  9
$TREEDEPTH
 70
  3020
  9
$PICKSTYLE
 70
     1
  9
$CMLSTYLE
  2
STANDARD
  9
$CMLJUST
 70
     0
  9
$CMLSCALE
 40
1.0
  9
$PROXYGRAPHICS
 70
     1
  9
$MEASUREMENT
 70
     0
  0
ENDSEC
  0
SECTION
  2
CLASSES
  0
CLASS
  1
ACDBDICTIONARYWDFLT
  2
AcDbDictionaryWithDefault
  3
ObjectDBX Classes
 90
        0
280
     0
281
     0
  0
CLASS
  1
XRECORD
  2
AcDbXrecord
  3
AutoCAD 2000
 90
        0
280
     0
281
     0
  0
CLASS
  1
LWPOLYLINE
  2
AcDbPolyline
  3
AutoCAD 2000
 90
        0
280
     0
281
     1
  0
CLASS
  1
HATCH
  2
AcDbHatch
  3
AutoCAD 2000
 90
        0
280
     0
281
     1
  0
CLASS
  1
ACDBPLACEHOLDER
  2
AcDbPlaceHolder
  3
ObjectDBX Classes
 90
        0
280
     0
281
     0
  0
CLASS
  1
LAYOUT
  2
AcDbLayout
  3
ObjectDBX Classes
 90
        0
280
     0
281
     0
  0
ENDSEC
  0
SECTION
  2
TABLES
  0
TABLE
  2
VPORT
  5
8
330
0
100
AcDbSymbolTable
 70
     1
  0
VPORT
  5
29
330
8
100
AcDbSymbolTableRecord
100
AcDbViewportTableRecord
  2
*ACTIVE
 70
     0
 10
0.0
 20
0.0
 11
1.0
 21
1.0
 12
210.0
 22
148.5
 13
0.0
 23
0.0
 14
0.5
 24
0.5
 15
0.5
 25
0.5
 16
0.0
 26
0.0
 36
1.0
 17
0.0
 27
0.0
 37
0.0
 40
297.0
 41
1.414141
 42
50.0
 43
0.0
 44
0.0
 50
0.0
 51
0.0
 71
     0
 72
   100
 73
     1
 74
     3
 75
     0
 76
     0
 77
     0
 78
     0
  0
ENDTAB
  0
TABLE
  2
LTYPE
  5
5
330
0
100
AcDbSymbolTable
 70
     4
  0
LTYPE
  5
14
330
5
100
AcDbSymbolTableRecord
100
AcDbLinetypeTableRecord
  2
BYBLOCK
 70
     0
  3

 72
    65
 73
     0
 40
0.0
  0
LTYPE
  5
15
330
5
100
AcDbSymbolTableRecord
100
AcDbLinetypeTableRecord
  2
BYLAYER
 70
     0
  3

 72
    65
 73
     0
 40
0.0
  0
LTYPE
  5
16
330
5
100
AcDbSymbolTableRecord
100
AcDbLinetypeTableRecord
  2
CONTINUOUS
 70
     0
  3
--------------------
 72
    65
 73
     0
 40
0.0
  0
LTYPE
  5
2A
330
5
100
AcDbSymbolTableRecord
100
AcDbLinetypeTableRecord
  2
CENTER
 70
     0
  3
Center ____ _ ____ _ ____ _ ____ _ ____ _ ____
 72
    65
 73
     4
 40
13.0
 49
10.0
 74
     0
 49
-1.0
 74
     0
 49
1.0
 74
     0
 49
-1.0
 74
     0
  0
LTYPE
  5
2C
330
5
100
AcDbSymbolTableRecord
100
AcDbLinetypeTableRecord
  2
DASHED
 70
     0
  3
Dashed __ __ __ __ __ __ __ __ __ __ __ __ __ _
 72
    65
 73
     2
 40
4.0
 49
3.0
 74
     0
 49
-1.0
 74
     0
  0
ENDTAB
  0
TABLE
  2
LAYER
  5
2
330
0
100
AcDbSymbolTable
 70
    24
  0
LAYER
  5
10
330
2
100
AcDbSymbolTableRecord
100
AcDbLayerTableRecord
  2
0
 70
     0
 62
     7
  6
CONTINUOUS
  0
LAYER
  5
2D
330
2
100
AcDbSymbolTableRecord
100
AcDbLayerTableRecord
  2
LAYERGROUP-1
 70
     0
 62
     3
  6
CONTINUOUS
  0
LAYER
  5
3D
330
2
100
AcDbSymbolTableRecord
100
AcDbLayerTableRecord
  2
}}ﾊﾊGG血CCТ
 70
     0
 62
     3
  6
CONTINUOUS
  0
LAYER
  5
AA
330
2
100
AcDbSymbolTableRecord
100
AcDbLayerTableRecord
  2
FIG_1-1
 70
     0
 62
     7
  6
CONTINUOUS
  0
LAYER
  5
AC
330
2
100
AcDbSymbolTableRecord
100
AcDbLayerTableRecord
  2
FIG_2-1
 70
     0
 62
     7
  6
CONTINUOUS
  0
LAYER
  5
D6
330
2
100
AcDbSymbolTableRecord
100
AcDbLayerTableRecord
  2
FIG_6-1
 70
     0
 62
     7
  6
CONTINUOUS
  0
LAYER
  5
FE
330
2
100
AcDbSymbolTableRecord
100
AcDbLayerTableRecord
  2
GR1-1
 70
     0
 62
     7
  6
CONTINUOUS
  0
LAYER
  5
109
330
2
100
AcDbSymbolTableRecord
100
AcDbLayerTableRecord
  2
FIG_3-1
 70
     0
 62
     7
  6
CONTINUOUS
  0
LAYER
  5
270
330
2
100
AcDbSymbolTableRecord
100
AcDbLayerTableRecord
  2
0-1
 70
     0
 62
     7
  6
CONTINUOUS
  0
ENDTAB
  0
TABLE
  2
STYLE
  5
3
330
0
100
AcDbSymbolTable
 70
     4
  0
STYLE
  5
11
330
3
100
AcDbSymbolTableRecord
100
AcDbTextStyleTableRecord
  2
STANDARD
 70
     0
 40
0.0
 41
1.0
 50
0.0
 71
     0
 42
0.2
  3
txt
  4

  0
STYLE
  5
3F
330
3
100
AcDbSymbolTableRecord
100
AcDbTextStyleTableRecord
  2
STYLE1
 70
     0
 40
0.0
 41
1.0
 50
0.0
 71
     0
 42
0.2
  3
MONOTXT.SHX
  4
extfont.shx
  0
STYLE
  5
40
330
3
100
AcDbSymbolTableRecord
100
AcDbTextStyleTableRecord
  2
FX_VECTOR
 70
     0
 40
0.0
 41
1.0
 50
0.0
 71
     0
 42
0.2
  3
MONOTXT.SHX
  4
BIGFONT.SHX
  0
ENDTAB
  0
TABLE
  2
VIEW
  5
6
330
0
100
AcDbSymbolTable
 70
     0
  0
ENDTAB
  0
TABLE
  2
UCS
  5
7
330
0
100
AcDbSymbolTable
 70
     0
  0
ENDTAB
  0
TABLE
  2
APPID
  5
9
330
0
100
AcDbSymbolTable
 70
     1
  0
APPID
  5
12
330
9
100
AcDbSymbolTableRecord
100
AcDbRegAppTableRecord
  2
ACAD
 70
     0
  0
ENDTAB
  0
TABLE
  2
DIMSTYLE
  5
A
330
0
100
AcDbSymbolTable
 70
     2
  0
DIMSTYLE
105
27
330
A
100
AcDbSymbolTableRecord
100
AcDbDimStyleTableRecord
  2
STANDARD
 70
     0
  3

  4

  5

  6

  7

 40
1.0
 41
0.18
 42
0.0625
 43
0.38
 44
0.18
 45
0.0
 46
0.0
 47
0.0
 48
0.0
140
0.18
141
0.09
142
0.0
143
25.4
144
1.0
145
0.0
146
1.0
147
0.09
 71
     0
 72
     0
 73
     1
 74
     1
 75
     0
 76
     0
 77
     0
 78
     0
170
     0
171
     2
172
     0
173
     0
174
     0
175
     0
176
     0
177
     0
178
     0
270
     2
271
     4
272
     4
273
     2
274
     2
340
11
275
     0
280
     0
281
     0
282
     0
283
     1
284
     0
285
     0
286
     0
287
     3
288
     0
  0
DIMSTYLE
105
A7
330
A
100
AcDbSymbolTableRecord
100
AcDbDimStyleTableRecord
  2
FXDIMINFO
 70
     0
  3

  4

  5

  6
FXTIP_ARROW_S
  7
FXTIP_ARROW_E
 40
1.0
 41
4.0
 42
1.0
 43
10.0
 44
1.0
 45
0.0
 46
6.0
 47
0.0
 48
0.0
140
4.0
141
2.5
142
0.0
143
0.03937
144
1.0
145
0.0
146
1.0
147
1.0
 71
     0
 72
     0
 73
     0
 74
     0
 75
     0
 76
     0
 77
     1
 78
     8
170
     0
171
     3
172
     1
173
     1
174
     0
175
     0
176
     7
177
     7
178
     7
179
     2
270
     2
271
     2
272
     2
273
     2
274
     3
340
3F
275
     0
280
     0
281
     0
282
     0
283
     0
284
     8
285
     0
286
     0
287
     3
288
     0
  0
ENDTAB
  0
TABLE
  2
BLOCK_RECORD
  5
1
330
0
100
AcDbSymbolTable
 70
    23
  0
BLOCK_RECORD
  5
1F
330
1
100
AcDbSymbolTableRecord
100
AcDbBlockTableRecord
  2
*MODEL_SPACE
  0
BLOCK_RECORD
  5
1B
330
1
100
AcDbSymbolTableRecord
100
AcDbBlockTableRecord
  2
*PAPER_SPACE
  0
BLOCK_RECORD
  5
41
330
1
100
AcDbSymbolTableRecord
100
AcDbBlockTableRecord
  2
FXTIP_ARROW_S
  0
BLOCK_RECORD
  5
47
330
1
100
AcDbSymbolTableRecord
100
AcDbBlockTableRecord
  2
FXTIP_ARROW_E
  0
BLOCK_RECORD
  5
4D
330
1
100
AcDbSymbolTableRecord
100
AcDbBlockTableRecord
  2
FXTIP_BLACKDOT_S
  0
BLOCK_RECORD
  5
53
330
1
100
AcDbSymbolTableRecord
100
AcDbBlockTableRecord
  2
FXTIP_BLACKDOT_E
  0
BLOCK_RECORD
  5
59
330
1
100
AcDbSymbolTableRecord
100
AcDbBlockTableRecord
  2
FXTIP_TRIANGLE_S
  0
BLOCK_RECORD
  5
60
330
1
100
AcDbSymbolTableRecord
100
AcDbBlockTableRecord
  2
FXTIP_TRIANGLE_E
  0
BLOCK_RECORD
  5
67
330
1
100
AcDbSymbolTableRecord
100
AcDbBlockTableRecord
  2
FXTIP_ARCHITECT_S
  0
BLOCK_RECORD
  5
6D
330
1
100
AcDbSymbolTableRecord
100
AcDbBlockTableRecord
  2
FXTIP_ARCHITECT_E
  0
BLOCK_RECORD
  5
73
330
1
100
AcDbSymbolTableRecord
100
AcDbBlockTableRecord
  2
FXTIP_CIVIL_S
  0
BLOCK_RECORD
  5
79
330
1
100
AcDbSymbolTableRecord
100
AcDbBlockTableRecord
  2
FXTIP_CIVIL_E
  0
BLOCK_RECORD
  5
7F
330
1
100
AcDbSymbolTableRecord
100
AcDbBlockTableRecord
  2
FXTIP_WHITEDOT_S
  0
BLOCK_RECORD
  5
84
330
1
100
AcDbSymbolTableRecord
100
AcDbBlockTableRecord
  2
FXTIP_WHITEDOT_E
  0
BLOCK_RECORD
  5
89
330
1
100
AcDbSymbolTableRecord
100
AcDbBlockTableRecord
  2
FXTIP_UPARROW_S
  0
BLOCK_RECORD
  5
8E
330
1
100
AcDbSymbolTableRecord
100
AcDbBlockTableRecord
  2
FXTIP_UPARROW_E
  0
BLOCK_RECORD
  5
93
330
1
100
AcDbSymbolTableRecord
100
AcDbBlockTableRecord
  2
FXTIP_DOWNARROW_S
  0
BLOCK_RECORD
  5
98
330
1
100
AcDbSymbolTableRecord
100
AcDbBlockTableRecord
  2
FXTIP_DOWNARROW_E
  0
BLOCK_RECORD
  5
9D
330
1
100
AcDbSymbolTableRecord
100
AcDbBlockTableRecord
  2
FXTIP_BLACKTRIANGLE_S
  0
BLOCK_RECORD
  5
A2
330
1
100
AcDbSymbolTableRecord
100
AcDbBlockTableRecord
  2
FXTIP_BLACKTRIANGLE_E
  0
BLOCK_RECORD
  5
1E1
330
1
100
AcDbSymbolTableRecord
100
AcDbBlockTableRecord
  2
BLKF021
  0
BLOCK_RECORD
  5
260
330
1
100
AcDbSymbolTableRecord
100
AcDbBlockTableRecord
  2
BLKF022
  0
BLOCK_RECORD
  5
26C
330
1
100
AcDbSymbolTableRecord
100
AcDbBlockTableRecord
  2
BLKF023
  0
BLOCK_RECORD
  5
275
330
1
100
AcDbSymbolTableRecord
100
AcDbBlockTableRecord
  2
BLKF024
  0
ENDTAB
  0
ENDSEC
  0
SECTION
  2
BLOCKS
  0
BLOCK
  5
20
330
1F
100
AcDbEntity
  8
0
100
AcDbBlockBegin
  2
*MODEL_SPACE
 70
     0
 71
     0
 10
0.0
 20
0.0
 30
0.0
  3
*MODEL_SPACE
  1

  0
ENDBLK
  5
21
330
1F
100
AcDbEntity
  8
0
100
AcDbBlockEnd
  0
BLOCK
  5
1C
330
1B
100
AcDbEntity
 67
     1
  8
0
100
AcDbBlockBegin
  2
*PAPER_SPACE
 70
     0
 71
     0
 10
0.0
 20
0.0
 30
0.0
  3
*PAPER_SPACE
  1

  0
ENDBLK
  5
1D
330
1B
100
AcDbEntity
 67
     1
  8
0
100
AcDbBlockEnd
  0
BLOCK
  5
42
330
41
100
AcDbEntity
  8
0
100
AcDbBlockBegin
  2
FXTIP_ARROW_S
 70
     0
 71
     0
 10
0.0
 20
0.0
 30
0.0
  3
FXTIP_ARROW_S
  1

  0
LINE
  5
44
330
41
100
AcDbEntity
  8
0
  6
CONTINUOUS
 62
     0
100
AcDbLine
 10
0.0
 20
0.0
 30
0.0
 11
-1.0
 21
0.0
 31
0.0
  0
LINE
  5
45
330
41
100
AcDbEntity
  8
0
  6
CONTINUOUS
 62
     0
100
AcDbLine
 10
0.0
 20
0.0
 30
0.0
 11
-0.965926
 21
-0.258819
 31
0.0
  0
LINE
  5
46
330
41
100
AcDbEntity
  8
0
  6
CONTINUOUS
 62
     0
100
AcDbLine
 10
0.0
 20
0.0
 30
0.0
 11
-0.965926
 21
0.258819
 31
0.0
  0
ENDBLK
  5
43
330
41
100
AcDbEntity
  8
0
100
AcDbBlockEnd
  0
BLOCK
  5
48
330
47
100
AcDbEntity
  8
0
100
AcDbBlockBegin
  2
FXTIP_ARROW_E
 70
     0
 71
     0
 10
0.0
 20
0.0
 30
0.0
  3
FXTIP_ARROW_E
  1

  0
LINE
  5
4A
330
47
100
AcDbEntity
  8
0
  6
CONTINUOUS
 62
     0
100
AcDbLine
 10
0.0
 20
0.0
 30
0.0
 11
-1.0
 21
0.0
 31
0.0
  0
LINE
  5
4B
330
47
100
AcDbEntity
  8
0
  6
CONTINUOUS
 62
     0
100
AcDbLine
 10
0.0
 20
0.0
 30
0.0
 11
-0.965926
 21
0.258819
 31
0.0
  0
LINE
  5
4C
330
47
100
AcDbEntity
  8
0
  6
CONTINUOUS
 62
     0
100
AcDbLine
 10
0.0
 20
0.0
 30
0.0
 11
-0.965926
 21
-0.258819
 31
0.0
  0
ENDBLK
  5
49
330
47
100
AcDbEntity
  8
0
100
AcDbBlockEnd
  0
BLOCK
  5
4E
330
4D
100
AcDbEntity
  8
0
100
AcDbBlockBegin
  2
FXTIP_BLACKDOT_S
 70
     0
 71
     0
 10
0.0
 20
0.0
 30
0.0
  3
FXTIP_BLACKDOT_S
  1

  0
LINE
  5
50
330
4D
100
AcDbEntity
  8
0
  6
CONTINUOUS
 62
     0
100
AcDbLine
 10
0.0
 20
0.0
 30
0.0
 11
-1.0
 21
0.0
 31
0.0
  0
LWPOLYLINE
  5
51
330
4D
100
AcDbEntity
  8
0
  6
CONTINUOUS
 62
     0
100
AcDbPolyline
 90
        2
 70
     1
 10
-0.25
 20
0.0
 40
0.5
 41
0.5
 42
1.0
 10
0.25
 20
0.0
 40
0.5
 41
0.5
 42
1.0
  0
CIRCLE
  5
52
330
4D
100
AcDbEntity
  8
0
  6
CONTINUOUS
 62
     0
100
AcDbCircle
 10
0.0
 20
0.0
 30
0.0
 40
0.5
  0
ENDBLK
  5
4F
330
4D
100
AcDbEntity
  8
0
100
AcDbBlockEnd
  0
BLOCK
  5
54
330
53
100
AcDbEntity
  8
0
100
AcDbBlockBegin
  2
FXTIP_BLACKDOT_E
 70
     0
 71
     0
 10
0.0
 20
0.0
 30
0.0
  3
FXTIP_BLACKDOT_E
  1

  0
LINE
  5
56
330
53
100
AcDbEntity
  8
0
  6
CONTINUOUS
 62
     0
100
AcDbLine
 10
0.0
 20
0.0
 30
0.0
 11
-1.0
 21
0.0
 31
0.0
  0
LWPOLYLINE
  5
57
330
53
100
AcDbEntity
  8
0
  6
CONTINUOUS
 62
     0
100
AcDbPolyline
 90
        2
 70
     1
 10
-0.25
 20
0.0
 40
0.5
 41
0.5
 42
1.0
 10
0.25
 20
0.0
 40
0.5
 41
0.5
 42
1.0
  0
CIRCLE
  5
58
330
53
100
AcDbEntity
  8
0
  6
CONTINUOUS
 62
     0
100
AcDbCircle
 10
0.0
 20
0.0
 30
0.0
 40
0.5
  0
ENDBLK
  5
55
330
53
100
AcDbEntity
  8
0
100
AcDbBlockEnd
  0
BLOCK
  5
5A
330
59
100
AcDbEntity
  8
0
100
AcDbBlockBegin
  2
FXTIP_TRIANGLE_S
 70
     0
 71
     0
 10
0.0
 20
0.0
 30
0.0
  3
FXTIP_TRIANGLE_S
  1

  0
LINE
  5
5C
330
59
100
AcDbEntity
  8
0
  6
CONTINUOUS
 62
     0
100
AcDbLine
 10
0.0
 20
0.0
 30
0.0
 11
-1.0
 21
0.0
 31
0.0
  0
LINE
  5
5D
330
59
100
AcDbEntity
  8
0
  6
CONTINUOUS
 62
     0
100
AcDbLine
 10
0.0
 20
0.0
 30
0.0
 11
-0.965926
 21
-0.258819
 31
0.0
  0
LINE
  5
5E
330
59
100
AcDbEntity
  8
0
  6
CONTINUOUS
 62
     0
100
AcDbLine
 10
0.0
 20
0.0
 30
0.0
 11
-0.965926
 21
0.258819
 31
0.0
  0
LINE
  5
5F
330
59
100
AcDbEntity
  8
0
  6
CONTINUOUS
 62
     0
100
AcDbLine
 10
-0.965926
 20
-0.258819
 30
0.0
 11
-0.965926
 21
0.258819
 31
0.0
  0
ENDBLK
  5
5B
330
59
100
AcDbEntity
  8
0
100
AcDbBlockEnd
  0
BLOCK
  5
61
330
60
100
AcDbEntity
  8
0
100
AcDbBlockBegin
  2
FXTIP_TRIANGLE_E
 70
     0
 71
     0
 10
0.0
 20
0.0
 30
0.0
  3
FXTIP_TRIANGLE_E
  1

  0
LINE
  5
63
330
60
100
AcDbEntity
  8
0
  6
CONTINUOUS
 62
     0
100
AcDbLine
 10
0.0
 20
0.0
 30
0.0
 11
-1.0
 21
0.0
 31
0.0
  0
LINE
  5
64
330
60
100
AcDbEntity
  8
0
  6
CONTINUOUS
 62
     0
100
AcDbLine
 10
0.0
 20
0.0
 30
0.0
 11
-0.965926
 21
0.258819
 31
0.0
  0
LINE
  5
65
330
60
100
AcDbEntity
  8
0
  6
CONTINUOUS
 62
     0
100
AcDbLine
 10
0.0
 20
0.0
 30
0.0
 11
-0.965926
 21
-0.258819
 31
0.0
  0
LINE
  5
66
330
60
100
AcDbEntity
  8
0
  6
CONTINUOUS
 62
     0
100
AcDbLine
 10
-0.965926
 20
0.258819
 30
0.0
 11
-0.965926
 21
-0.258819
 31
0.0
  0
ENDBLK
  5
62
330
60
100
AcDbEntity
  8
0
100
AcDbBlockEnd
  0
BLOCK
  5
68
330
67
100
AcDbEntity
  8
0
100
AcDbBlockBegin
  2
FXTIP_ARCHITECT_S
 70
     0
 71
     0
 10
0.0
 20
0.0
 30
0.0
  3
FXTIP_ARCHITECT_S
  1

  0
LINE
  5
6A
330
67
100
AcDbEntity
  8
0
  6
CONTINUOUS
 62
     0
100
AcDbLine
 10
0.0
 20
0.0
 30
0.0
 11
-1.0
 21
0.0
 31
0.0
  0
LINE
  5
6B
330
67
100
AcDbEntity
  8
0
  6
CONTINUOUS
 62
     0
100
AcDbLine
 10
0.0
 20
0.0
 30
0.0
 11
-0.707107
 21
-0.707107
 31
0.0
  0
LINE
  5
6C
330
67
100
AcDbEntity
  8
0
  6
CONTINUOUS
 62
     0
100
AcDbLine
 10
0.0
 20
0.0
 30
0.0
 11
0.707107
 21
0.707107
 31
0.0
  0
ENDBLK
  5
69
330
67
100
AcDbEntity
  8
0
100
AcDbBlockEnd
  0
BLOCK
  5
6E
330
6D
100
AcDbEntity
  8
0
100
AcDbBlockBegin
  2
FXTIP_ARCHITECT_E
 70
     0
 71
     0
 10
0.0
 20
0.0
 30
0.0
  3
FXTIP_ARCHITECT_E
  1

  0
LINE
  5
70
330
6D
100
AcDbEntity
  8
0
  6
CONTINUOUS
 62
     0
100
AcDbLine
 10
0.0
 20
0.0
 30
0.0
 11
-1.0
 21
0.0
 31
0.0
  0
LINE
  5
71
330
6D
100
AcDbEntity
  8
0
  6
CONTINUOUS
 62
     0
100
AcDbLine
 10
0.0
 20
0.0
 30
0.0
 11
0.707107
 21
0.707107
 31
0.0
  0
LINE
  5
72
330
6D
100
AcDbEntity
  8
0
  6
CONTINUOUS
 62
     0
100
AcDbLine
 10
0.0
 20
0.0
 30
0.0
 11
-0.707107
 21
-0.707107
 31
0.0
  0
ENDBLK
  5
6F
330
6D
100
AcDbEntity
  8
0
100
AcDbBlockEnd
  0
BLOCK
  5
74
330
73
100
AcDbEntity
  8
0
100
AcDbBlockBegin
  2
FXTIP_CIVIL_S
 70
     0
 71
     0
 10
0.0
 20
0.0
 30
0.0
  3
FXTIP_CIVIL_S
  1

  0
LINE
  5
76
330
73
100
AcDbEntity
  8
0
  6
CONTINUOUS
 62
     0
100
AcDbLine
 10
0.0
 20
0.0
 30
0.0
 11
-1.0
 21
0.0
 31
0.0
  0
LINE
  5
77
330
73
100
AcDbEntity
  8
0
  6
CONTINUOUS
 62
     0
100
AcDbLine
 10
0.0
 20
-0.0625
 30
0.0
 11
-1.0
 21
-0.0625
 31
0.0
  0
LINE
  5
78
330
73
100
AcDbEntity
  8
0
  6
CONTINUOUS
 62
     0
100
AcDbLine
 10
0.0
 20
-0.125
 30
0.0
 11
-1.0
 21
-0.125
 31
0.0
  0
ENDBLK
  5
75
330
73
100
AcDbEntity
  8
0
100
AcDbBlockEnd
  0
BLOCK
  5
7A
330
79
100
AcDbEntity
  8
0
100
AcDbBlockBegin
  2
FXTIP_CIVIL_E
 70
     0
 71
     0
 10
0.0
 20
0.0
 30
0.0
  3
FXTIP_CIVIL_E
  1

  0
LINE
  5
7C
330
79
100
AcDbEntity
  8
0
  6
CONTINUOUS
 62
     0
100
AcDbLine
 10
0.0
 20
0.0
 30
0.0
 11
-1.0
 21
0.0
 31
0.0
  0
LINE
  5
7D
330
79
100
AcDbEntity
  8
0
  6
CONTINUOUS
 62
     0
100
AcDbLine
 10
0.0
 20
0.0625
 30
0.0
 11
-1.0
 21
0.0625
 31
0.0
  0
LINE
  5
7E
330
79
100
AcDbEntity
  8
0
  6
CONTINUOUS
 62
     0
100
AcDbLine
 10
0.0
 20
0.125
 30
0.0
 11
-1.0
 21
0.125
 31
0.0
  0
ENDBLK
  5
7B
330
79
100
AcDbEntity
  8
0
100
AcDbBlockEnd
  0
BLOCK
  5
80
330
7F
100
AcDbEntity
  8
0
100
AcDbBlockBegin
  2
FXTIP_WHITEDOT_S
 70
     0
 71
     0
 10
0.0
 20
0.0
 30
0.0
  3
FXTIP_WHITEDOT_S
  1

  0
LINE
  5
82
330
7F
100
AcDbEntity
  8
0
  6
CONTINUOUS
 62
     0
100
AcDbLine
 10
0.0
 20
0.0
 30
0.0
 11
-1.0
 21
0.0
 31
0.0
  0
CIRCLE
  5
83
330
7F
100
AcDbEntity
  8
0
  6
CONTINUOUS
 62
     0
100
AcDbCircle
 10
0.0
 20
0.0
 30
0.0
 40
0.5
  0
ENDBLK
  5
81
330
7F
100
AcDbEntity
  8
0
100
AcDbBlockEnd
  0
BLOCK
  5
85
330
84
100
AcDbEntity
  8
0
100
AcDbBlockBegin
  2
FXTIP_WHITEDOT_E
 70
     0
 71
     0
 10
0.0
 20
0.0
 30
0.0
  3
FXTIP_WHITEDOT_E
  1

  0
LINE
  5
87
330
84
100
AcDbEntity
  8
0
  6
CONTINUOUS
 62
     0
100
AcDbLine
 10
0.0
 20
0.0
 30
0.0
 11
-1.0
 21
0.0
 31
0.0
  0
CIRCLE
  5
88
330
84
100
AcDbEntity
  8
0
  6
CONTINUOUS
 62
     0
100
AcDbCircle
 10
0.0
 20
0.0
 30
0.0
 40
0.5
  0
ENDBLK
  5
86
330
84
100
AcDbEntity
  8
0
100
AcDbBlockEnd
  0
BLOCK
  5
8A
330
89
100
AcDbEntity
  8
0
100
AcDbBlockBegin
  2
FXTIP_UPARROW_S
 70
     0
 71
     0
 10
0.0
 20
0.0
 30
0.0
  3
FXTIP_UPARROW_S
  1

  0
LINE
  5
8C
330
89
100
AcDbEntity
  8
0
  6
CONTINUOUS
 62
     0
100
AcDbLine
 10
0.0
 20
0.0
 30
0.0
 11
-1.0
 21
0.0
 31
0.0
  0
LINE
  5
8D
330
89
100
AcDbEntity
  8
0
  6
CONTINUOUS
 62
     0
100
AcDbLine
 10
0.0
 20
0.0
 30
0.0
 11
-0.965926
 21
-0.258819
 31
0.0
  0
ENDBLK
  5
8B
330
89
100
AcDbEntity
  8
0
100
AcDbBlockEnd
  0
BLOCK
  5
8F
330
8E
100
AcDbEntity
  8
0
100
AcDbBlockBegin
  2
FXTIP_UPARROW_E
 70
     0
 71
     0
 10
0.0
 20
0.0
 30
0.0
  3
FXTIP_UPARROW_E
  1

  0
LINE
  5
91
330
8E
100
AcDbEntity
  8
0
  6
CONTINUOUS
 62
     0
100
AcDbLine
 10
0.0
 20
0.0
 30
0.0
 11
-1.0
 21
0.0
 31
0.0
  0
LINE
  5
92
330
8E
100
AcDbEntity
  8
0
  6
CONTINUOUS
 62
     0
100
AcDbLine
 10
0.0
 20
0.0
 30
0.0
 11
-0.965926
 21
0.258819
 31
0.0
  0
ENDBLK
  5
90
330
8E
100
AcDbEntity
  8
0
100
AcDbBlockEnd
  0
BLOCK
  5
94
330
93
100
AcDbEntity
  8
0
100
AcDbBlockBegin
  2
FXTIP_DOWNARROW_S
 70
     0
 71
     0
 10
0.0
 20
0.0
 30
0.0
  3
FXTIP_DOWNARROW_S
  1

  0
LINE
  5
96
330
93
100
AcDbEntity
  8
0
  6
CONTINUOUS
 62
     0
100
AcDbLine
 10
0.0
 20
0.0
 30
0.0
 11
-1.0
 21
0.0
 31
0.0
  0
LINE
  5
97
330
93
100
AcDbEntity
  8
0
  6
CONTINUOUS
 62
     0
100
AcDbLine
 10
0.0
 20
0.0
 30
0.0
 11
-0.965926
 21
0.258819
 31
0.0
  0
ENDBLK
  5
95
330
93
100
AcDbEntity
  8
0
100
AcDbBlockEnd
  0
BLOCK
  5
99
330
98
100
AcDbEntity
  8
0
100
AcDbBlockBegin
  2
FXTIP_DOWNARROW_E
 70
     0
 71
     0
 10
0.0
 20
0.0
 30
0.0
  3
FXTIP_DOWNARROW_E
  1

  0
LINE
  5
9B
330
98
100
AcDbEntity
  8
0
  6
CONTINUOUS
 62
     0
100
AcDbLine
 10
0.0
 20
0.0
 30
0.0
 11
-1.0
 21
0.0
 31
0.0
  0
LINE
  5
9C
330
98
100
AcDbEntity
  8
0
  6
CONTINUOUS
 62
     0
100
AcDbLine
 10
0.0
 20
0.0
 30
0.0
 11
-0.965926
 21
-0.258819
 31
0.0
  0
ENDBLK
  5
9A
330
98
100
AcDbEntity
  8
0
100
AcDbBlockEnd
  0
BLOCK
  5
9E
330
9D
100
AcDbEntity
  8
0
100
AcDbBlockBegin
  2
FXTIP_BLACKTRIANGLE_S
 70
     0
 71
     0
 10
0.0
 20
0.0
 30
0.0
  3
FXTIP_BLACKTRIANGLE_S
  1

  0
LINE
  5
A0
330
9D
100
AcDbEntity
  8
0
  6
CONTINUOUS
 62
     0
100
AcDbLine
 10
0.0
 20
0.0
 30
0.0
 11
-1.0
 21
0.0
 31
0.0
  0
SOLID
  5
A1
330
9D
100
AcDbEntity
  8
0
  6
CONTINUOUS
 62
     0
100
AcDbTrace
 10
0.0
 20
0.0
 30
0.0
 11
-0.965926
 21
-0.258819
 31
0.0
 12
-0.965926
 22
0.258819
 32
0.0
 13
-0.965926
 23
0.258819
 33
0.0
  0
ENDBLK
  5
9F
330
9D
100
AcDbEntity
  8
0
100
AcDbBlockEnd
  0
BLOCK
  5
A3
330
A2
100
AcDbEntity
  8
0
100
AcDbBlockBegin
  2
FXTIP_BLACKTRIANGLE_E
 70
     0
 71
     0
 10
0.0
 20
0.0
 30
0.0
  3
FXTIP_BLACKTRIANGLE_E
  1

  0
LINE
  5
A5
330
A2
100
AcDbEntity
  8
0
  6
CONTINUOUS
 62
     0
100
AcDbLine
 10
0.0
 20
0.0
 30
0.0
 11
-1.0
 21
0.0
 31
0.0
  0
SOLID
  5
A6
330
A2
100
AcDbEntity
  8
0
  6
CONTINUOUS
 62
     0
100
AcDbTrace
 10
0.0
 20
0.0
 30
0.0
 11
-0.965926
 21
0.258819
 31
0.0
 12
-0.965926
 22
-0.258819
 32
0.0
 13
-0.965926
 23
-0.258819
 33
0.0
  0
ENDBLK
  5
A4
330
A2
100
AcDbEntity
  8
0
100
AcDbBlockEnd
  0
BLOCK
  5
1E2
330
1E1
100
AcDbEntity
  8
0
100
AcDbBlockBegin
  2
BLKF021
 70
     0
 71
     0
 10
0.0
 20
0.0
 30
0.0
  3
BLKF021
  1

  0
LINE
  5
1E5
330
1E1
100
AcDbEntity
  8
GR1-1
  6
CONTINUOUS
 62
     7
100
AcDbLine
 10
265.421497
 20
57.734685
 30
0.0
 11
265.168836
 21
57.648986
 31
0.0
  0
LINE
  5
1E6
330
1E1
100
AcDbEntity
  8
GR1-1
  6
CONTINUOUS
 62
     7
100
AcDbLine
 10
265.590678
 20
57.651204
 30
0.0
 11
265.085354
 21
57.479806
 31
0.0
  0
LINE
  5
1E7
330
1E1
100
AcDbEntity
  8
GR1-1
  6
CONTINUOUS
 62
     7
100
AcDbLine
 10
265.759858
 20
57.567722
 30
0.0
 11
265.001873
 21
57.310626
 31
0.0
  0
LINE
  5
1E8
330
1E1
100
AcDbEntity
  8
GR1-1
  6
CONTINUOUS
 62
     7
100
AcDbLine
 10
265.929038
 20
57.484241
 30
0.0
 11
264.918391
 21
57.141446
 31
0.0
  0
LINE
  5
1E9
330
1E1
100
AcDbEntity
  8
GR1-1
  6
CONTINUOUS
 62
     7
100
AcDbLine
 10
266.098219
 20
57.400759
 30
0.0
 11
265.22665
 21
57.105137
 31
0.0
  0
LINE
  5
1EA
330
1E1
100
AcDbEntity
  8
GR1-1
  6
CONTINUOUS
 62
     7
100
AcDbLine
 10
264.988175
 20
57.02425
 30
0.0
 11
264.83491
 21
56.972265
 31
0.0
  0
LINE
  5
1EB
330
1E1
100
AcDbEntity
  8
GR1-1
  6
CONTINUOUS
 62
     7
100
AcDbLine
 10
266.267399
 20
57.317278
 30
0.0
 11
265.39583
 21
57.021656
 31
0.0
  0
LINE
  5
1EC
330
1E1
100
AcDbEntity
  8
GR1-1
  6
CONTINUOUS
 62
     7
100
AcDbLine
 10
264.904693
 20
56.85507
 30
0.0
 11
264.751428
 21
56.803085
 31
0.0
  0
LINE
  5
1ED
330
1E1
100
AcDbEntity
  8
GR1-1
  6
CONTINUOUS
 62
     7
100
AcDbLine
 10
266.436579
 20
57.233797
 30
0.0
 11
265.56501
 21
56.938174
 31
0.0
  0
LINE
  5
1EE
330
1E1
100
AcDbEntity
  8
GR1-1
  6
CONTINUOUS
 62
     7
100
AcDbLine
 10
264.821212
 20
56.68589
 30
0.0
 11
264.667947
 21
56.633905
 31
0.0
  0
LINE
  5
1EF
330
1E1
100
AcDbEntity
  8
GR1-1
  6
CONTINUOUS
 62
     7
100
AcDbLine
 10
266.605759
 20
57.150315
 30
0.0
 11
265.631025
 21
56.819701
 31
0.0
  0
LINE
  5
1F0
330
1E1
100
AcDbEntity
  8
GR1-1
  6
CONTINUOUS
 62
     7
100
AcDbLine
 10
264.737731
 20
56.51671
 30
0.0
 11
264.584466
 21
56.464725
 31
0.0
  0
LINE
  5
1F1
330
1E1
100
AcDbEntity
  8
GR1-1
  6
CONTINUOUS
 62
     7
100
AcDbLine
 10
266.77494
 20
57.066834
 30
0.0
 11
265.547543
 21
56.65052
 31
0.0
  0
LINE
  5
1F2
330
1E1
100
AcDbEntity
  8
GR1-1
  6
CONTINUOUS
 62
     7
100
AcDbLine
 10
264.654249
 20
56.347529
 30
0.0
 11
264.500984
 21
56.295544
 31
0.0
  0
LINE
  5
1F3
330
1E1
100
AcDbEntity
  8
GR1-1
  6
CONTINUOUS
 62
     7
100
AcDbLine
 10
266.94412
 20
56.983352
 30
0.0
 11
265.464062
 21
56.48134
 31
0.0
  0
LINE
  5
1F4
330
1E1
100
AcDbEntity
  8
GR1-1
  6
CONTINUOUS
 62
     7
100
AcDbLine
 10
264.570768
 20
56.178349
 30
0.0
 11
264.417503
 21
56.126364
 31
0.0
  0
LINE
  5
1F5
330
1E1
100
AcDbEntity
  8
GR1-1
  6
CONTINUOUS
 62
     7
100
AcDbLine
 10
267.1133
 20
56.899871
 30
0.0
 11
265.4544
 21
56.337198
 31
0.0
  0
LINE
  5
1F6
330
1E1
100
AcDbEntity
  8
GR1-1
  6
CONTINUOUS
 62
     7
100
AcDbLine
 10
264.487286
 20
56.009169
 30
0.0
 11
264.334021
 21
55.957184
 31
0.0
  0
LINE
  5
1F7
330
1E1
100
AcDbEntity
  8
GR1-1
  6
CONTINUOUS
 62
     7
100
AcDbLine
 10
267.282481
 20
56.816389
 30
0.0
 11
267.029819
 21
56.730691
 31
0.0
  0
LINE
  5
1F8
330
1E1
100
AcDbEntity
  8
GR1-1
  6
CONTINUOUS
 62
     7
100
AcDbLine
 10
264.602598
 20
55.907416
 30
0.0
 11
264.25054
 21
55.788003
 31
0.0
  0
LINE
  5
1F9
330
1E1
100
AcDbEntity
  8
GR1-1
  6
CONTINUOUS
 62
     7
100
AcDbLine
 10
267.451661
 20
56.732908
 30
0.0
 11
267.072668
 21
56.60436
 31
0.0
  0
LINE
  5
1FA
330
1E1
100
AcDbEntity
  8
GR1-1
  6
CONTINUOUS
 62
     7
100
AcDbLine
 10
264.771778
 20
55.823935
 30
0.0
 11
264.167058
 21
55.618823
 31
0.0
  0
LINE
  5
1FB
330
1E1
100
AcDbEntity
  8
GR1-1
  6
CONTINUOUS
 62
     7
100
AcDbLine
 10
267.620841
 20
56.649426
 30
0.0
 11
267.115518
 21
56.478029
 31
0.0
  0
LINE
  5
1FC
330
1E1
100
AcDbEntity
  8
GR1-1
  6
CONTINUOUS
 62
     7
100
AcDbLine
 10
264.940959
 20
55.740453
 30
0.0
 11
264.67297
 21
55.649556
 31
0.0
  0
LINE
  5
1FD
330
1E1
100
AcDbEntity
  8
GR1-1
  6
CONTINUOUS
 62
     7
100
AcDbLine
 10
264.5889
 20
55.62104
 30
0.0
 11
264.083577
 21
55.449643
 31
0.0
  0
LINE
  5
1FE
330
1E1
100
AcDbEntity
  8
GR1-1
  6
CONTINUOUS
 62
     7
100
AcDbLine
 10
267.790021
 20
56.565945
 30
0.0
 11
267.158367
 21
56.351698
 31
0.0
  0
LINE
  5
1FF
330
1E1
100
AcDbEntity
  8
GR1-1
  6
CONTINUOUS
 62
     7
100
AcDbLine
 10
265.110139
 20
55.656972
 30
0.0
 11
264.842151
 21
55.566074
 31
0.0
  0
LINE
  5
200
330
1E1
100
AcDbEntity
  8
GR1-1
  6
CONTINUOUS
 62
     7
100
AcDbLine
 10
264.63175
 20
55.49471
 30
0.0
 11
264.000095
 21
55.280463
 31
0.0
  0
LINE
  5
201
330
1E1
100
AcDbEntity
  8
GR1-1
  6
CONTINUOUS
 62
     7
100
AcDbLine
 10
267.959202
 20
56.482464
 30
0.0
 11
267.201216
 21
56.225367
 31
0.0
  0
LINE
  5
202
330
1E1
100
AcDbEntity
  8
GR1-1
  6
CONTINUOUS
 62
     7
100
AcDbLine
 10
265.279319
 20
55.57349
 30
0.0
 11
265.011331
 21
55.482593
 31
0.0
  0
LINE
  5
203
330
1E1
100
AcDbEntity
  8
GR1-1
  6
CONTINUOUS
 62
     7
100
AcDbLine
 10
264.674599
 20
55.368379
 30
0.0
 11
263.916614
 21
55.111282
 31
0.0
  0
LINE
  5
204
330
1E1
100
AcDbEntity
  8
GR1-1
  6
CONTINUOUS
 62
     7
100
AcDbLine
 10
268.128382
 20
56.398982
 30
0.0
 11
267.244066
 21
56.099036
 31
0.0
  0
LINE
  5
205
330
1E1
100
AcDbEntity
  8
GR1-1
  6
CONTINUOUS
 62
     7
100
AcDbLine
 10
266.612412
 20
55.884789
 30
0.0
 11
265.896503
 21
55.641964
 31
0.0
  0
LINE
  5
206
330
1E1
100
AcDbEntity
  8
GR1-1
  6
CONTINUOUS
 62
     7
100
AcDbLine
 10
265.4485
 20
55.490009
 30
0.0
 11
265.180511
 21
55.399111
 31
0.0
  0
LINE
  5
207
330
1E1
100
AcDbEntity
  8
GR1-1
  6
CONTINUOUS
 62
     7
100
AcDbLine
 10
264.717449
 20
55.242048
 30
0.0
 11
263.833132
 21
54.942102
 31
0.0
  0
LINE
  5
208
330
1E1
100
AcDbEntity
  8
GR1-1
  6
CONTINUOUS
 62
     7
100
AcDbLine
 10
268.297562
 20
56.315501
 30
0.0
 11
267.286915
 21
55.972705
 31
0.0
  0
LINE
  5
209
330
1E1
100
AcDbEntity
  8
GR1-1
  6
CONTINUOUS
 62
     7
100
AcDbLine
 10
266.655261
 20
55.758458
 30
0.0
 11
266.064327
 21
55.558023
 31
0.0
  0
LINE
  5
20A
330
1E1
100
AcDbEntity
  8
GR1-1
  6
CONTINUOUS
 62
     7
100
AcDbLine
 10
265.61768
 20
55.406527
 30
0.0
 11
265.349692
 21
55.31563
 31
0.0
  0
LINE
  5
20B
330
1E1
100
AcDbEntity
  8
GR1-1
  6
CONTINUOUS
 62
     7
100
AcDbLine
 10
264.760298
 20
55.115717
 30
0.0
 11
263.749651
 21
54.772922
 31
0.0
  0
LINE
  5
20C
330
1E1
100
AcDbEntity
  8
GR1-1
  6
CONTINUOUS
 62
     7
100
AcDbLine
 10
268.466742
 20
56.232019
 30
0.0
 11
267.329765
 21
55.846374
 31
0.0
  0
LINE
  5
20D
330
1E1
100
AcDbEntity
  8
GR1-1
  6
CONTINUOUS
 62
     7
100
AcDbLine
 10
266.69811
 20
55.632127
 30
0.0
 11
266.233507
 21
55.474541
 31
0.0
  0
LINE
  5
20E
330
1E1
100
AcDbEntity
  8
GR1-1
  6
CONTINUOUS
 62
     7
100
AcDbLine
 10
265.78686
 20
55.323046
 30
0.0
 11
265.434802
 21
55.203633
 31
0.0
  0
LINE
  5
20F
330
1E1
100
AcDbEntity
  8
GR1-1
  6
CONTINUOUS
 62
     7
100
AcDbLine
 10
264.803147
 20
54.989386
 30
0.0
 11
263.66617
 21
54.603741
 31
0.0
  0
LINE
  5
210
330
1E1
100
AcDbEntity
  8
GR1-1
  6
CONTINUOUS
 62
     7
100
AcDbLine
 10
268.635923
 20
56.148538
 30
0.0
 11
267.372614
 21
55.720044
 31
0.0
  0
LINE
  5
211
330
1E1
100
AcDbEntity
  8
GR1-1
  6
CONTINUOUS
 62
     7
100
AcDbLine
 10
266.74096
 20
55.505797
 30
0.0
 11
266.26257
 21
55.343534
 31
0.0
  0
LINE
  5
212
330
1E1
100
AcDbEntity
  8
GR1-1
  6
CONTINUOUS
 62
     7
100
AcDbLine
 10
265.95604
 20
55.239564
 30
0.0
 11
265.477651
 21
55.077302
 31
0.0
  0
LINE
  5
213
330
1E1
100
AcDbEntity
  8
GR1-1
  6
CONTINUOUS
 62
     7
100
AcDbLine
 10
264.845997
 20
54.863055
 30
0.0
 11
263.582688
 21
54.434561
 31
0.0
  0
LINE
  5
214
330
1E1
100
AcDbEntity
  8
GR1-1
  6
CONTINUOUS
 62
     7
100
AcDbLine
 10
268.805103
 20
56.065056
 30
0.0
 11
267.415464
 21
55.593713
 31
0.0
  0
LINE
  5
215
330
1E1
100
AcDbEntity
  8
GR1-1
  6
CONTINUOUS
 62
     7
100
AcDbLine
 10
266.783809
 20
55.379466
 30
0.0
 11
266.179089
 21
55.174354
 31
0.0
  0
LINE
  5
216
330
1E1
100
AcDbEntity
  8
GR1-1
  6
CONTINUOUS
 62
     7
100
AcDbLine
 10
266.125221
 20
55.156083
 30
0.0
 11
265.520501
 21
54.950971
 31
0.0
  0
LINE
  5
217
330
1E1
100
AcDbEntity
  8
GR1-1
  6
CONTINUOUS
 62
     7
100
AcDbLine
 10
264.888846
 20
54.736724
 30
0.0
 11
263.499207
 21
54.265381
 31
0.0
  0
LINE
  5
218
330
1E1
100
AcDbEntity
  8
GR1-1
  6
CONTINUOUS
 62
     7
100
AcDbLine
 10
268.77549
 20
55.914147
 30
0.0
 11
267.458313
 21
55.467382
 31
0.0
  0
LINE
  5
219
330
1E1
100
AcDbEntity
  8
GR1-1
  6
CONTINUOUS
 62
     7
100
AcDbLine
 10
266.826659
 20
55.253135
 30
0.0
 11
265.56335
 21
54.824641
 31
0.0
  0
LINE
  5
21A
330
1E1
100
AcDbEntity
  8
GR1-1
  6
CONTINUOUS
 62
     7
100
AcDbLine
 10
264.931696
 20
54.610394
 30
0.0
 11
263.614519
 21
54.163628
 31
0.0
  0
LINE
  5
21B
330
1E1
100
AcDbEntity
  8
GR1-1
  6
CONTINUOUS
 62
     7
100
AcDbLine
 10
268.692008
 20
55.744967
 30
0.0
 11
267.501162
 21
55.341051
 31
0.0
  0
LINE
  5
21C
330
1E1
100
AcDbEntity
  8
GR1-1
  6
CONTINUOUS
 62
     7
100
AcDbLine
 10
266.869508
 20
55.126804
 30
0.0
 11
265.606199
 21
54.69831
 31
0.0
  0
LINE
  5
21D
330
1E1
100
AcDbEntity
  8
GR1-1
  6
CONTINUOUS
 62
     7
100
AcDbLine
 10
264.974545
 20
54.484063
 30
0.0
 11
263.783699
 21
54.080147
 31
0.0
  0
LINE
  5
21E
330
1E1
100
AcDbEntity
  8
GR1-1
  6
CONTINUOUS
 62
     7
100
AcDbLine
 10
268.608527
 20
55.575787
 30
0.0
 11
267.544012
 21
55.21472
 31
0.0
  0
LINE
  5
21F
330
1E1
100
AcDbEntity
  8
GR1-1
  6
CONTINUOUS
 62
     7
100
AcDbLine
 10
266.912357
 20
55.000473
 30
0.0
 11
265.649049
 21
54.571979
 31
0.0
  0
LINE
  5
220
330
1E1
100
AcDbEntity
  8
GR1-1
  6
CONTINUOUS
 62
     7
100
AcDbLine
 10
265.017394
 20
54.357732
 30
0.0
 11
263.952879
 21
53.996665
 31
0.0
  0
LINE
  5
221
330
1E1
100
AcDbEntity
  8
GR1-1
  6
CONTINUOUS
 62
     7
100
AcDbLine
 10
268.525046
 20
55.406606
 30
0.0
 11
267.586861
 21
55.088389
 31
0.0
  0
LINE
  5
222
330
1E1
100
AcDbEntity
  8
GR1-1
  6
CONTINUOUS
 62
     7
100
AcDbLine
 10
266.955207
 20
54.874142
 30
0.0
 11
265.691898
 21
54.445648
 31
0.0
  0
LINE
  5
223
330
1E1
100
AcDbEntity
  8
GR1-1
  6
CONTINUOUS
 62
     7
100
AcDbLine
 10
265.060244
 20
54.231401
 30
0.0
 11
264.122059
 21
53.913184
 31
0.0
  0
LINE
  5
224
330
1E1
100
AcDbEntity
  8
GR1-1
  6
CONTINUOUS
 62
     7
100
AcDbLine
 10
268.441564
 20
55.237426
 30
0.0
 11
267.629711
 21
54.962058
 31
0.0
  0
LINE
  5
225
330
1E1
100
AcDbEntity
  8
GR1-1
  6
CONTINUOUS
 62
     7
100
AcDbLine
 10
266.998056
 20
54.747811
 30
0.0
 11
265.734748
 21
54.319317
 31
0.0
  0
LINE
  5
226
330
1E1
100
AcDbEntity
  8
GR1-1
  6
CONTINUOUS
 62
     7
100
AcDbLine
 10
265.103093
 20
54.10507
 30
0.0
 11
264.29124
 21
53.829702
 31
0.0
  0
LINE
  5
227
330
1E1
100
AcDbEntity
  8
GR1-1
  6
CONTINUOUS
 62
     7
100
AcDbLine
 10
268.358083
 20
55.068246
 30
0.0
 11
267.67256
 21
54.835728
 31
0.0
  0
LINE
  5
228
330
1E1
100
AcDbEntity
  8
GR1-1
  6
CONTINUOUS
 62
     7
100
AcDbLine
 10
265.145943
 20
53.978739
 30
0.0
 11
264.46042
 21
53.746221
 31
0.0
  0
LINE
  5
229
330
1E1
100
AcDbEntity
  8
GR1-1
  6
CONTINUOUS
 62
     7
100
AcDbLine
 10
268.274601
 20
54.899066
 30
0.0
 11
267.715409
 21
54.709397
 31
0.0
  0
LINE
  5
22A
330
1E1
100
AcDbEntity
  8
GR1-1
  6
CONTINUOUS
 62
     7
100
AcDbLine
 10
265.188792
 20
53.852408
 30
0.0
 11
264.6296
 21
53.662739
 31
0.0
  0
LINE
  5
22B
330
1E1
100
AcDbEntity
  8
GR1-1
  6
CONTINUOUS
 62
     7
100
AcDbLine
 10
268.19112
 20
54.729885
 30
0.0
 11
267.758259
 21
54.583066
 31
0.0
  0
LINE
  5
22C
330
1E1
100
AcDbEntity
  8
GR1-1
  6
CONTINUOUS
 62
     7
100
AcDbLine
 10
265.231641
 20
53.726077
 30
0.0
 11
264.798781
 21
53.579258
 31
0.0
  0
LINE
  5
22D
330
1E1
100
AcDbEntity
  8
GR1-1
  6
CONTINUOUS
 62
     7
100
AcDbLine
 10
268.107638
 20
54.560705
 30
0.0
 11
267.801108
 21
54.456735
 31
0.0
  0
LINE
  5
22E
330
1E1
100
AcDbEntity
  8
GR1-1
  6
CONTINUOUS
 62
     7
100
AcDbLine
 10
265.274491
 20
53.599747
 30
0.0
 11
264.967961
 21
53.495777
 31
0.0
  0
LINE
  5
22F
330
1E1
100
AcDbEntity
  8
GR1-1
  6
CONTINUOUS
 62
     7
100
AcDbLine
 10
268.024157
 20
54.391525
 30
0.0
 11
267.843958
 21
54.330404
 31
0.0
  0
LINE
  5
230
330
1E1
100
AcDbEntity
  8
GR1-1
  6
CONTINUOUS
 62
     7
100
AcDbLine
 10
265.31734
 20
53.473416
 30
0.0
 11
265.137141
 21
53.412295
 31
0.0
  0
LINE
  5
231
330
1E1
100
AcDbEntity
  8
GR1-1
  6
CONTINUOUS
 62
     7
100
AcDbLine
 10
267.940675
 20
54.222344
 30
0.0
 11
265.306321
 21
53.328814
 31
0.0
  0
LINE
  5
232
330
1E1
100
AcDbEntity
  8
GR1-1
  6
CONTINUOUS
 62
     7
100
AcDbLine
 10
267.857194
 20
54.053164
 30
0.0
 11
265.475502
 21
53.245332
 31
0.0
  0
LINE
  5
233
330
1E1
100
AcDbEntity
  8
GR1-1
  6
CONTINUOUS
 62
     7
100
AcDbLine
 10
267.773713
 20
53.883984
 30
0.0
 11
265.644682
 21
53.161851
 31
0.0
  0
LINE
  5
234
330
1E1
100
AcDbEntity
  8
GR1-1
  6
CONTINUOUS
 62
     7
100
AcDbLine
 10
267.690231
 20
53.714804
 30
0.0
 11
265.813862
 21
53.078369
 31
0.0
  0
LINE
  5
235
330
1E1
100
AcDbEntity
  8
GR1-1
  6
CONTINUOUS
 62
     7
100
AcDbLine
 10
267.60675
 20
53.545623
 30
0.0
 11
265.983043
 21
52.994888
 31
0.0
  0
LINE
  5
236
330
1E1
100
AcDbEntity
  8
GR1-1
  6
CONTINUOUS
 62
     7
100
AcDbLine
 10
267.523268
 20
53.376443
 30
0.0
 11
266.152223
 21
52.911406
 31
0.0
  0
LINE
  5
237
330
1E1
100
AcDbEntity
  8
GR1-1
  6
CONTINUOUS
 62
     7
100
AcDbLine
 10
267.439787
 20
53.207263
 30
0.0
 11
266.321403
 21
52.827925
 31
0.0
  0
LINE
  5
238
330
1E1
100
AcDbEntity
  8
GR1-1
  6
CONTINUOUS
 62
     7
100
AcDbLine
 10
267.356305
 20
53.038083
 30
0.0
 11
266.490583
 21
52.744443
 31
0.0
  0
LINE
  5
239
330
1E1
100
AcDbEntity
  8
GR1-1
  6
CONTINUOUS
 62
     7
100
AcDbLine
 10
267.272824
 20
52.868902
 30
0.0
 11
266.659764
 21
52.660962
 31
0.0
  0
LINE
  5
23A
330
1E1
100
AcDbEntity
  8
GR1-1
  6
CONTINUOUS
 62
     7
100
AcDbLine
 10
267.189342
 20
52.699722
 30
0.0
 11
266.828944
 21
52.577481
 31
0.0
  0
LINE
  5
23B
330
1E1
100
AcDbEntity
  8
GR1-1
  6
CONTINUOUS
 62
     7
100
AcDbLine
 10
267.105861
 20
52.530542
 30
0.0
 11
266.998124
 21
52.493999
 31
0.0
  0
ENDBLK
  5
1E3
330
1E1
100
AcDbEntity
  8
0
100
AcDbBlockEnd
  0
BLOCK
  5
261
330
260
100
AcDbEntity
  8
0
100
AcDbBlockBegin
  2
BLKF022
 70
     0
 71
     0
 10
0.0
 20
0.0
 30
0.0
  3
BLKF022
  1

  0
LINE
  5
264
330
260
100
AcDbEntity
  8
}}ﾊﾊGG血CCТ
  6
CONTINUOUS
 62
     7
100
AcDbLine
 10
10.0
 20
10.0
 30
0.0
 11
410.0
 21
10.0
 31
0.0
  0
LINE
  5
265
330
260
100
AcDbEntity
  8
}}ﾊﾊGG血CCТ
  6
CONTINUOUS
 62
     7
100
AcDbLine
 10
10.0
 20
10.0
 30
0.0
 11
10.0
 21
287.0
 31
0.0
  0
LINE
  5
266
330
260
100
AcDbEntity
  8
}}ﾊﾊGG血CCТ
  6
CONTINUOUS
 62
     7
100
AcDbLine
 10
10.0
 20
287.0
 30
0.0
 11
410.0
 21
287.0
 31
0.0
  0
LINE
  5
267
330
260
100
AcDbEntity
  8
}}ﾊﾊGG血CCТ
  6
CONTINUOUS
 62
     7
100
AcDbLine
 10
410.0
 20
287.0
 30
0.0
 11
410.0
 21
10.0
 31
0.0
  0
LINE
  5
268
330
260
100
AcDbEntity
  8
}}ﾊﾊGG血CCТ
  6
CONTINUOUS
 62
     7
100
AcDbLine
 10
153.0
 20
10.0
 30
0.0
 11
153.0
 21
20.0
 31
0.0
  0
TEXT
  5
269
330
260
100
AcDbEntity
  8
}}ﾊﾊGG血CCТ
  6
CONTINUOUS
 62
     7
100
AcDbText
 10
137.738815
 20
11.596879
 30
0.0
 40
6.648749
  1
品名
 41
1.083413
  7
FX_VECTOR
 72
     5
 11
149.058355
 21
11.596879
 31
0.0
100
AcDbText
  0
LINE
  5
26A
330
260
100
AcDbEntity
  8
}}ﾊﾊGG血CCТ
  6
CONTINUOUS
 62
     7
100
AcDbLine
 10
233.0
 20
20.0
 30
0.0
 11
233.0
 21
10.0
 31
0.0
  0
LINE
  5
26B
330
260
100
AcDbEntity
  8
}}ﾊﾊGG血CCТ
  6
CONTINUOUS
 62
     7
100
AcDbLine
 10
133.0
 20
20.0
 30
0.0
 11
410.0
 21
20.0
 31
0.0
  0
INSERT
  5
26F
330
260
100
AcDbEntity
  8
0
100
AcDbBlockReference
  2
BLKF023
 10
0.0
 20
0.0
 30
0.0
  0
INSERT
  5
278
330
260
100
AcDbEntity
  8
0
100
AcDbBlockReference
  2
BLKF024
 10
0.0
 20
0.0
 30
0.0
  0
HATCH
  5
288
330
260
100
AcDbEntity
  8
GR1-1
  6
CONTINUOUS
 62
     7
100
AcDbHatch
 10
0.0
 20
0.0
 30
0.0
210
0.0
220
0.0
230
1.0
  2

 70
     0
 71
     1
 91
        2
 92
        0
 93
        4
 72
     1
 10
338.8018997861325
 20
17.91346152
 11
344.8018997861325
 21
17.91346152
 72
     1
 10
344.8018997861325
 20
17.91346152
 11
344.8018997861325
 21
11.91346152
 72
     1
 10
344.8018997861325
 20
11.91346152
 11
338.8018997861325
 21
11.91346152
 72
     1
 10
338.8018997861325
 20
11.91346152
 11
338.8018997861325
 21
17.91346152
 97
        0
 92
        0
 93
       15
 72
     1
 10
341.8018997861325
 20
17.76923076000002
 11
338.9461305461325
 21
14.91346152
 72
     1
 10
338.9461305461325
 20
14.91346152
 11
341.8018997861325
 21
12.05769228000001
 72
     1
 10
341.8018997861325
 20
12.05769228000001
 11
343.3595920661325
 21
13.61538462
 72
     1
 10
343.3595920661325
 20
13.61538462
 11
343.3595920661325
 21
12.98076924
 72
     1
 10
343.3595920661325
 20
12.98076924
 11
344.2249766861325
 21
12.98076924
 72
     1
 10
344.2249766861325
 20
12.98076924
 11
344.2249766861325
 21
15.00000000000001
 72
     1
 10
344.2249766861325
 20
15.00000000000001
 11
341.8018997861325
 21
15.00000000000001
 72
     1
 10
341.8018997861325
 20
15.00000000000001
 11
341.8018997861325
 21
14.13461538000001
 72
     1
 10
341.8018997861325
 20
14.13461538000001
 11
342.2461305461325
 21
14.13461538000001
 72
     1
 10
342.2461305461325
 20
14.13461538000001
 11
341.8018997861325
 21
13.69038462
 72
     1
 10
341.8018997861325
 20
13.69038462
 11
340.5788228861325
 21
14.91346152
 72
     1
 10
340.5788228861325
 20
14.91346152
 11
341.8018997861325
 21
16.13653842000003
 72
     1
 10
341.8018997861325
 20
16.13653842000003
 11
342.5922844061325
 21
15.3461538
 72
     1
 10
342.5922844061325
 20
15.3461538
 11
344.2249766861325
 21
15.3461538
 72
     1
 10
344.2249766861325
 20
15.3461538
 11
341.8018997861325
 21
17.76923076000002
 97
        0
 75
     0
 76
     0
 52
45.0
 41
0.05
 77
     0
 78
     1
 53
45.0
 43
0.0
 44
0.0
 45
-0.0353553390593274
 46
0.0353553390593274
 79
     0
 98
        0
  0
TEXT
  5
289
330
260
100
AcDbEntity
  8
}}ﾊﾊGG血CCТ
  6
CONTINUOUS
 62
     7
100
AcDbText
 10
349.225769
 20
11.461285
 30
0.0
 40
7.170908
  1
GOLD CASTER
 41
0.63978
  7
FX_VECTOR
 72
     5
 11
395.977636
 21
11.461285
 31
0.0
100
AcDbText
  0
LINE
  5
28A
330
260
100
AcDbEntity
  8
}}ﾊﾊGG血CCТ
  6
CONTINUOUS
 62
     7
100
AcDbLine
 10
253.0
 20
10.0
 30
0.0
 11
253.0
 21
20.0
 31
0.0
  0
TEXT
  5
28B
330
260
100
AcDbEntity
  8
}}ﾊﾊGG血CCТ
  6
CONTINUOUS
 62
     7
100
AcDbText
 10
237.738815
 20
11.596879
 30
0.0
 40
6.648749
  1
図番
 41
1.083413
  7
FX_VECTOR
 72
     5
 11
249.058355
 21
11.596879
 31
0.0
100
AcDbText
  0
LINE
  5
28C
330
260
100
AcDbEntity
  8
}}ﾊﾊGG血CCТ
  6
CONTINUOUS
 62
     7
100
AcDbLine
 10
333.0
 20
20.0
 30
0.0
 11
333.0
 21
10.0
 31
0.0
  0
LINE
  5
28D
330
260
100
AcDbEntity
  8
}}ﾊﾊGG血CCТ
  6
CONTINUOUS
 62
     7
100
AcDbLine
 10
133.0
 20
20.0
 30
0.0
 11
133.0
 21
10.0
 31
0.0
  0
ENDBLK
  5
262
330
260
100
AcDbEntity
  8
0
100
AcDbBlockEnd
  0
BLOCK
  5
26D
330
26C
100
AcDbEntity
  8
0
100
AcDbBlockBegin
  2
BLKF023
 70
     0
 71
     0
 10
0.0
 20
0.0
 30
0.0
  3
BLKF023
  1

  0
LINE
  5
271
330
26C
100
AcDbEntity
  8
0-1
  6
CONTINUOUS
 62
     7
100
AcDbLine
 10
344.8019
 20
17.913462
 30
0.0
 11
338.8019
 21
17.913462
 31
0.0
  0
LINE
  5
272
330
26C
100
AcDbEntity
  8
0-1
  6
CONTINUOUS
 62
     7
100
AcDbLine
 10
338.8019
 20
17.913462
 30
0.0
 11
338.8019
 21
11.913462
 31
0.0
  0
LINE
  5
273
330
26C
100
AcDbEntity
  8
0-1
  6
CONTINUOUS
 62
     7
100
AcDbLine
 10
338.8019
 20
11.913462
 30
0.0
 11
344.8019
 21
11.913462
 31
0.0
  0
LINE
  5
274
330
26C
100
AcDbEntity
  8
0-1
  6
CONTINUOUS
 62
     7
100
AcDbLine
 10
344.8019
 20
11.913462
 30
0.0
 11
344.8019
 21
17.913462
 31
0.0
  0
ENDBLK
  5
26E
330
26C
100
AcDbEntity
  8
0
100
AcDbBlockEnd
  0
BLOCK
  5
276
330
275
100
AcDbEntity
  8
0
100
AcDbBlockBegin
  2
BLKF024
 70
     0
 71
     0
 10
0.0
 20
0.0
 30
0.0
  3
BLKF024
  1

  0
LINE
  5
279
330
275
100
AcDbEntity
  8
0-1
  6
CONTINUOUS
 62
     7
100
AcDbLine
 10
344.224977
 20
15.346154
 30
0.0
 11
341.8019
 21
17.769231
 31
0.0
  0
LINE
  5
27A
330
275
100
AcDbEntity
  8
0-1
  6
CONTINUOUS
 62
     7
100
AcDbLine
 10
341.8019
 20
17.769231
 30
0.0
 11
338.946131
 21
14.913462
 31
0.0
  0
LINE
  5
27B
330
275
100
AcDbEntity
  8
0-1
  6
CONTINUOUS
 62
     7
100
AcDbLine
 10
338.946131
 20
14.913462
 30
0.0
 11
341.8019
 21
12.057692
 31
0.0
  0
LINE
  5
27C
330
275
100
AcDbEntity
  8
0-1
  6
CONTINUOUS
 62
     7
100
AcDbLine
 10
341.8019
 20
12.057692
 30
0.0
 11
343.359592
 21
13.615385
 31
0.0
  0
LINE
  5
27D
330
275
100
AcDbEntity
  8
0-1
  6
CONTINUOUS
 62
     7
100
AcDbLine
 10
343.359592
 20
13.615385
 30
0.0
 11
343.359592
 21
12.980769
 31
0.0
  0
LINE
  5
27E
330
275
100
AcDbEntity
  8
0-1
  6
CONTINUOUS
 62
     7
100
AcDbLine
 10
343.359592
 20
12.980769
 30
0.0
 11
344.224977
 21
12.980769
 31
0.0
  0
LINE
  5
27F
330
275
100
AcDbEntity
  8
0-1
  6
CONTINUOUS
 62
     7
100
AcDbLine
 10
344.224977
 20
12.980769
 30
0.0
 11
344.224977
 21
15.0
 31
0.0
  0
LINE
  5
280
330
275
100
AcDbEntity
  8
0-1
  6
CONTINUOUS
 62
     7
100
AcDbLine
 10
344.224977
 20
15.0
 30
0.0
 11
341.8019
 21
15.0
 31
0.0
  0
LINE
  5
281
330
275
100
AcDbEntity
  8
0-1
  6
CONTINUOUS
 62
     7
100
AcDbLine
 10
341.8019
 20
15.0
 30
0.0
 11
341.8019
 21
14.134615
 31
0.0
  0
LINE
  5
282
330
275
100
AcDbEntity
  8
0-1
  6
CONTINUOUS
 62
     7
100
AcDbLine
 10
341.8019
 20
14.134615
 30
0.0
 11
342.246131
 21
14.134615
 31
0.0
  0
LINE
  5
283
330
275
100
AcDbEntity
  8
0-1
  6
CONTINUOUS
 62
     7
100
AcDbLine
 10
342.246131
 20
14.134615
 30
0.0
 11
341.8019
 21
13.690385
 31
0.0
  0
LINE
  5
284
330
275
100
AcDbEntity
  8
0-1
  6
CONTINUOUS
 62
     7
100
AcDbLine
 10
341.8019
 20
13.690385
 30
0.0
 11
340.578823
 21
14.913462
 31
0.0
  0
LINE
  5
285
330
275
100
AcDbEntity
  8
0-1
  6
CONTINUOUS
 62
     7
100
AcDbLine
 10
340.578823
 20
14.913462
 30
0.0
 11
341.8019
 21
16.136538
 31
0.0
  0
LINE
  5
286
330
275
100
AcDbEntity
  8
0-1
  6
CONTINUOUS
 62
     7
100
AcDbLine
 10
341.8019
 20
16.136538
 30
0.0
 11
342.592284
 21
15.346154
 31
0.0
  0
LINE
  5
287
330
275
100
AcDbEntity
  8
0-1
  6
CONTINUOUS
 62
     7
100
AcDbLine
 10
342.592284
 20
15.346154
 30
0.0
 11
344.224977
 21
15.346154
 31
0.0
  0
ENDBLK
  5
277
330
275
100
AcDbEntity
  8
0
100
AcDbBlockEnd
  0
ENDSEC
  0
SECTION
  2
ENTITIES
  0
TEXT
  5
A8
330
1F
100
AcDbEntity
  8
}}ﾊﾊGG血CCТ
  6
CONTINUOUS
 62
     7
100
AcDbText
 10
155.0
 20
12.0
 30
0.0
 40
6.0
  1
ＷＫＰ－　７５　ＵＢ
 41
0.79096
  7
FX_VECTOR
 72
     5
 11
195.0
 21
12.0
 31
0.0
100
AcDbText
  0
TEXT
  5
A9
330
1F
100
AcDbEntity
  8
}}ﾊﾊGG血CCТ
  6
CONTINUOUS
 62
     7
100
AcDbText
 10
255.0
 20
12.0
 30
0.0
 40
6.0
  1
W25E0BAA1-C01
 41
0.705426
  7
FX_VECTOR
 72
     5
 11
307.0
 21
12.0
 31
0.0
100
AcDbText
  0
LINE
  5
AB
330
1F
100
AcDbEntity
  8
FIG_1-1
  6
CENTER
 62
     6
100
AcDbLine
 10
280.321925
 20
265.945978
 30
0.0
 11
280.321925
 21
198.259943
 31
0.0
  0
LINE
  5
AD
330
1F
100
AcDbEntity
  8
FIG_2-1
  6
CONTINUOUS
 62
     3
100
AcDbLine
 10
297.919063
 20
257.110527
 30
0.0
 11
300.592408
 21
266.222494
 31
0.0
  0
LINE
  5
AE
330
1F
100
AcDbEntity
  8
FIG_2-1
  6
CONTINUOUS
 62
     3
100
AcDbLine
 10
271.36078
 20
210.044228
 30
0.0
 11
289.28307
 21
210.044228
 31
0.0
  0
LINE
  5
AF
330
1F
100
AcDbEntity
  8
FIG_2-1
  6
CONTINUOUS
 62
     3
100
AcDbLine
 10
262.724788
 20
203.577928
 30
0.0
 11
260.051442
 21
194.465961
 31
0.0
  0
LINE
  5
B0
330
1F
100
AcDbEntity
  8
FIG_2-1
  6
CONTINUOUS
 62
     3
100
AcDbLine
 10
248.536785
 20
185.844228
 30
0.0
 11
239.321925
 21
185.844228
 31
0.0
  0
ARC
  5
B1
330
1F
100
AcDbEntity
  8
FIG_2-1
  6
CONTINUOUS
 62
     3
100
AcDbCircle
 10
248.536785
 20
197.844228
 30
0.0
 40
12.0
100
AcDbArc
 50
270.0
 51
343.648923
  0
ARC
  5
B2
330
1F
100
AcDbEntity
  8
FIG_2-1
  6
CONTINUOUS
 62
     3
100
AcDbCircle
 10
271.36078
 20
201.044228
 30
0.0
 40
9.0
100
AcDbArc
 50
90.0
 51
163.648922
  0
CIRCLE
  5
B3
330
1F
100
AcDbEntity
  8
FIG_2-1
  6
CONTINUOUS
 62
     3
100
AcDbCircle
 10
248.821925
 20
261.844228
 30
0.0
 40
4.75
  0
CIRCLE
  5
B4
330
1F
100
AcDbEntity
  8
FIG_2-1
  6
CONTINUOUS
 62
     3
100
AcDbCircle
 10
311.821925
 20
261.844228
 30
0.0
 40
4.75
  0
ARC
  5
B5
330
1F
100
AcDbEntity
  8
FIG_2-1
  6
CONTINUOUS
 62
     3
100
AcDbCircle
 10
312.107065
 20
197.844228
 30
0.0
 40
12.0
100
AcDbArc
 50
196.351077
 51
270.0
  0
LINE
  5
B6
330
1F
100
AcDbEntity
  8
FIG_2-1
  6
CONTINUOUS
 62
     3
100
AcDbLine
 10
321.321925
 20
274.844228
 30
0.0
 11
321.321925
 21
185.844228
 31
0.0
  0
ARC
  5
B7
330
1F
100
AcDbEntity
  8
FIG_2-1
  6
CONTINUOUS
 62
     3
100
AcDbCircle
 10
289.28307
 20
201.044228
 30
0.0
 40
9.0
100
AcDbArc
 50
16.351078
 51
90.0
  0
LINE
  5
B8
330
1F
100
AcDbEntity
  8
FIG_2-1
  6
CONTINUOUS
 62
     3
100
AcDbLine
 10
312.107065
 20
185.844228
 30
0.0
 11
321.321925
 21
185.844228
 31
0.0
  0
LINE
  5
B9
330
1F
100
AcDbEntity
  8
FIG_2-1
  6
CONTINUOUS
 62
     3
100
AcDbLine
 10
297.919063
 20
203.577928
 30
0.0
 11
300.592408
 21
194.465961
 31
0.0
  0
LINE
  5
BA
330
1F
100
AcDbEntity
  8
FIG_1-1
  6
CENTER
 62
     6
100
AcDbLine
 10
232.870393
 20
230.344228
 30
0.0
 11
328.596855
 21
230.344228
 31
0.0
  0
CIRCLE
  5
BB
330
1F
100
AcDbEntity
  8
FIG_2-1
  6
CONTINUOUS
 62
     3
100
AcDbCircle
 10
311.821925
 20
198.844228
 30
0.0
 40
4.75
  0
CIRCLE
  5
BC
330
1F
100
AcDbEntity
  8
FIG_2-1
  6
CONTINUOUS
 62
     3
100
AcDbCircle
 10
248.821925
 20
198.844228
 30
0.0
 40
4.75
  0
LINE
  5
BD
330
1F
100
AcDbEntity
  8
FIG_2-1
  6
CONTINUOUS
 62
     3
100
AcDbLine
 10
239.321925
 20
274.844228
 30
0.0
 11
239.321925
 21
185.844228
 31
0.0
  0
LINE
  5
BE
330
1F
100
AcDbEntity
  8
FIG_2-1
  6
CONTINUOUS
 62
     3
100
AcDbLine
 10
262.724788
 20
257.110527
 30
0.0
 11
260.051442
 21
266.222494
 31
0.0
  0
LINE
  5
BF
330
1F
100
AcDbEntity
  8
FIG_2-1
  6
CONTINUOUS
 62
     3
100
AcDbLine
 10
271.36078
 20
250.644228
 30
0.0
 11
289.28307
 21
250.644228
 31
0.0
  0
LINE
  5
C0
330
1F
100
AcDbEntity
  8
FIG_2-1
  6
CONTINUOUS
 62
     3
100
AcDbLine
 10
312.107065
 20
274.844228
 30
0.0
 11
321.321925
 21
274.844228
 31
0.0
  0
ARC
  5
C1
330
1F
100
AcDbEntity
  8
FIG_2-1
  6
CONTINUOUS
 62
     3
100
AcDbCircle
 10
312.107065
 20
262.844228
 30
0.0
 40
12.0
100
AcDbArc
 50
90.0
 51
163.648923
  0
ARC
  5
C2
330
1F
100
AcDbEntity
  8
FIG_2-1
  6
CONTINUOUS
 62
     3
100
AcDbCircle
 10
271.36078
 20
259.644228
 30
0.0
 40
9.0
100
AcDbArc
 50
196.351078
 51
270.0
  0
LINE
  5
C3
330
1F
100
AcDbEntity
  8
FIG_2-1
  6
CONTINUOUS
 62
     3
100
AcDbLine
 10
248.536785
 20
274.844228
 30
0.0
 11
239.321925
 21
274.844228
 31
0.0
  0
ARC
  5
C4
330
1F
100
AcDbEntity
  8
FIG_2-1
  6
CONTINUOUS
 62
     3
100
AcDbCircle
 10
248.536785
 20
262.844228
 30
0.0
 40
12.0
100
AcDbArc
 50
16.351077
 51
90.0
  0
ARC
  5
C5
330
1F
100
AcDbEntity
  8
FIG_2-1
  6
CONTINUOUS
 62
     3
100
AcDbCircle
 10
289.28307
 20
259.644228
 30
0.0
 40
9.0
100
AcDbArc
 50
270.0
 51
343.648922
  0
LINE
  5
C6
330
1F
100
AcDbEntity
  8
FIG_2-1
  6
DASHED
 62
     6
100
AcDbLine
 10
296.155313
 20
221.344228
 30
0.0
 11
264.488537
 21
221.344228
 31
0.0
  0
ARC
  5
C7
330
1F
100
AcDbEntity
  8
FIG_2-1
  6
DASHED
 62
     6
100
AcDbCircle
 10
296.155313
 20
217.344228
 30
0.0
 40
4.0
100
AcDbArc
 50
35.0
 51
90.0
  0
LINE
  5
C8
330
1F
100
AcDbEntity
  8
FIG_2-1
  6
DASHED
 62
     6
100
AcDbLine
 10
311.321925
 20
215.344228
 30
0.0
 11
311.321925
 21
245.344228
 31
0.0
  0
LINE
  5
C9
330
1F
100
AcDbEntity
  8
FIG_2-1
  6
DASHED
 62
     6
100
AcDbLine
 10
299.431921
 20
219.638533
 30
0.0
 11
304.045317
 21
213.049922
 31
0.0
  0
ARC
  5
CA
330
1F
100
AcDbEntity
  8
FIG_2-1
  6
DASHED
 62
     6
100
AcDbCircle
 10
307.321925
 20
215.344228
 30
0.0
 40
4.0
100
AcDbArc
 50
215.000002
 51
360.0
  0
ARC
  5
CB
330
1F
100
AcDbEntity
  8
FIG_2-1
  6
DASHED
 62
     6
100
AcDbCircle
 10
307.321925
 20
245.344228
 30
0.0
 40
4.0
100
AcDbArc
 50
0.0
 51
144.999998
  0
LINE
  5
CC
330
1F
100
AcDbEntity
  8
FIG_2-1
  6
DASHED
 62
     6
100
AcDbLine
 10
299.431921
 20
241.049922
 30
0.0
 11
304.045317
 21
247.638533
 31
0.0
  0
ARC
  5
CD
330
1F
100
AcDbEntity
  8
FIG_2-1
  6
DASHED
 62
     6
100
AcDbCircle
 10
296.155313
 20
243.344228
 30
0.0
 40
4.0
100
AcDbArc
 50
270.0
 51
325.0
  0
LINE
  5
CE
330
1F
100
AcDbEntity
  8
FIG_2-1
  6
DASHED
 62
     6
100
AcDbLine
 10
296.155313
 20
239.344228
 30
0.0
 11
264.488537
 21
239.344228
 31
0.0
  0
ARC
  5
CF
330
1F
100
AcDbEntity
  8
FIG_2-1
  6
DASHED
 62
     6
100
AcDbCircle
 10
264.488537
 20
243.344228
 30
0.0
 40
4.0
100
AcDbArc
 50
215.0
 51
270.0
  0
LINE
  5
D0
330
1F
100
AcDbEntity
  8
FIG_2-1
  6
DASHED
 62
     6
100
AcDbLine
 10
249.321925
 20
245.344228
 30
0.0
 11
249.321925
 21
215.344228
 31
0.0
  0
LINE
  5
D1
330
1F
100
AcDbEntity
  8
FIG_2-1
  6
DASHED
 62
     6
100
AcDbLine
 10
261.211929
 20
241.049922
 30
0.0
 11
256.598533
 21
247.638533
 31
0.0
  0
ARC
  5
D2
330
1F
100
AcDbEntity
  8
FIG_2-1
  6
DASHED
 62
     6
100
AcDbCircle
 10
253.321925
 20
245.344228
 30
0.0
 40
4.0
100
AcDbArc
 50
35.000002
 51
180.0
  0
ARC
  5
D3
330
1F
100
AcDbEntity
  8
FIG_2-1
  6
DASHED
 62
     6
100
AcDbCircle
 10
253.321925
 20
215.344228
 30
0.0
 40
4.0
100
AcDbArc
 50
180.0
 51
324.999998
  0
LINE
  5
D4
330
1F
100
AcDbEntity
  8
FIG_2-1
  6
DASHED
 62
     6
100
AcDbLine
 10
261.211929
 20
219.638533
 30
0.0
 11
256.598533
 21
213.049922
 31
0.0
  0
ARC
  5
D5
330
1F
100
AcDbEntity
  8
FIG_2-1
  6
DASHED
 62
     6
100
AcDbCircle
 10
264.488537
 20
217.344228
 30
0.0
 40
4.0
100
AcDbArc
 50
90.0
 51
145.0
  0
LINE
  5
D7
330
1F
100
AcDbEntity
  8
FIG_6-1
  6
CONTINUOUS
 62
     6
100
AcDbLine
 10
309.321925
 20
215.344228
 30
0.0
 11
309.321925
 21
245.344228
 31
0.0
  0
ARC
  5
D8
330
1F
100
AcDbEntity
  8
FIG_6-1
  6
CONTINUOUS
 62
     6
100
AcDbCircle
 10
307.321925
 20
215.344228
 30
0.0
 40
2.0
100
AcDbArc
 50
215.000002
 51
360.0
  0
LINE
  5
D9
330
1F
100
AcDbEntity
  8
FIG_6-1
  6
CONTINUOUS
 62
     6
100
AcDbLine
 10
301.070226
 20
220.785686
 30
0.0
 11
305.683621
 21
214.197075
 31
0.0
  0
ARC
  5
DA
330
1F
100
AcDbEntity
  8
FIG_6-1
  6
CONTINUOUS
 62
     6
100
AcDbCircle
 10
296.155313
 20
217.344228
 30
0.0
 40
6.0
100
AcDbArc
 50
35.0
 51
90.0
  0
LINE
  5
DB
330
1F
100
AcDbEntity
  8
FIG_6-1
  6
CONTINUOUS
 62
     6
100
AcDbLine
 10
296.155313
 20
223.344228
 30
0.0
 11
264.488537
 21
223.344228
 31
0.0
  0
LINE
  5
DC
330
1F
100
AcDbEntity
  8
FIG_6-1
  6
CONTINUOUS
 62
     6
100
AcDbLine
 10
296.155313
 20
237.344228
 30
0.0
 11
264.488537
 21
237.344228
 31
0.0
  0
ARC
  5
DD
330
1F
100
AcDbEntity
  8
FIG_6-1
  6
CONTINUOUS
 62
     6
100
AcDbCircle
 10
296.155313
 20
243.344228
 30
0.0
 40
6.0
100
AcDbArc
 50
270.0
 51
325.0
  0
LINE
  5
DE
330
1F
100
AcDbEntity
  8
FIG_6-1
  6
CONTINUOUS
 62
     6
100
AcDbLine
 10
301.070226
 20
239.902769
 30
0.0
 11
305.683621
 21
246.49138
 31
0.0
  0
ARC
  5
DF
330
1F
100
AcDbEntity
  8
FIG_6-1
  6
CONTINUOUS
 62
     6
100
AcDbCircle
 10
307.321925
 20
245.344228
 30
0.0
 40
2.0
100
AcDbArc
 50
0.0
 51
144.999998
  0
LINE
  5
E0
330
1F
100
AcDbEntity
  8
FIG_6-1
  6
CONTINUOUS
 62
     6
100
AcDbLine
 10
251.321925
 20
245.344228
 30
0.0
 11
251.321925
 21
215.344228
 31
0.0
  0
ARC
  5
E1
330
1F
100
AcDbEntity
  8
FIG_6-1
  6
CONTINUOUS
 62
     6
100
AcDbCircle
 10
253.321925
 20
245.344228
 30
0.0
 40
2.0
100
AcDbArc
 50
35.000002
 51
180.0
  0
LINE
  5
E2
330
1F
100
AcDbEntity
  8
FIG_6-1
  6
CONTINUOUS
 62
     6
100
AcDbLine
 10
259.573625
 20
239.902769
 30
0.0
 11
254.960229
 21
246.49138
 31
0.0
  0
ARC
  5
E3
330
1F
100
AcDbEntity
  8
FIG_6-1
  6
CONTINUOUS
 62
     6
100
AcDbCircle
 10
264.488537
 20
243.344228
 30
0.0
 40
6.0
100
AcDbArc
 50
215.0
 51
270.0
  0
ARC
  5
E4
330
1F
100
AcDbEntity
  8
FIG_6-1
  6
CONTINUOUS
 62
     6
100
AcDbCircle
 10
264.488537
 20
217.344228
 30
0.0
 40
6.0
100
AcDbArc
 50
90.0
 51
145.0
  0
LINE
  5
E5
330
1F
100
AcDbEntity
  8
FIG_6-1
  6
CONTINUOUS
 62
     6
100
AcDbLine
 10
259.573625
 20
220.785686
 30
0.0
 11
254.960229
 21
214.197075
 31
0.0
  0
ARC
  5
E6
330
1F
100
AcDbEntity
  8
FIG_6-1
  6
CONTINUOUS
 62
     6
100
AcDbCircle
 10
253.321925
 20
215.344228
 30
0.0
 40
2.0
100
AcDbArc
 50
180.0
 51
324.999998
  0
LINE
  5
E7
330
1F
100
AcDbEntity
  8
FIG_1-1
  6
CENTER
 62
     6
100
AcDbLine
 10
280.321925
 20
41.421168
 30
0.0
 11
280.321925
 21
151.82735
 31
0.0
  0
LINE
  5
E8
330
1F
100
AcDbEntity
  8
FIG_2-1
  6
CONTINUOUS
 62
     6
100
AcDbLine
 10
271.705715
 20
74.101157
 30
0.0
 11
271.705715
 21
146.335679
 31
0.0
  0
LINE
  5
E9
330
1F
100
AcDbEntity
  8
FIG_2-1
  6
CONTINUOUS
 62
     6
100
AcDbLine
 10
295.235796
 20
91.592809
 30
0.0
 11
295.235796
 21
146.335679
 31
0.0
  0
LINE
  5
EA
330
1F
100
AcDbEntity
  8
FIG_2-1
  6
CONTINUOUS
 62
     6
100
AcDbLine
 10
288.938135
 20
74.101157
 30
0.0
 11
288.938135
 21
146.335679
 31
0.0
  0
ARC
  5
EB
330
1F
100
AcDbEntity
  8
FIG_2-1
  6
CONTINUOUS
 62
     3
100
AcDbCircle
 10
126.305631
 20
34.502017
 30
0.0
 40
148.724547
100
AcDbArc
 50
17.761019
 51
30.783907
  0
ARC
  5
EC
330
1F
100
AcDbEntity
  8
FIG_2-1
  6
CONTINUOUS
 62
     3
100
AcDbCircle
 10
434.338219
 20
34.502017
 30
0.0
 40
148.724547
100
AcDbArc
 50
149.216104
 51
162.238981
  0
LINE
  5
ED
330
1F
100
AcDbEntity
  8
FIG_2-1
  6
CONTINUOUS
 62
     6
100
AcDbLine
 10
265.408054
 20
91.592809
 30
0.0
 11
265.408054
 21
146.335679
 31
0.0
  0
ARC
  5
EE
330
1F
100
AcDbEntity
  8
FIG_2-1
  6
CONTINUOUS
 62
     3
100
AcDbCircle
 10
280.321925
 20
83.835679
 30
0.0
 40
13.0
100
AcDbArc
 50
197.761019
 51
342.238981
  0
LINE
  5
EF
330
1F
100
AcDbEntity
  8
FIG_2-1
  6
CONTINUOUS
 62
     3
100
AcDbLine
 10
239.321925
 20
146.335679
 30
0.0
 11
321.321925
 21
146.335679
 31
0.0
  0
LINE
  5
F0
330
1F
100
AcDbEntity
  8
LAYERGROUP-1
  6
CENTER
 62
     6
100
AcDbLine
 10
241.821925
 20
198.844228
 30
0.0
 11
255.821925
 21
198.844228
 31
0.0
  0
LINE
  5
F1
330
1F
100
AcDbEntity
  8
LAYERGROUP-1
  6
CENTER
 62
     6
100
AcDbLine
 10
248.821925
 20
205.844228
 30
0.0
 11
248.821925
 21
191.844228
 31
0.0
  0
LINE
  5
F2
330
1F
100
AcDbEntity
  8
LAYERGROUP-1
  6
CONTINUOUS
 62
     3
100
AcDbLine
 10
321.321925
 20
144.035679
 30
0.0
 11
321.321925
 21
146.335679
 31
0.0
  0
ARC
  5
F3
330
1F
100
AcDbEntity
  8
LAYERGROUP-1
  6
CONTINUOUS
 62
     3
100
AcDbCircle
 10
321.443725
 20
143.035679
 30
0.0
 40
1.0
100
AcDbArc
 50
96.996021
 51
163.877083
  0
LINE
  5
F4
330
1F
100
AcDbEntity
  8
LAYERGROUP-1
  6
CONTINUOUS
 62
     3
100
AcDbLine
 10
239.321925
 20
144.035679
 30
0.0
 11
239.321925
 21
146.335679
 31
0.0
  0
ARC
  5
F5
330
1F
100
AcDbEntity
  8
LAYERGROUP-1
  6
CONTINUOUS
 62
     3
100
AcDbCircle
 10
381.575014
 20
184.191776
 30
0.0
 40
147.2040261530387
100
AcDbArc
 50
194.90206
 51
209.986658
  0
ARC
  5
F6
330
1F
100
AcDbEntity
  8
LAYERGROUP-1
  6
CONTINUOUS
 62
     3
100
AcDbCircle
 10
239.200125
 20
143.035679
 30
0.0
 40
1.0
100
AcDbArc
 50
16.122917
 51
83.003979
  0
LINE
  5
F7
330
1F
100
AcDbEntity
  8
LAYERGROUP-1
  6
CENTER
 62
     6
100
AcDbLine
 10
238.960978
 20
83.835679
 30
0.0
 11
320.266082
 21
83.835679
 31
0.0
  0
LINE
  5
F8
330
1F
100
AcDbEntity
  8
LAYERGROUP-1
  6
CENTER
 62
     6
100
AcDbLine
 10
318.821925
 20
198.844228
 30
0.0
 11
304.821925
 21
198.844228
 31
0.0
  0
LINE
  5
F9
330
1F
100
AcDbEntity
  8
LAYERGROUP-1
  6
CENTER
 62
     6
100
AcDbLine
 10
311.821925
 20
205.844228
 30
0.0
 11
311.821925
 21
191.844228
 31
0.0
  0
LINE
  5
FA
330
1F
100
AcDbEntity
  8
LAYERGROUP-1
  6
CENTER
 62
     6
100
AcDbLine
 10
241.821925
 20
261.844228
 30
0.0
 11
255.821925
 21
261.844228
 31
0.0
  0
LINE
  5
FB
330
1F
100
AcDbEntity
  8
LAYERGROUP-1
  6
CENTER
 62
     6
100
AcDbLine
 10
248.821925
 20
254.844228
 30
0.0
 11
248.821925
 21
268.844228
 31
0.0
  0
LINE
  5
FC
330
1F
100
AcDbEntity
  8
LAYERGROUP-1
  6
CENTER
 62
     6
100
AcDbLine
 10
318.821925
 20
261.844228
 30
0.0
 11
304.821925
 21
261.844228
 31
0.0
  0
LINE
  5
FD
330
1F
100
AcDbEntity
  8
LAYERGROUP-1
  6
CENTER
 62
     6
100
AcDbLine
 10
311.821925
 20
254.844228
 30
0.0
 11
311.821925
 21
268.844228
 31
0.0
  0
TEXT
  5
FF
330
1F
100
AcDbEntity
  8
GR1-1
  6
CONTINUOUS
 62
     7
100
AcDbText
 10
276.176483
 20
124.241043
 30
0.0
 40
8.288342
  1
KP-75
 50
270.0
 41
0.602128
  7
FX_VECTOR
 72
     5
 11
276.176483
 21
99.28783
 31
0.0
100
AcDbText
  0
ARC
  5
100
330
1F
100
AcDbEntity
  8
LAYERGROUP-1
  6
CONTINUOUS
 62
     3
100
AcDbCircle
 10
345.363311
 20
74.624248
 30
0.0
 40
52.92163885554664
100
AcDbArc
 50
141.381942
 51
172.485892
  0
ARC
  5
101
330
1F
100
AcDbEntity
  8
LAYERGROUP-1
  6
CONTINUOUS
 62
     3
100
AcDbCircle
 10
280.955538
 20
83.119827
 30
0.0
 40
12.04401417311098
100
AcDbArc
 50
311.51265
 51
352.485892
  0
ARC
  5
102
330
1F
100
AcDbEntity
  8
LAYERGROUP-1
  6
CONTINUOUS
 62
     3
100
AcDbCircle
 10
182.139765
 20
182.923249
 30
0.0
 40
143.9108199479491
100
AcDbArc
 50
329.839707
 51
345.271574
  0
ARC
  5
103
330
1F
100
AcDbEntity
  8
LAYERGROUP-1
  6
CONTINUOUS
 62
     3
100
AcDbCircle
 10
260.272332
 20
142.595403
 30
0.0
 40
55.98452539261999
100
AcDbArc
 50
321.381942
 51
332.699641
  0
ARC
  5
104
330
1F
100
AcDbEntity
  8
LAYERGROUP-1
  6
CONTINUOUS
 62
     3
100
AcDbCircle
 10
215.280539
 20
74.624248
 30
0.0
 40
52.92163885554664
100
AcDbArc
 50
7.514108
 51
38.618058
  0
ARC
  5
105
330
1F
100
AcDbEntity
  8
LAYERGROUP-1
  6
CONTINUOUS
 62
     3
100
AcDbCircle
 10
279.688312
 20
83.119827
 30
0.0
 40
12.04401417311098
100
AcDbArc
 50
187.514108
 51
228.48735
  0
ARC
  5
106
330
1F
100
AcDbEntity
  8
LAYERGROUP-1
  6
CONTINUOUS
 62
     3
100
AcDbCircle
 10
300.371518
 20
142.595403
 30
0.0
 40
55.98452539261999
100
AcDbArc
 50
207.300359
 51
218.618058
  0
LINE
  5
107
330
1F
100
AcDbEntity
  8
FIG_1-1
  6
CENTER
 62
     6
100
AcDbLine
 10
129.691529
 20
41.707517
 30
0.0
 11
129.691529
 21
154.205335
 31
0.0
  0
LINE
  5
108
330
1F
100
AcDbEntity
  8
FIG_2-1
  6
CONTINUOUS
 62
     3
100
AcDbLine
 10
87.491529
 20
146.335679
 30
0.0
 11
171.891529
 21
146.335679
 31
0.0
  0
LINE
  5
10A
330
1F
100
AcDbEntity
  8
FIG_3-1
  6
CONTINUOUS
 62
     3
100
AcDbLine
 10
122.32471
 20
142.035679
 30
0.0
 11
137.058349
 21
142.035679
 31
0.0
  0
ARC
  5
10B
330
1F
100
AcDbEntity
  8
LAYERGROUP-1
  6
CONTINUOUS
 62
     3
100
AcDbCircle
 10
140.691529
 20
143.035679
 30
0.0
 40
1.0
100
AcDbArc
 50
90.0
 51
147.663974
  0
ARC
  5
10C
330
1F
100
AcDbEntity
  8
LAYERGROUP-1
  6
CONTINUOUS
 62
     3
100
AcDbCircle
 10
137.058349
 20
145.335679
 30
0.0
 40
3.3
100
AcDbArc
 50
270.0
 51
327.663974
  0
LINE
  5
10D
330
1F
100
AcDbEntity
  8
FIG_1-1
  6
CONTINUOUS
 62
     3
100
AcDbLine
 10
147.691529
 20
70.835679
 30
0.0
 11
147.691529
 21
144.035679
 31
0.0
  0
LINE
  5
10E
330
1F
100
AcDbEntity
  8
LAYERGROUP-1
  6
CONTINUOUS
 62
     3
100
AcDbLine
 10
147.691529
 20
70.835679
 30
0.0
 11
149.991529
 21
70.835679
 31
0.0
  0
ARC
  5
10F
330
1F
100
AcDbEntity
  8
LAYERGROUP-1
  6
CONTINUOUS
 62
     3
100
AcDbCircle
 10
74.016319
 20
144.035679
 30
0.0
 40
100.1752107473787
100
AcDbArc
 50
328.677603
 51
360.0
  0
LINE
  5
110
330
1F
100
AcDbEntity
  8
FIG_2-1
  6
CONTINUOUS
 62
     3
100
AcDbLine
 10
87.491529
 20
144.035679
 30
0.0
 11
171.891529
 21
144.035679
 31
0.0
  0
ARC
  5
111
330
1F
100
AcDbEntity
  8
LAYERGROUP-1
  6
CONTINUOUS
 62
     3
100
AcDbCircle
 10
118.691529
 20
143.035679
 30
0.0
 40
1.0
100
AcDbArc
 50
32.336026
 51
90.0
  0
ARC
  5
112
330
1F
100
AcDbEntity
  8
LAYERGROUP-1
  6
CONTINUOUS
 62
     3
100
AcDbCircle
 10
122.32471
 20
145.335679
 30
0.0
 40
3.3
100
AcDbArc
 50
212.336026
 51
270.0
  0
ARC
  5
113
330
1F
100
AcDbEntity
  8
LAYERGROUP-1
  6
CONTINUOUS
 62
     3
100
AcDbCircle
 10
166.346696
 20
74.101156
 30
0.0
 40
16.35516701922614
100
AcDbArc
 50
136.034892
 51
180.0
  0
ARC
  5
114
330
1F
100
AcDbEntity
  8
LAYERGROUP-1
  6
CONTINUOUS
 62
     3
100
AcDbCircle
 10
127.727087
 20
111.350256
 30
0.0
 40
37.30086396765083
100
AcDbArc
 50
316.034892
 51
328.677603
  0
ARC
  5
115
330
1F
100
AcDbEntity
  8
LAYERGROUP-1
  6
CONTINUOUS
 62
     3
100
AcDbCircle
 10
141.446573
 20
103.00133
 30
0.0
 40
21.2406998338746
100
AcDbArc
 50
305.152141
 51
328.677603
  0
ARC
  5
116
330
1F
100
AcDbEntity
  8
LAYERGROUP-1
  6
CONTINUOUS
 62
     3
100
AcDbCircle
 10
161.797272
 20
74.101156
 30
0.0
 40
14.10574215515253
100
AcDbArc
 50
125.152141
 51
180.0
  0
ARC
  5
117
330
1F
100
AcDbEntity
  8
LAYERGROUP-1
  6
CONTINUOUS
 62
     3
100
AcDbCircle
 10
41.767749
 20
144.035679
 30
0.0
 40
130.123780444687
100
AcDbArc
 50
341.036215
 51
360.0
  0
ARC
  5
118
330
1F
100
AcDbEntity
  8
LAYERGROUP-1
  6
CONTINUOUS
 62
     3
100
AcDbCircle
 10
171.891529
 20
144.035679
 30
0.0
 40
2.3
100
AcDbArc
 50
0.0
 51
90.0
  0
LINE
  5
119
330
1F
100
AcDbEntity
  8
FIG_1-1
  6
CONTINUOUS
 62
     3
100
AcDbLine
 10
111.691529
 20
70.835679
 30
0.0
 11
111.691529
 21
144.035679
 31
0.0
  0
LINE
  5
11A
330
1F
100
AcDbEntity
  8
LAYERGROUP-1
  6
CONTINUOUS
 62
     3
100
AcDbLine
 10
111.691529
 20
70.835679
 30
0.0
 11
109.391529
 21
70.835679
 31
0.0
  0
ARC
  5
11B
330
1F
100
AcDbEntity
  8
LAYERGROUP-1
  6
CONTINUOUS
 62
     3
100
AcDbCircle
 10
185.36674
 20
144.035679
 30
0.0
 40
100.1752107473787
100
AcDbArc
 50
180.0
 51
211.322397
  0
ARC
  5
11C
330
1F
100
AcDbEntity
  8
LAYERGROUP-1
  6
CONTINUOUS
 62
     3
100
AcDbCircle
 10
93.036362
 20
74.101156
 30
0.0
 40
16.35516701922614
100
AcDbArc
 50
0.0
 51
43.965108
  0
ARC
  5
11D
330
1F
100
AcDbEntity
  8
LAYERGROUP-1
  6
CONTINUOUS
 62
     3
100
AcDbCircle
 10
131.655972
 20
111.350256
 30
0.0
 40
37.30086396765083
100
AcDbArc
 50
211.322397
 51
223.965108
  0
ARC
  5
11E
330
1F
100
AcDbEntity
  8
LAYERGROUP-1
  6
CONTINUOUS
 62
     3
100
AcDbCircle
 10
117.936485
 20
103.00133
 30
0.0
 40
21.2406998338746
100
AcDbArc
 50
211.322397
 51
234.847859
  0
ARC
  5
11F
330
1F
100
AcDbEntity
  8
LAYERGROUP-1
  6
CONTINUOUS
 62
     3
100
AcDbCircle
 10
97.585787
 20
74.101156
 30
0.0
 40
14.10574215515253
100
AcDbArc
 50
0.0
 51
54.847859
  0
ARC
  5
120
330
1F
100
AcDbEntity
  8
LAYERGROUP-1
  6
CONTINUOUS
 62
     3
100
AcDbCircle
 10
217.61531
 20
144.035679
 30
0.0
 40
130.123780444687
100
AcDbArc
 50
180.0
 51
198.963785
  0
ARC
  5
121
330
1F
100
AcDbEntity
  8
LAYERGROUP-1
  6
CONTINUOUS
 62
     3
100
AcDbCircle
 10
87.491529
 20
144.035679
 30
0.0
 40
2.3
100
AcDbArc
 50
90.0
 51
180.0
  0
LINE
  5
122
330
1F
100
AcDbEntity
  8
LAYERGROUP-1
  6
CONTINUOUS
 62
     3
100
AcDbLine
 10
109.391529
 20
74.101156
 30
0.0
 11
109.391529
 21
70.835679
 31
0.0
  0
LINE
  5
123
330
1F
100
AcDbEntity
  8
LAYERGROUP-1
  6
CONTINUOUS
 62
     3
100
AcDbLine
 10
149.991529
 20
74.101156
 30
0.0
 11
149.991529
 21
70.835679
 31
0.0
  0
LINE
  5
124
330
1F
100
AcDbEntity
  8
GR1-1
  6
CONTINUOUS
 62
     3
100
AcDbLine
 10
100.491529
 20
87.159179
 30
0.0
 11
101.491529
 21
87.835679
 31
0.0
  0
LINE
  5
125
330
1F
100
AcDbEntity
  8
GR1-1
  6
CONTINUOUS
 62
     3
100
AcDbLine
 10
101.491529
 20
87.835679
 30
0.0
 11
102.391529
 21
87.835679
 31
0.0
  0
ARC
  5
126
330
1F
100
AcDbEntity
  8
GR1-1
  6
CONTINUOUS
 62
     3
100
AcDbCircle
 10
112.468038
 20
83.835679
 30
0.0
 40
10.0765089946158
100
AcDbArc
 50
159.200429
 51
201.865453
  0
LINE
  5
127
330
1F
100
AcDbEntity
  8
GR1-1
  6
CONTINUOUS
 62
     3
100
AcDbLine
 10
103.116424
 20
80.082902
 30
0.0
 11
106.666635
 21
80.082902
 31
0.0
  0
ARC
  5
128
330
1F
100
AcDbEntity
  8
GR1-1
  6
CONTINUOUS
 62
     3
100
AcDbCircle
 10
97.31502
 20
83.835679
 30
0.0
 40
10.0765089946158
100
AcDbArc
 50
338.134547
 51
350.561062
  0
LINE
  5
129
330
1F
100
AcDbEntity
  8
GR1-1
  6
CONTINUOUS
 62
     3
100
AcDbLine
 10
107.391529
 20
81.93829
 30
0.0
 11
107.391529
 21
76.535679
 31
0.0
  0
ARC
  5
12A
330
1F
100
AcDbEntity
  8
GR1-1
  6
CONTINUOUS
 62
     3
100
AcDbCircle
 10
107.691529
 20
76.535679
 30
0.0
 40
0.3
100
AcDbArc
 50
180.0
 51
270.0
  0
LINE
  5
12B
330
1F
100
AcDbEntity
  8
GR1-1
  6
CONTINUOUS
 62
     3
100
AcDbLine
 10
107.691529
 20
76.235679
 30
0.0
 11
109.091529
 21
76.235679
 31
0.0
  0
ARC
  5
12C
330
1F
100
AcDbEntity
  8
GR1-1
  6
CONTINUOUS
 62
     3
100
AcDbCircle
 10
109.091529
 20
76.535679
 30
0.0
 40
0.3
100
AcDbArc
 50
270.0
 51
300.980055
  0
LINE
  5
12D
330
1F
100
AcDbEntity
  8
GR1-1
  6
CONTINUOUS
 62
     3
100
AcDbLine
 10
107.391529
 20
77.585679
 30
0.0
 11
107.128349
 21
77.023387
 31
0.0
  0
ARC
  5
12E
330
1F
100
AcDbEntity
  8
GR1-1
  6
CONTINUOUS
 62
     3
100
AcDbCircle
 10
104.600567
 20
78.206513
 30
0.0
 40
2.790962555239332
100
AcDbArc
 50
-42.245502
 51
42.245502
  0
ARC
  5
12F
330
1F
100
AcDbEntity
  8
GR1-1
  6
CONTINUOUS
 62
     3
100
AcDbCircle
 10
105.182492
 20
78.206513
 30
0.0
 40
2.790962555239332
100
AcDbArc
 50
137.754498
 51
222.245502
  0
LINE
  5
130
330
1F
100
AcDbEntity
  8
GR1-1
  6
CONTINUOUS
 62
     3
100
AcDbLine
 10
103.116424
 20
76.330125
 30
0.0
 11
106.666635
 21
76.330125
 31
0.0
  0
LINE
  5
131
330
1F
100
AcDbEntity
  8
GR1-1
  6
CONTINUOUS
 62
     3
100
AcDbLine
 10
102.65471
 20
77.023387
 30
0.0
 11
102.391529
 21
77.585679
 31
0.0
  0
LINE
  5
132
330
1F
100
AcDbEntity
  8
GR1-1
  6
CONTINUOUS
 62
     3
100
AcDbLine
 10
102.391529
 20
77.585679
 30
0.0
 11
102.391529
 21
88.221338
 31
0.0
  0
LINE
  5
133
330
1F
100
AcDbEntity
  8
GR1-1
  6
CONTINUOUS
 62
     3
100
AcDbLine
 10
100.491529
 20
87.159179
 30
0.0
 11
100.491529
 21
80.512179
 31
0.0
  0
LINE
  5
134
330
1F
100
AcDbEntity
  8
GR1-1
  6
CONTINUOUS
 62
     3
100
AcDbLine
 10
100.491529
 20
80.512179
 30
0.0
 11
101.491529
 21
79.835679
 31
0.0
  0
LINE
  5
135
330
1F
100
AcDbEntity
  8
GR1-1
  6
CONTINUOUS
 62
     3
100
AcDbLine
 10
101.491529
 20
79.835679
 30
0.0
 11
102.391529
 21
79.835679
 31
0.0
  0
LINE
  5
136
330
1F
100
AcDbEntity
  8
GR1-1
  6
CONTINUOUS
 62
     3
100
AcDbLine
 10
111.691529
 20
78.835679
 30
0.0
 11
112.191529
 21
78.835679
 31
0.0
  0
LINE
  5
137
330
1F
100
AcDbEntity
  8
GR1-1
  6
CONTINUOUS
 62
     3
100
AcDbLine
 10
112.191529
 20
88.835679
 30
0.0
 11
111.691529
 21
88.835679
 31
0.0
  0
LINE
  5
138
330
1F
100
AcDbEntity
  8
GR1-1
  6
CONTINUOUS
 62
     3
100
AcDbLine
 10
153.991529
 20
84.817561
 30
0.0
 11
153.991529
 21
78.335679
 31
0.0
  0
LINE
  5
139
330
1F
100
AcDbEntity
  8
GR1-1
  6
CONTINUOUS
 62
     3
100
AcDbLine
 10
153.991529
 20
78.335679
 30
0.0
 11
152.991529
 21
76.335679
 31
0.0
  0
LINE
  5
13A
330
1F
100
AcDbEntity
  8
GR1-1
  6
CONTINUOUS
 62
     3
100
AcDbLine
 10
152.991529
 20
76.335679
 30
0.0
 11
150.144894
 21
76.335679
 31
0.0
  0
LINE
  5
13B
330
1F
100
AcDbEntity
  8
GR1-1
  6
CONTINUOUS
 62
     6
100
AcDbLine
 10
102.391529
 20
87.159179
 30
0.0
 11
100.491529
 21
87.159179
 31
0.0
  0
LINE
  5
13C
330
1F
100
AcDbEntity
  8
GR1-1
  6
CONTINUOUS
 62
     6
100
AcDbLine
 10
101.491529
 20
87.835679
 30
0.0
 11
101.491529
 21
79.835679
 31
0.0
  0
LINE
  5
13D
330
1F
100
AcDbEntity
  8
GR1-1
  6
CONTINUOUS
 62
     6
100
AcDbLine
 10
102.391529
 20
80.512179
 30
0.0
 11
100.491529
 21
80.512179
 31
0.0
  0
LINE
  5
13E
330
1F
100
AcDbEntity
  8
GR1-1
  6
CONTINUOUS
 62
     6
100
AcDbLine
 10
152.991529
 20
76.335679
 30
0.0
 11
152.991529
 21
83.542078
 31
0.0
  0
LINE
  5
13F
330
1F
100
AcDbEntity
  8
GR1-1
  6
CONTINUOUS
 62
     3
100
AcDbLine
 10
147.691529
 20
78.835679
 30
0.0
 11
147.191529
 21
78.835679
 31
0.0
  0
LINE
  5
140
330
1F
100
AcDbEntity
  8
GR1-1
  6
CONTINUOUS
 62
     3
100
AcDbLine
 10
147.191529
 20
88.835679
 30
0.0
 11
147.691529
 21
88.835679
 31
0.0
  0
LINE
  5
141
330
1F
100
AcDbEntity
  8
LAYERGROUP-1
  6
CENTER
 62
     6
100
AcDbLine
 10
97.601373
 20
83.835679
 30
0.0
 11
156.06366
 21
83.835679
 31
0.0
  0
LINE
  5
142
330
1F
100
AcDbEntity
  8
LAYERGROUP-1
  6
CONTINUOUS
 62
     3
100
AcDbLine
 10
272.189568
 20
210.044228
 30
0.0
 11
288.454282
 21
210.044228
 31
0.0
  0
LINE
  5
143
330
1F
100
AcDbEntity
  8
LAYERGROUP-1
  6
CONTINUOUS
 62
     3
100
AcDbLine
 10
272.189568
 20
250.644228
 30
0.0
 11
288.454282
 21
250.644228
 31
0.0
  0
LINE
  5
144
330
1F
100
AcDbEntity
  8
GR1-1
  6
CONTINUOUS
 62
     3
100
AcDbLine
 10
287.821925
 20
207.044228
 30
0.0
 11
285.821925
 21
206.044228
 31
0.0
  0
LINE
  5
145
330
1F
100
AcDbEntity
  8
GR1-1
  6
CONTINUOUS
 62
     3
100
AcDbLine
 10
285.821925
 20
206.044228
 30
0.0
 11
274.821925
 21
206.044228
 31
0.0
  0
LINE
  5
146
330
1F
100
AcDbEntity
  8
GR1-1
  6
CONTINUOUS
 62
     3
100
AcDbLine
 10
274.821925
 20
206.044228
 30
0.0
 11
272.821925
 21
207.044228
 31
0.0
  0
LINE
  5
147
330
1F
100
AcDbEntity
  8
GR1-1
  6
CONTINUOUS
 62
     3
100
AcDbLine
 10
272.821925
 20
207.044228
 30
0.0
 11
272.821925
 21
210.044228
 31
0.0
  0
LINE
  5
148
330
1F
100
AcDbEntity
  8
GR1-1
  6
CONTINUOUS
 62
     3
100
AcDbLine
 10
287.821925
 20
207.044228
 30
0.0
 11
287.821925
 21
210.044228
 31
0.0
  0
LINE
  5
149
330
1F
100
AcDbEntity
  8
GR1-1
  6
CONTINUOUS
 62
     6
100
AcDbLine
 10
272.821925
 20
207.044228
 30
0.0
 11
287.821925
 21
207.044228
 31
0.0
  0
LINE
  5
14A
330
1F
100
AcDbEntity
  8
GR1-1
  6
CONTINUOUS
 62
     3
100
AcDbLine
 10
283.645425
 20
259.544228
 30
0.0
 11
284.321925
 21
258.544228
 31
0.0
  0
LINE
  5
14B
330
1F
100
AcDbEntity
  8
GR1-1
  6
CONTINUOUS
 62
     3
100
AcDbLine
 10
284.321925
 20
258.544228
 30
0.0
 11
284.321925
 21
257.644228
 31
0.0
  0
LINE
  5
14C
330
1F
100
AcDbEntity
  8
GR1-1
  6
CONTINUOUS
 62
     3
100
AcDbLine
 10
283.645425
 20
259.544228
 30
0.0
 11
276.998425
 21
259.544228
 31
0.0
  0
LINE
  5
14D
330
1F
100
AcDbEntity
  8
GR1-1
  6
CONTINUOUS
 62
     3
100
AcDbLine
 10
276.998425
 20
259.544228
 30
0.0
 11
276.321925
 21
258.544228
 31
0.0
  0
LINE
  5
14E
330
1F
100
AcDbEntity
  8
GR1-1
  6
CONTINUOUS
 62
     3
100
AcDbLine
 10
276.321925
 20
258.544228
 30
0.0
 11
276.321925
 21
257.644228
 31
0.0
  0
LINE
  5
14F
330
1F
100
AcDbEntity
  8
GR1-1
  6
CONTINUOUS
 62
     6
100
AcDbLine
 10
283.645425
 20
257.644228
 30
0.0
 11
283.645425
 21
259.544228
 31
0.0
  0
LINE
  5
150
330
1F
100
AcDbEntity
  8
GR1-1
  6
CONTINUOUS
 62
     6
100
AcDbLine
 10
284.321925
 20
258.544228
 30
0.0
 11
276.321925
 21
258.544228
 31
0.0
  0
LINE
  5
151
330
1F
100
AcDbEntity
  8
GR1-1
  6
CONTINUOUS
 62
     6
100
AcDbLine
 10
276.998425
 20
257.644228
 30
0.0
 11
276.998425
 21
259.544228
 31
0.0
  0
LINE
  5
152
330
1F
100
AcDbEntity
  8
GR1-1
  6
CONTINUOUS
 62
     3
100
AcDbLine
 10
286.571925
 20
257.644228
 30
0.0
 11
274.071925
 21
257.644228
 31
0.0
  0
LINE
  5
153
330
1F
100
AcDbEntity
  8
GR1-1
  6
CONTINUOUS
 62
     3
100
AcDbLine
 10
274.071925
 20
257.644228
 30
0.0
 11
273.821925
 21
256.919334
 31
0.0
  0
LINE
  5
154
330
1F
100
AcDbEntity
  8
GR1-1
  6
CONTINUOUS
 62
     3
100
AcDbLine
 10
273.821925
 20
256.919334
 30
0.0
 11
273.821925
 21
253.369122
 31
0.0
  0
LINE
  5
155
330
1F
100
AcDbEntity
  8
GR1-1
  6
CONTINUOUS
 62
     3
100
AcDbLine
 10
273.821925
 20
253.369122
 30
0.0
 11
274.071925
 21
252.644228
 31
0.0
  0
LINE
  5
156
330
1F
100
AcDbEntity
  8
GR1-1
  6
CONTINUOUS
 62
     3
100
AcDbLine
 10
287.621925
 20
252.644228
 30
0.0
 11
273.021925
 21
252.644228
 31
0.0
  0
LINE
  5
157
330
1F
100
AcDbEntity
  8
GR1-1
  6
CONTINUOUS
 62
     3
100
AcDbLine
 10
286.571925
 20
252.644228
 30
0.0
 11
286.821925
 21
253.369122
 31
0.0
  0
LINE
  5
158
330
1F
100
AcDbEntity
  8
GR1-1
  6
CONTINUOUS
 62
     3
100
AcDbLine
 10
286.821925
 20
253.369122
 30
0.0
 11
286.821925
 21
256.919334
 31
0.0
  0
ARC
  5
159
330
1F
100
AcDbEntity
  8
GR1-1
  6
CONTINUOUS
 62
     3
100
AcDbCircle
 10
283.571925
 20
249.996234
 30
0.0
 40
7.647993514824081
100
AcDbArc
 50
64.852624
 51
115.147376
  0
ARC
  5
15A
330
1F
100
AcDbEntity
  8
GR1-1
  6
CONTINUOUS
 62
     3
100
AcDbCircle
 10
277.071925
 20
249.996234
 30
0.0
 40
7.647993514823825
100
AcDbArc
 50
64.852624
 51
115.147376
  0
ARC
  5
15B
330
1F
100
AcDbEntity
  8
GR1-1
  6
CONTINUOUS
 62
     3
100
AcDbCircle
 10
277.071925
 20
260.292221
 30
0.0
 40
7.647993514823837
100
AcDbArc
 50
244.852624
 51
295.147376
  0
LINE
  5
15C
330
1F
100
AcDbEntity
  8
GR1-1
  6
CONTINUOUS
 62
     3
100
AcDbLine
 10
280.321925
 20
253.369122
 30
0.0
 11
280.321925
 21
256.919334
 31
0.0
  0
ARC
  5
15D
330
1F
100
AcDbEntity
  8
GR1-1
  6
CONTINUOUS
 62
     3
100
AcDbCircle
 10
283.571925
 20
260.292221
 30
0.0
 40
7.647993514823837
100
AcDbArc
 50
244.852624
 51
295.147376
  0
LINE
  5
15E
330
1F
100
AcDbEntity
  8
GR1-1
  6
CONTINUOUS
 62
     3
100
AcDbLine
 10
286.821925
 20
256.919334
 30
0.0
 11
286.571925
 21
257.644228
 31
0.0
  0
LINE
  5
15F
330
1F
100
AcDbEntity
  8
GR1-1
  6
CONTINUOUS
 62
     3
100
AcDbLine
 10
287.621925
 20
250.644228
 30
0.0
 11
273.021925
 21
250.644228
 31
0.0
  0
ARC
  5
160
330
1F
100
AcDbEntity
  8
GR1-1
  6
CONTINUOUS
 62
     3
100
AcDbCircle
 10
287.621925
 20
250.944228
 30
0.0
 40
0.3
100
AcDbArc
 50
270.0
 51
360.0
  0
LINE
  5
161
330
1F
100
AcDbEntity
  8
GR1-1
  6
CONTINUOUS
 62
     3
100
AcDbLine
 10
287.921925
 20
250.944228
 30
0.0
 11
287.921925
 21
252.344228
 31
0.0
  0
ARC
  5
162
330
1F
100
AcDbEntity
  8
GR1-1
  6
CONTINUOUS
 62
     3
100
AcDbCircle
 10
287.621925
 20
252.344228
 30
0.0
 40
0.3
100
AcDbArc
 50
0.0
 51
90.0
  0
ARC
  5
163
330
1F
100
AcDbEntity
  8
GR1-1
  6
CONTINUOUS
 62
     3
100
AcDbCircle
 10
273.021925
 20
250.944228
 30
0.0
 40
0.3
100
AcDbArc
 50
180.0
 51
270.0
  0
LINE
  5
164
330
1F
100
AcDbEntity
  8
GR1-1
  6
CONTINUOUS
 62
     3
100
AcDbLine
 10
272.721925
 20
250.944228
 30
0.0
 11
272.721925
 21
252.344228
 31
0.0
  0
ARC
  5
165
330
1F
100
AcDbEntity
  8
GR1-1
  6
CONTINUOUS
 62
     3
100
AcDbCircle
 10
273.021925
 20
252.344228
 30
0.0
 40
0.3
100
AcDbArc
 50
90.0
 51
180.0
  0
CIRCLE
  5
166
330
1F
100
AcDbEntity
  8
GR1-1
  6
CONTINUOUS
 62
     3
100
AcDbCircle
 10
280.321925
 20
83.835679
 30
0.0
 40
7.5
  0
CIRCLE
  5
167
330
1F
100
AcDbEntity
  8
GR1-1
  6
CONTINUOUS
 62
     6
100
AcDbCircle
 10
280.321925
 20
83.835679
 30
0.0
 40
5.5
  0
LINE
  5
168
330
1F
100
AcDbEntity
  8
LAYERGROUP-1
  6
CENTER
 62
     6
100
AcDbLine
 10
311.821925
 20
151.82735
 30
0.0
 11
311.821925
 21
139.469319
 31
0.0
  0
LINE
  5
169
330
1F
100
AcDbEntity
  8
LAYERGROUP-1
  6
CENTER
 62
     6
100
AcDbLine
 10
248.821925
 20
151.82735
 30
0.0
 11
248.821925
 21
139.469319
 31
0.0
  0
LINE
  5
16A
330
1F
100
AcDbEntity
  8
LAYERGROUP-1
  6
CENTER
 62
     6
100
AcDbLine
 10
161.191529
 20
151.82735
 30
0.0
 11
161.191529
 21
139.469319
 31
0.0
  0
LINE
  5
16B
330
1F
100
AcDbEntity
  8
LAYERGROUP-1
  6
CENTER
 62
     6
100
AcDbLine
 10
98.191529
 20
151.82735
 30
0.0
 11
98.191529
 21
139.469319
 31
0.0
  0
TEXT
  5
16C
330
1F
100
AcDbEntity
  8
LAYERGROUP-1
  6
CONTINUOUS
 62
     7
100
AcDbText
 10
277.32193
 20
177.599533
 30
0.0
 40
4.0
  1
63
 41
0.851351
  7
FX_VECTOR
 72
     5
 11
283.32193
 21
177.599533
 31
0.0
100
AcDbText
  0
LINE
  5
16D
330
1F
100
AcDbEntity
  8
LAYERGROUP-1
  6
CONTINUOUS
 62
     7
100
AcDbLine
 10
248.821925
 20
176.599527
 30
0.0
 11
311.821925
 21
176.599527
 31
0.0
  0
INSERT
  5
16E
330
1F
100
AcDbEntity
  8
LAYERGROUP-1
  6
CONTINUOUS
 62
     7
100
AcDbBlockReference
  2
FXTIP_ARROW_S
 10
248.821925
 20
176.599527
 30
0.0
 41
4.0
 42
4.0
 50
180.0
  0
INSERT
  5
16F
330
1F
100
AcDbEntity
  8
LAYERGROUP-1
  6
CONTINUOUS
 62
     7
100
AcDbBlockReference
  2
FXTIP_ARROW_E
 10
311.821925
 20
176.599527
 30
0.0
 41
4.0
 42
4.0
 50
360.0
  0
LINE
  5
170
330
1F
100
AcDbEntity
  8
LAYERGROUP-1
  6
CONTINUOUS
 62
     7
100
AcDbLine
 10
248.821925
 20
190.844228
 30
0.0
 11
248.821925
 21
175.599527
 31
0.0
  0
LINE
  5
171
330
1F
100
AcDbEntity
  8
LAYERGROUP-1
  6
CONTINUOUS
 62
     7
100
AcDbLine
 10
311.821925
 20
190.844228
 30
0.0
 11
311.821925
 21
175.599527
 31
0.0
  0
TEXT
  5
172
330
1F
100
AcDbEntity
  8
LAYERGROUP-1
  6
CONTINUOUS
 62
     7
100
AcDbText
 10
277.32193
 20
166.888885
 30
0.0
 40
4.0
  1
82
 41
0.851351
  7
FX_VECTOR
 72
     5
 11
283.32193
 21
166.888885
 31
0.0
100
AcDbText
  0
LINE
  5
173
330
1F
100
AcDbEntity
  8
LAYERGROUP-1
  6
CONTINUOUS
 62
     7
100
AcDbLine
 10
239.321925
 20
165.888874
 30
0.0
 11
321.321925
 21
165.888874
 31
0.0
  0
INSERT
  5
174
330
1F
100
AcDbEntity
  8
LAYERGROUP-1
  6
CONTINUOUS
 62
     7
100
AcDbBlockReference
  2
FXTIP_ARROW_S
 10
239.321925
 20
165.888874
 30
0.0
 41
4.0
 42
4.0
 50
180.0
  0
INSERT
  5
175
330
1F
100
AcDbEntity
  8
LAYERGROUP-1
  6
CONTINUOUS
 62
     7
100
AcDbBlockReference
  2
FXTIP_ARROW_E
 10
321.321925
 20
165.888874
 30
0.0
 41
4.0
 42
4.0
 50
360.0
  0
LINE
  5
176
330
1F
100
AcDbEntity
  8
LAYERGROUP-1
  6
CONTINUOUS
 62
     7
100
AcDbLine
 10
239.321925
 20
184.844228
 30
0.0
 11
239.321925
 21
164.888874
 31
0.0
  0
LINE
  5
177
330
1F
100
AcDbEntity
  8
LAYERGROUP-1
  6
CONTINUOUS
 62
     7
100
AcDbLine
 10
321.321925
 20
184.844228
 30
0.0
 11
321.321925
 21
164.888874
 31
0.0
  0
TEXT
  5
178
330
1F
100
AcDbEntity
  8
LAYERGROUP-1
  6
CONTINUOUS
 62
     7
100
AcDbText
 10
174.691513
 20
79.335678
 30
0.0
 40
4.0
  1
%%c75
 50
90.0
 41
0.84375
  7
FX_VECTOR
 72
     5
 11
174.691513
 21
88.335678
 31
0.0
100
AcDbText
  0
LINE
  5
179
330
1F
100
AcDbEntity
  8
LAYERGROUP-1
  6
CONTINUOUS
 62
     7
100
AcDbLine
 10
175.691529
 20
46.335679
 30
0.0
 11
175.691529
 21
121.335679
 31
0.0
  0
INSERT
  5
17A
330
1F
100
AcDbEntity
  8
LAYERGROUP-1
  6
CONTINUOUS
 62
     7
100
AcDbBlockReference
  2
FXTIP_ARROW_S
 10
175.691529
 20
46.335679
 30
0.0
 41
4.0
 42
4.0
 50
270.0
  0
INSERT
  5
17B
330
1F
100
AcDbEntity
  8
LAYERGROUP-1
  6
CONTINUOUS
 62
     7
100
AcDbBlockReference
  2
FXTIP_ARROW_E
 10
175.691529
 20
121.335679
 30
0.0
 41
4.0
 42
4.0
 50
90.0
  0
LINE
  5
17C
330
1F
100
AcDbEntity
  8
LAYERGROUP-1
  6
CONTINUOUS
 62
     7
100
AcDbLine
 10
130.691529
 20
46.335679
 30
0.0
 11
176.691529
 21
46.335679
 31
0.0
  0
LINE
  5
17D
330
1F
100
AcDbEntity
  8
LAYERGROUP-1
  6
CONTINUOUS
 62
     7
100
AcDbLine
 10
130.691529
 20
121.335679
 30
0.0
 11
176.691529
 21
121.335679
 31
0.0
  0
TEXT
  5
17E
330
1F
100
AcDbEntity
  8
LAYERGROUP-1
  6
CONTINUOUS
 62
     7
100
AcDbText
 10
126.691528
 20
37.335678
 30
0.0
 40
4.0
  1
32
 41
0.851351
  7
FX_VECTOR
 72
     5
 11
132.691528
 21
37.335678
 31
0.0
100
AcDbText
  0
LINE
  5
17F
330
1F
100
AcDbEntity
  8
LAYERGROUP-1
  6
CONTINUOUS
 62
     7
100
AcDbLine
 10
113.691529
 20
36.335679
 30
0.0
 11
145.691529
 21
36.335679
 31
0.0
  0
INSERT
  5
180
330
1F
100
AcDbEntity
  8
LAYERGROUP-1
  6
CONTINUOUS
 62
     7
100
AcDbBlockReference
  2
FXTIP_ARROW_S
 10
113.691529
 20
36.335679
 30
0.0
 41
4.0
 42
4.0
 50
180.0
  0
INSERT
  5
181
330
1F
100
AcDbEntity
  8
LAYERGROUP-1
  6
CONTINUOUS
 62
     7
100
AcDbBlockReference
  2
FXTIP_ARROW_E
 10
145.691529
 20
36.335679
 30
0.0
 41
4.0
 42
4.0
 50
360.0
  0
LINE
  5
182
330
1F
100
AcDbEntity
  8
LAYERGROUP-1
  6
CONTINUOUS
 62
     7
100
AcDbLine
 10
113.691529
 20
54.835679
 30
0.0
 11
113.691529
 21
35.335679
 31
0.0
  0
LINE
  5
183
330
1F
100
AcDbEntity
  8
LAYERGROUP-1
  6
CONTINUOUS
 62
     7
100
AcDbLine
 10
145.691529
 20
54.835679
 30
0.0
 11
145.691529
 21
35.335679
 31
0.0
  0
TEXT
  5
184
330
1F
100
AcDbEntity
  8
LAYERGROUP-1
  6
CONTINUOUS
 62
     7
100
AcDbText
 10
220.582202
 20
269.597803
 30
0.0
 40
4.0
  1
4-%%c9.5
 50
346.603882
 41
0.84375
  7
FX_VECTOR
 72
     5
 11
238.09245
 21
265.427527
 31
0.0
100
AcDbText
  0
LINE
  5
185
330
1F
100
AcDbEntity
  8
LAYERGROUP-1
  6
CONTINUOUS
 62
     7
100
AcDbLine
 10
244.201165
 20
262.944717
 30
0.0
 11
253.442685
 21
260.743739
 31
0.0
  0
LINE
  5
186
330
1F
100
AcDbEntity
  8
LAYERGROUP-1
  6
CONTINUOUS
 62
     7
100
AcDbLine
 10
244.201165
 20
262.944717
 30
0.0
 11
214.010159
 21
270.135066
 31
0.0
  0
INSERT
  5
187
330
1F
100
AcDbEntity
  8
LAYERGROUP-1
  6
CONTINUOUS
 62
     7
100
AcDbBlockReference
  2
FXTIP_ARROW_S
 10
244.201165
 20
262.944717
 30
0.0
 41
4.0
 42
4.0
 50
346.603885
  0
LINE
  5
188
330
1F
100
AcDbEntity
  8
LAYERGROUP-1
  6
CONTINUOUS
 62
     7
100
AcDbLine
 10
253.442685
 20
260.743739
 30
0.0
 11
259.279435
 21
259.353647
 31
0.0
  0
INSERT
  5
189
330
1F
100
AcDbEntity
  8
LAYERGROUP-1
  6
CONTINUOUS
 62
     7
100
AcDbBlockReference
  2
FXTIP_ARROW_S
 10
253.442685
 20
260.743739
 30
0.0
 41
4.0
 42
4.0
 50
166.603885
  0
TEXT
  5
18A
330
1F
100
AcDbEntity
  8
LAYERGROUP-1
  6
CONTINUOUS
 62
     7
100
AcDbText
 10
339.18338
 20
227.344238
 30
0.0
 40
4.0
  1
63
 50
90.0
 41
0.851351
  7
FX_VECTOR
 72
     5
 11
339.18338
 21
233.344238
 31
0.0
100
AcDbText
  0
LINE
  5
18B
330
1F
100
AcDbEntity
  8
LAYERGROUP-1
  6
CONTINUOUS
 62
     7
100
AcDbLine
 10
340.183396
 20
198.844228
 30
0.0
 11
340.183396
 21
261.844228
 31
0.0
  0
INSERT
  5
18C
330
1F
100
AcDbEntity
  8
LAYERGROUP-1
  6
CONTINUOUS
 62
     7
100
AcDbBlockReference
  2
FXTIP_ARROW_S
 10
340.183396
 20
198.844228
 30
0.0
 41
4.0
 42
4.0
 50
270.0
  0
INSERT
  5
18D
330
1F
100
AcDbEntity
  8
LAYERGROUP-1
  6
CONTINUOUS
 62
     7
100
AcDbBlockReference
  2
FXTIP_ARROW_E
 10
340.183396
 20
261.844228
 30
0.0
 41
4.0
 42
4.0
 50
90.0
  0
LINE
  5
18E
330
1F
100
AcDbEntity
  8
LAYERGROUP-1
  6
CONTINUOUS
 62
     7
100
AcDbLine
 10
319.821925
 20
198.844228
 30
0.0
 11
341.183396
 21
198.844228
 31
0.0
  0
LINE
  5
18F
330
1F
100
AcDbEntity
  8
LAYERGROUP-1
  6
CONTINUOUS
 62
     7
100
AcDbLine
 10
319.821925
 20
261.844228
 30
0.0
 11
341.183396
 21
261.844228
 31
0.0
  0
TEXT
  5
190
330
1F
100
AcDbEntity
  8
LAYERGROUP-1
  6
CONTINUOUS
 62
     7
100
AcDbText
 10
349.22464
 20
227.344238
 30
0.0
 40
4.0
  1
89
 50
90.0
 41
0.875
  7
FX_VECTOR
 72
     5
 11
349.22464
 21
233.344238
 31
0.0
100
AcDbText
  0
LINE
  5
191
330
1F
100
AcDbEntity
  8
LAYERGROUP-1
  6
CONTINUOUS
 62
     7
100
AcDbLine
 10
350.224634
 20
185.844228
 30
0.0
 11
350.224634
 21
274.844228
 31
0.0
  0
INSERT
  5
192
330
1F
100
AcDbEntity
  8
LAYERGROUP-1
  6
CONTINUOUS
 62
     7
100
AcDbBlockReference
  2
FXTIP_ARROW_S
 10
350.224634
 20
185.844228
 30
0.0
 41
4.0
 42
4.0
 50
270.0
  0
INSERT
  5
193
330
1F
100
AcDbEntity
  8
LAYERGROUP-1
  6
CONTINUOUS
 62
     7
100
AcDbBlockReference
  2
FXTIP_ARROW_E
 10
350.224634
 20
274.844228
 30
0.0
 41
4.0
 42
4.0
 50
90.0
  0
LINE
  5
194
330
1F
100
AcDbEntity
  8
LAYERGROUP-1
  6
CONTINUOUS
 62
     7
100
AcDbLine
 10
322.321925
 20
185.844228
 30
0.0
 11
351.224634
 21
185.844228
 31
0.0
  0
LINE
  5
195
330
1F
100
AcDbEntity
  8
LAYERGROUP-1
  6
CONTINUOUS
 62
     7
100
AcDbLine
 10
322.321925
 20
274.844228
 30
0.0
 11
351.224634
 21
274.844228
 31
0.0
  0
TEXT
  5
196
330
1F
100
AcDbEntity
  8
LAYERGROUP-1
  6
CONTINUOUS
 62
     7
100
AcDbText
 10
345.905426
 20
91.835678
 30
0.0
 40
4.0
  1
100
 50
90.0
 41
0.828947
  7
FX_VECTOR
 72
     5
 11
345.905426
 21
100.835678
 31
0.0
100
AcDbText
  0
LINE
  5
197
330
1F
100
AcDbEntity
  8
LAYERGROUP-1
  6
CONTINUOUS
 62
     7
100
AcDbLine
 10
346.905424
 20
46.335679
 30
0.0
 11
346.905424
 21
146.335679
 31
0.0
  0
INSERT
  5
198
330
1F
100
AcDbEntity
  8
LAYERGROUP-1
  6
CONTINUOUS
 62
     7
100
AcDbBlockReference
  2
FXTIP_ARROW_S
 10
346.905424
 20
46.335679
 30
0.0
 41
4.0
 42
4.0
 50
270.0
  0
INSERT
  5
199
330
1F
100
AcDbEntity
  8
LAYERGROUP-1
  6
CONTINUOUS
 62
     7
100
AcDbBlockReference
  2
FXTIP_ARROW_E
 10
346.905424
 20
146.335679
 30
0.0
 41
4.0
 42
4.0
 50
90.0
  0
LINE
  5
19A
330
1F
100
AcDbEntity
  8
LAYERGROUP-1
  6
CONTINUOUS
 62
     7
100
AcDbLine
 10
281.321925
 20
46.335679
 30
0.0
 11
347.905424
 21
46.335679
 31
0.0
  0
LINE
  5
19B
330
1F
100
AcDbEntity
  8
LAYERGROUP-1
  6
CONTINUOUS
 62
     7
100
AcDbLine
 10
322.321925
 20
146.335679
 30
0.0
 11
347.905424
 21
146.335679
 31
0.0
  0
TEXT
  5
19C
330
1F
100
AcDbEntity
  8
LAYERGROUP-1
  6
CONTINUOUS
 62
     7
100
AcDbText
 10
335.905426
 20
109.085678
 30
0.0
 40
4.0
  1
62.5
 50
90.0
 41
0.940299
  7
FX_VECTOR
 72
     5
 11
335.905426
 21
121.085678
 31
0.0
100
AcDbText
  0
LINE
  5
19D
330
1F
100
AcDbEntity
  8
LAYERGROUP-1
  6
CONTINUOUS
 62
     7
100
AcDbLine
 10
336.905424
 20
83.835679
 30
0.0
 11
336.905424
 21
146.335679
 31
0.0
  0
INSERT
  5
19E
330
1F
100
AcDbEntity
  8
LAYERGROUP-1
  6
CONTINUOUS
 62
     7
100
AcDbBlockReference
  2
FXTIP_ARROW_S
 10
336.905424
 20
83.835679
 30
0.0
 41
4.0
 42
4.0
 50
270.0
  0
INSERT
  5
19F
330
1F
100
AcDbEntity
  8
LAYERGROUP-1
  6
CONTINUOUS
 62
     7
100
AcDbBlockReference
  2
FXTIP_ARROW_E
 10
336.905424
 20
146.335679
 30
0.0
 41
4.0
 42
4.0
 50
90.0
  0
LINE
  5
1A0
330
1F
100
AcDbEntity
  8
LAYERGROUP-1
  6
CONTINUOUS
 62
     7
100
AcDbLine
 10
321.266082
 20
83.835679
 30
0.0
 11
337.905424
 21
83.835679
 31
0.0
  0
TEXT
  5
1A1
330
1F
100
AcDbEntity
  8
LAYERGROUP-1
  6
CONTINUOUS
 62
     7
100
AcDbText
 10
123.691528
 20
26.115185
 30
0.0
 40
4.0
  1
35.5
 41
0.940299
  7
FX_VECTOR
 72
     5
 11
135.691528
 21
26.115185
 31
0.0
100
AcDbText
  0
LINE
  5
1A2
330
1F
100
AcDbEntity
  8
LAYERGROUP-1
  6
CONTINUOUS
 62
     7
100
AcDbLine
 10
111.941529
 20
25.115184
 30
0.0
 11
147.441529
 21
25.115184
 31
0.0
  0
INSERT
  5
1A3
330
1F
100
AcDbEntity
  8
LAYERGROUP-1
  6
CONTINUOUS
 62
     7
100
AcDbBlockReference
  2
FXTIP_ARROW_S
 10
111.941529
 20
25.115184
 30
0.0
 41
4.0
 42
4.0
 50
180.0
  0
INSERT
  5
1A4
330
1F
100
AcDbEntity
  8
LAYERGROUP-1
  6
CONTINUOUS
 62
     7
100
AcDbBlockReference
  2
FXTIP_ARROW_E
 10
147.441529
 20
25.115184
 30
0.0
 41
4.0
 42
4.0
 50
360.0
  0
LINE
  5
1A5
330
1F
100
AcDbEntity
  8
LAYERGROUP-1
  6
CONTINUOUS
 62
     7
100
AcDbLine
 10
111.941529
 20
74.902345
 30
0.0
 11
111.941529
 21
24.115184
 31
0.0
  0
LINE
  5
1A6
330
1F
100
AcDbEntity
  8
LAYERGROUP-1
  6
CONTINUOUS
 62
     7
100
AcDbLine
 10
147.441529
 20
74.902345
 30
0.0
 11
147.441529
 21
24.115184
 31
0.0
  0
LINE
  5
1A7
330
1F
100
AcDbEntity
  8
GR1-1
  6
CONTINUOUS
 62
     3
100
AcDbLine
 10
119.753707
 20
46.335679
 30
0.0
 11
139.629352
 21
46.335679
 31
0.0
  0
LINE
  5
1A8
330
1F
100
AcDbEntity
  8
GR1-1
  6
CONTINUOUS
 62
     3
100
AcDbLine
 10
113.691529
 20
54.835679
 30
0.0
 11
118.021656
 21
47.335679
 31
0.0
  0
LINE
  5
1A9
330
1F
100
AcDbEntity
  8
GR1-1
  6
CONTINUOUS
 62
     3
100
AcDbLine
 10
145.691529
 20
54.835679
 30
0.0
 11
141.361402
 21
47.335679
 31
0.0
  0
ARC
  5
1AA
330
1F
100
AcDbEntity
  8
GR1-1
  6
CONTINUOUS
 62
     3
100
AcDbCircle
 10
139.629352
 20
48.335679
 30
0.0
 40
2.0
100
AcDbArc
 50
270.0
 51
330.0
  0
ARC
  5
1AB
330
1F
100
AcDbEntity
  8
GR1-1
  6
CONTINUOUS
 62
     3
100
AcDbCircle
 10
119.753707
 20
48.335679
 30
0.0
 40
2.0
100
AcDbArc
 50
210.0
 51
270.0
  0
LINE
  5
1AC
330
1F
100
AcDbEntity
  8
GR1-1
  6
CONTINUOUS
 62
     3
100
AcDbLine
 10
113.691529
 20
76.335679
 30
0.0
 11
112.491529
 21
76.335679
 31
0.0
  0
LINE
  5
1AD
330
1F
100
AcDbEntity
  8
GR1-1
  6
CONTINUOUS
 62
     3
100
AcDbLine
 10
112.491529
 20
76.335679
 30
0.0
 11
112.191529
 21
76.635679
 31
0.0
  0
LINE
  5
1AE
330
1F
100
AcDbEntity
  8
GR1-1
  6
CONTINUOUS
 62
     3
100
AcDbLine
 10
119.753707
 20
121.335679
 30
0.0
 11
139.629352
 21
121.335679
 31
0.0
  0
LINE
  5
1AF
330
1F
100
AcDbEntity
  8
GR1-1
  6
CONTINUOUS
 62
     3
100
AcDbLine
 10
113.691529
 20
112.835679
 30
0.0
 11
118.021656
 21
120.335679
 31
0.0
  0
LINE
  5
1B0
330
1F
100
AcDbEntity
  8
GR1-1
  6
CONTINUOUS
 62
     3
100
AcDbLine
 10
145.691529
 20
112.835679
 30
0.0
 11
141.361402
 21
120.335679
 31
0.0
  0
ARC
  5
1B1
330
1F
100
AcDbEntity
  8
GR1-1
  6
CONTINUOUS
 62
     3
100
AcDbCircle
 10
139.629352
 20
119.335679
 30
0.0
 40
2.0
100
AcDbArc
 50
30.0
 51
90.0
  0
ARC
  5
1B2
330
1F
100
AcDbEntity
  8
GR1-1
  6
CONTINUOUS
 62
     3
100
AcDbCircle
 10
119.753707
 20
119.335679
 30
0.0
 40
2.0
100
AcDbArc
 50
90.0
 51
150.0
  0
LINE
  5
1B3
330
1F
100
AcDbEntity
  8
GR1-1
  6
CONTINUOUS
 62
     3
100
AcDbLine
 10
113.691529
 20
91.335679
 30
0.0
 11
112.491529
 21
91.335679
 31
0.0
  0
LINE
  5
1B4
330
1F
100
AcDbEntity
  8
GR1-1
  6
CONTINUOUS
 62
     3
100
AcDbLine
 10
112.491529
 20
91.335679
 30
0.0
 11
112.191529
 21
91.035679
 31
0.0
  0
LINE
  5
1B5
330
1F
100
AcDbEntity
  8
GR1-1
  6
CONTINUOUS
 62
     3
100
AcDbLine
 10
112.191529
 20
91.035679
 30
0.0
 11
112.191529
 21
76.635679
 31
0.0
  0
LINE
  5
1B6
330
1F
100
AcDbEntity
  8
GR1-1
  6
CONTINUOUS
 62
     3
100
AcDbLine
 10
113.691529
 20
54.835679
 30
0.0
 11
113.691529
 21
112.835679
 31
0.0
  0
LINE
  5
1B7
330
1F
100
AcDbEntity
  8
}}ﾊﾊGG血CCТ
  6
CONTINUOUS
 62
     6
100
AcDbLine
 10
118.753707
 20
46.603628
 30
0.0
 11
118.753707
 21
121.067729
 31
0.0
  0
LINE
  5
1B8
330
1F
100
AcDbEntity
  8
GR1-1
  6
CONTINUOUS
 62
     3
100
AcDbLine
 10
145.691529
 20
76.335679
 30
0.0
 11
146.891529
 21
76.335679
 31
0.0
  0
LINE
  5
1B9
330
1F
100
AcDbEntity
  8
GR1-1
  6
CONTINUOUS
 62
     3
100
AcDbLine
 10
146.891529
 20
76.335679
 30
0.0
 11
147.191529
 21
76.635679
 31
0.0
  0
LINE
  5
1BA
330
1F
100
AcDbEntity
  8
GR1-1
  6
CONTINUOUS
 62
     3
100
AcDbLine
 10
145.691529
 20
91.335679
 30
0.0
 11
146.891529
 21
91.335679
 31
0.0
  0
LINE
  5
1BB
330
1F
100
AcDbEntity
  8
GR1-1
  6
CONTINUOUS
 62
     3
100
AcDbLine
 10
146.891529
 20
91.335679
 30
0.0
 11
147.191529
 21
91.035679
 31
0.0
  0
LINE
  5
1BC
330
1F
100
AcDbEntity
  8
GR1-1
  6
CONTINUOUS
 62
     3
100
AcDbLine
 10
147.191529
 20
91.035679
 30
0.0
 11
147.191529
 21
76.635679
 31
0.0
  0
LINE
  5
1BD
330
1F
100
AcDbEntity
  8
GR1-1
  6
CONTINUOUS
 62
     3
100
AcDbLine
 10
145.691529
 20
54.835679
 30
0.0
 11
145.691529
 21
112.835679
 31
0.0
  0
LINE
  5
1BE
330
1F
100
AcDbEntity
  8
}}ﾊﾊGG血CCТ
  6
CONTINUOUS
 62
     6
100
AcDbLine
 10
140.629352
 20
46.603628
 30
0.0
 11
140.629352
 21
121.067729
 31
0.0
  0
ARC
  5
1BF
330
1F
100
AcDbEntity
  8
GR1-1
  6
CONTINUOUS
 62
     3
100
AcDbCircle
 10
280.321925
 20
83.835679
 30
0.0
 40
29.0
100
AcDbArc
 50
-220.912266
 51
40.912266
  0
TEXT
  5
1C0
330
1F
100
AcDbEntity
  8
GR1-1
  6
CONTINUOUS
 62
     7
100
AcDbText
 10
296.606903
 20
75.907394
 30
0.0
 40
3.615784
  1
7
 50
239.114807
 41
1.137064
  7
FX_VECTOR
 72
     5
 11
294.898443
 21
73.05109
 31
0.0
100
AcDbText
  0
TEXT
  5
1C1
330
1F
100
AcDbEntity
  8
GR1-1
  6
CONTINUOUS
 62
     7
100
AcDbText
 10
294.982758
 20
73.199982
 30
0.0
 40
3.615784
  1
5
 50
229.114807
 41
1.137064
  7
FX_VECTOR
 72
     5
 11
292.80426
 21
70.683742
 31
0.0
100
AcDbText
  0
TEXT
  5
1C2
330
1F
100
AcDbEntity
  8
GR1-1
  6
CONTINUOUS
 62
     7
100
AcDbText
 10
287.700745
 20
67.294487
 30
0.0
 40
3.615784
  1
2
 50
199.114807
 41
1.137064
  7
FX_VECTOR
 72
     5
 11
284.555991
 21
66.204608
 31
0.0
100
AcDbText
  0
TEXT
  5
1C3
330
1F
100
AcDbEntity
  8
GR1-1
  6
CONTINUOUS
 62
     7
100
AcDbText
 10
292.913177
 20
70.81572
 30
0.0
 40
3.615784
  1
X
 50
219.114807
 41
1.137064
  7
FX_VECTOR
 72
     5
 11
290.330836
 21
68.715999
 31
0.0
100
AcDbText
  0
TEXT
  5
1C4
330
1F
100
AcDbEntity
  8
GR1-1
  6
CONTINUOUS
 62
     7
100
AcDbText
 10
290.460999
 20
68.82708
 30
0.0
 40
3.615784
  1
3
 50
209.114807
 41
1.137064
  7
FX_VECTOR
 72
     5
 11
287.553276
 21
67.207678
 31
0.0
100
AcDbText
  0
LINE
  5
1C5
330
1F
100
AcDbEntity
  8
LAYERGROUP-1
  6
CONTINUOUS
 62
     7
100
AcDbLine
 10
300.690725
 20
79.918724
 30
0.0
 11
299.982825
 21
80.963707
 31
0.0
  0
LINE
  5
1C6
330
1F
100
AcDbEntity
  8
LAYERGROUP-1
  6
CONTINUOUS
 62
     7
100
AcDbLine
 10
299.982825
 20
80.963707
 30
0.0
 11
298.937842
 21
80.255806
 31
0.0
  0
LINE
  5
1C7
330
1F
100
AcDbEntity
  8
LAYERGROUP-1
  6
CONTINUOUS
 62
     7
100
AcDbLine
 10
298.937842
 20
80.255806
 30
0.0
 11
299.419214
 21
79.545218
 31
0.0
  0
LINE
  5
1C8
330
1F
100
AcDbEntity
  8
LAYERGROUP-1
  6
CONTINUOUS
 62
     7
100
AcDbLine
 10
300.690725
 20
79.918724
 30
0.0
 11
299.854739
 21
79.352404
 31
0.0
  0
LINE
  5
1C9
330
1F
100
AcDbEntity
  8
LAYERGROUP-1
  6
CONTINUOUS
 62
     7
100
AcDbLine
 10
300.294093
 20
79.994997
 30
0.0
 11
299.906552
 21
80.567075
 31
0.0
  0
LINE
  5
1CA
330
1F
100
AcDbEntity
  8
LAYERGROUP-1
  6
CONTINUOUS
 62
     7
100
AcDbLine
 10
299.906552
 20
80.567075
 30
0.0
 11
299.334474
 21
80.179533
 31
0.0
  0
LINE
  5
1CB
330
1F
100
AcDbEntity
  8
LAYERGROUP-1
  6
CONTINUOUS
 62
     7
100
AcDbLine
 10
299.334474
 20
80.179533
 30
0.0
 11
299.580435
 21
79.816452
 31
0.0
  0
LINE
  5
1CC
330
1F
100
AcDbEntity
  8
LAYERGROUP-1
  6
CONTINUOUS
 62
     7
100
AcDbLine
 10
300.294093
 20
79.994997
 30
0.0
 11
299.931012
 21
79.749036
 31
0.0
  0
LINE
  5
1CD
330
1F
100
AcDbEntity
  8
LAYERGROUP-1
  6
CONTINUOUS
 62
     7
100
AcDbLine
 10
299.814284
 20
80.087265
 30
0.0
 11
299.638995
 21
80.120973
 31
0.0
  0
LINE
  5
1CE
330
1F
100
AcDbEntity
  8
LAYERGROUP-1
  6
CONTINUOUS
 62
     7
100
AcDbLine
 10
299.638995
 20
80.120973
 30
0.0
 11
299.580435
 21
79.816452
 31
0.0
  0
LINE
  5
1CF
330
1F
100
AcDbEntity
  8
LAYERGROUP-1
  6
CONTINUOUS
 62
     7
100
AcDbLine
 10
299.814284
 20
80.087265
 30
0.0
 11
299.645743
 21
79.210824
 31
0.0
  0
LINE
  5
1D0
330
1F
100
AcDbEntity
  8
LAYERGROUP-1
  6
CONTINUOUS
 62
     7
100
AcDbLine
 10
299.645743
 20
79.210824
 30
0.0
 11
298.944589
 21
79.345656
 31
0.0
  0
LINE
  5
1D1
330
1F
100
AcDbEntity
  8
LAYERGROUP-1
  6
CONTINUOUS
 62
     7
100
AcDbLine
 10
298.944589
 20
79.345656
 30
0.0
 11
298.998522
 21
79.626118
 31
0.0
  0
LINE
  5
1D2
330
1F
100
AcDbEntity
  8
LAYERGROUP-1
  6
CONTINUOUS
 62
     7
100
AcDbLine
 10
298.998522
 20
79.626118
 30
0.0
 11
299.419214
 21
79.545218
 31
0.0
  0
LINE
  5
1D3
330
1F
100
AcDbEntity
  8
LAYERGROUP-1
  6
CONTINUOUS
 62
     7
100
AcDbLine
 10
299.931012
 20
79.749036
 30
0.0
 11
299.854739
 21
79.352404
 31
0.0
  0
LINE
  5
1D4
330
1F
100
AcDbEntity
  8
LAYERGROUP-1
  6
CONTINUOUS
 62
     7
100
AcDbLine
 10
301.068263
 20
80.936746
 30
0.0
 11
298.964803
 21
81.341245
 31
0.0
  0
LINE
  5
1D5
330
1F
100
AcDbEntity
  8
LAYERGROUP-1
  6
CONTINUOUS
 62
     7
100
AcDbLine
 10
298.964803
 20
81.341245
 30
0.0
 11
298.560304
 21
79.237785
 31
0.0
  0
LINE
  5
1D6
330
1F
100
AcDbEntity
  8
LAYERGROUP-1
  6
CONTINUOUS
 62
     7
100
AcDbLine
 10
298.560304
 20
79.237785
 30
0.0
 11
300.663764
 21
78.833286
 31
0.0
  0
LINE
  5
1D7
330
1F
100
AcDbEntity
  8
LAYERGROUP-1
  6
CONTINUOUS
 62
     7
100
AcDbLine
 10
300.663764
 20
78.833286
 30
0.0
 11
301.068263
 21
80.936746
 31
0.0
  0
LINE
  5
1D8
330
1F
100
AcDbEntity
  8
LAYERGROUP-1
  6
CONTINUOUS
 62
     7
100
AcDbLine
 10
301.27726
 20
81.078326
 30
0.0
 11
298.823223
 21
81.550241
 31
0.0
  0
LINE
  5
1D9
330
1F
100
AcDbEntity
  8
LAYERGROUP-1
  6
CONTINUOUS
 62
     7
100
AcDbLine
 10
298.823223
 20
81.550241
 30
0.0
 11
298.351308
 21
79.096205
 31
0.0
  0
LINE
  5
1DA
330
1F
100
AcDbEntity
  8
LAYERGROUP-1
  6
CONTINUOUS
 62
     7
100
AcDbLine
 10
298.351308
 20
79.096205
 30
0.0
 11
300.805344
 21
78.624289
 31
0.0
  0
LINE
  5
1DB
330
1F
100
AcDbEntity
  8
LAYERGROUP-1
  6
CONTINUOUS
 62
     7
100
AcDbLine
 10
300.805344
 20
78.624289
 30
0.0
 11
301.27726
 21
81.078326
 31
0.0
  0
ARC
  5
1DC
330
1F
100
AcDbEntity
  8
GR1-1
  6
CONTINUOUS
 62
     6
100
AcDbCircle
 10
280.321925
 20
83.835679
 30
0.0
 40
21.5
100
AcDbArc
 50
-211.936697
 51
31.936697
  0
ARC
  5
1DD
330
1F
100
AcDbEntity
  8
GR1-1
  6
CONTINUOUS
 62
     6
100
AcDbCircle
 10
280.321925
 20
83.835679
 30
0.0
 40
18.79235
100
AcDbArc
 50
-206.013564
 51
26.013564
  0
ARC
  5
1DE
330
1F
100
AcDbEntity
  8
GR1-1
  6
CONTINUOUS
 62
     6
100
AcDbCircle
 10
280.321925
 20
83.835679
 30
0.0
 40
25.0712
100
AcDbArc
 50
-217.125699
 51
37.125699
  0
ARC
  5
1DF
330
1F
100
AcDbEntity
  8
GR1-1
  6
CONTINUOUS
 62
     3
100
AcDbCircle
 10
280.321925
 20
83.835679
 30
0.0
 40
37.49999999999997
100
AcDbArc
 50
-225.580498
 51
45.580498
  0
ARC
  5
1E0
330
1F
100
AcDbEntity
  8
GR1-1
  6
CONTINUOUS
 62
     3
100
AcDbCircle
 10
280.321925
 20
83.835679
 30
0.0
 40
16.49999999999999
100
AcDbArc
 50
-198.413278
 51
18.413278
  0
INSERT
  5
1E4
330
1F
100
AcDbEntity
  8
0
100
AcDbBlockReference
  2
BLKF021
 10
0.0
 20
0.0
 30
0.0
  0
TEXT
  5
23C
330
1F
100
AcDbEntity
  8
GR1-1
  6
CONTINUOUS
 62
     7
100
AcDbText
 10
262.044556
 20
60.314072
 30
0.0
 40
4.877275
  1
G
 50
137.736115
 41
1.201412
  7
FX_VECTOR
 72
     5
 11
258.327606
 21
63.691955
 31
0.0
100
AcDbText
  0
TEXT
  5
23D
330
1F
100
AcDbEntity
  8
GR1-1
  6
CONTINUOUS
 62
     7
100
AcDbText
 10
258.948853
 20
63.086708
 30
0.0
 40
4.877275
  1
O
 50
129.736115
 41
1.13818
  7
FX_VECTOR
 72
     5
 11
255.738187
 21
66.949018
 31
0.0
100
AcDbText
  0
TEXT
  5
23E
330
1F
100
AcDbEntity
  8
GR1-1
  6
CONTINUOUS
 62
     7
100
AcDbText
 10
256.269135
 20
66.263184
 30
0.0
 40
4.877275
  1
L
 50
121.736115
 41
1.351589
  7
FX_VECTOR
 72
     5
 11
253.627244
 21
70.534744
 31
0.0
100
AcDbText
  0
TEXT
  5
23F
330
1F
100
AcDbEntity
  8
GR1-1
  6
CONTINUOUS
 62
     7
100
AcDbText
 10
254.057617
 20
69.781693
 30
0.0
 40
4.877275
  1
D
 50
113.736115
 41
1.201412
  7
FX_VECTOR
 72
     5
 11
252.035924
 21
74.379362
 31
0.0
100
AcDbText
  0
TEXT
  5
240
330
1F
100
AcDbEntity
  8
GR1-1
  6
CONTINUOUS
 62
     7
100
AcDbText
 10
251.201248
 20
77.565536
 30
0.0
 40
4.877275
  1
C
 50
97.736115
 41
1.201412
  7
FX_VECTOR
 72
     5
 11
250.525161
 21
82.542355
 31
0.0
100
AcDbText
  0
TEXT
  5
241
330
1F
100
AcDbEntity
  8
GR1-1
  6
CONTINUOUS
 62
     7
100
AcDbText
 10
250.612015
 20
81.679398
 30
0.0
 40
4.877275
  1
A
 50
89.736115
 41
1.272084
  7
FX_VECTOR
 72
     5
 11
250.635147
 21
86.701875
 31
0.0
100
AcDbText
  0
TEXT
  5
242
330
1F
100
AcDbEntity
  8
GR1-1
  6
CONTINUOUS
 62
     7
100
AcDbText
 10
250.601059
 20
85.835197
 30
0.0
 40
4.877275
  1
S
 50
81.736115
 41
1.272084
  7
FX_VECTOR
 72
     5
 11
251.32296
 21
90.805577
 31
0.0
100
AcDbText
  0
TEXT
  5
243
330
1F
100
AcDbEntity
  8
GR1-1
  6
CONTINUOUS
 62
     7
100
AcDbText
 10
251.168579
 20
89.952065
 30
0.0
 40
4.877275
  1
T
 50
73.736115
 41
1.441695
  7
FX_VECTOR
 72
     5
 11
252.575197
 21
94.773603
 31
0.0
100
AcDbText
  0
TEXT
  5
244
330
1F
100
AcDbEntity
  8
GR1-1
  6
CONTINUOUS
 62
     7
100
AcDbText
 10
252.303543
 20
93.949905
 30
0.0
 40
4.877275
  1
E
 50
65.736115
 41
1.272084
  7
FX_VECTOR
 72
     5
 11
254.367501
 21
98.528758
 31
0.0
100
AcDbText
  0
TEXT
  5
245
330
1F
100
AcDbEntity
  8
GR1-1
  6
CONTINUOUS
 62
     7
100
AcDbText
 10
253.983841
 20
97.750885
 30
0.0
 40
4.877275
  1
R
 50
57.736115
 41
1.201412
  7
FX_VECTOR
 72
     5
 11
256.664965
 21
101.997929
 31
0.0
100
AcDbText
  0
TEXT
  5
246
330
1F
100
AcDbEntity
  8
GR1-1
  6
CONTINUOUS
 62
     7
100
AcDbText
 10
303.464966
 20
102.581116
 30
0.0
 40
4.863612
  1
7
 50
303.736115
 41
1.359714
  7
FX_VECTOR
 72
     5
 11
306.43812
 21
98.129141
 31
0.0
100
AcDbText
  0
TEXT
  5
247
330
1F
100
AcDbEntity
  8
GR1-1
  6
CONTINUOUS
 62
     7
100
AcDbText
 10
306.112457
 20
98.729965
 30
0.0
 40
4.863612
  1
5
 50
294.736115
 41
1.359714
  7
FX_VECTOR
 72
     5
 11
308.352564
 21
93.867698
 31
0.0
100
AcDbText
  0
TEXT
  5
248
330
1F
100
AcDbEntity
  8
GR1-1
  6
CONTINUOUS
 62
     7
100
AcDbText
 10
308.124908
 20
94.512054
 30
0.0
 40
4.863612
  1
X
 50
285.736115
 41
1.359714
  7
FX_VECTOR
 72
     5
 11
309.57681
 21
89.35922
 31
0.0
100
AcDbText
  0
TEXT
  5
249
330
1F
100
AcDbEntity
  8
GR1-1
  6
CONTINUOUS
 62
     7
100
AcDbText
 10
309.452759
 20
90.031265
 30
0.0
 40
4.863612
  1
3
 50
276.736115
 41
1.359714
  7
FX_VECTOR
 72
     5
 11
310.080704
 21
84.714743
 31
0.0
100
AcDbText
  0
TEXT
  5
24A
330
1F
100
AcDbEntity
  8
GR1-1
  6
CONTINUOUS
 62
     7
100
AcDbText
 10
310.063324
 20
85.397926
 30
0.0
 40
4.863612
  1
2
 50
267.736115
 41
1.359714
  7
FX_VECTOR
 72
     5
 11
309.851851
 21
80.048627
 31
0.0
100
AcDbText
  0
LINE
  5
24B
330
1F
100
AcDbEntity
  8
GR1-1
  6
CONTINUOUS
 62
     7
100
AcDbLine
 10
268.841173
 20
56.047258
 30
0.0
 11
265.252317
 21
57.818167
 31
0.0
  0
LINE
  5
24C
330
1F
100
AcDbEntity
  8
GR1-1
  6
CONTINUOUS
 62
     7
100
AcDbLine
 10
265.252317
 20
57.818167
 30
0.0
 11
263.481408
 21
54.229311
 31
0.0
  0
LINE
  5
24D
330
1F
100
AcDbEntity
  8
GR1-1
  6
CONTINUOUS
 62
     7
100
AcDbLine
 10
263.481408
 20
54.229311
 30
0.0
 11
267.070264
 21
52.458402
 31
0.0
  0
LINE
  5
24E
330
1F
100
AcDbEntity
  8
GR1-1
  6
CONTINUOUS
 62
     7
100
AcDbLine
 10
267.070264
 20
52.458402
 30
0.0
 11
268.841173
 21
56.047258
 31
0.0
  0
LINE
  5
24F
330
1F
100
AcDbEntity
  8
GR1-1
  6
CONTINUOUS
 62
     7
100
AcDbLine
 10
266.996105
 20
56.830087
 30
0.0
 11
265.515277
 21
56.327814
 31
0.0
  0
LINE
  5
250
330
1F
100
AcDbEntity
  8
GR1-1
  6
CONTINUOUS
 62
     7
100
AcDbLine
 10
265.434038
 20
56.420494
 30
0.0
 11
265.665112
 21
56.88878
 31
0.0
  0
LINE
  5
251
330
1F
100
AcDbEntity
  8
GR1-1
  6
CONTINUOUS
 62
     7
100
AcDbLine
 10
265.665112
 20
56.88878
 30
0.0
 11
265.066969
 21
57.183931
 31
0.0
  0
LINE
  5
252
330
1F
100
AcDbEntity
  8
GR1-1
  6
CONTINUOUS
 62
     7
100
AcDbLine
 10
265.066969
 20
57.183931
 30
0.0
 11
264.469488
 21
55.973099
 31
0.0
  0
LINE
  5
253
330
1F
100
AcDbEntity
  8
GR1-1
  6
CONTINUOUS
 62
     7
100
AcDbLine
 10
264.469488
 20
55.973099
 30
0.0
 11
266.16129
 21
55.138284
 31
0.0
  0
LINE
  5
254
330
1F
100
AcDbEntity
  8
GR1-1
  6
CONTINUOUS
 62
     7
100
AcDbLine
 10
266.16129
 20
55.138284
 30
0.0
 11
266.308866
 21
55.437356
 31
0.0
  0
LINE
  5
255
330
1F
100
AcDbEntity
  8
GR1-1
  6
CONTINUOUS
 62
     7
100
AcDbLine
 10
266.308866
 20
55.437356
 30
0.0
 11
265.906441
 21
55.635931
 31
0.0
  0
ARC
  5
256
330
1F
100
AcDbEntity
  8
GR1-1
  6
CONTINUOUS
 62
     7
100
AcDbCircle
 10
265.935956
 20
55.695746
 30
0.0
 40
0.0667
100
AcDbArc
 50
108.736116
 51
243.736116
  0
LINE
  5
257
330
1F
100
AcDbEntity
  8
GR1-1
  6
CONTINUOUS
 62
     7
100
AcDbLine
 10
265.914531
 20
55.758911
 30
0.0
 11
266.578698
 21
55.984186
 31
0.0
  0
LINE
  5
258
330
1F
100
AcDbEntity
  8
GR1-1
  6
CONTINUOUS
 62
     7
100
AcDbLine
 10
266.578698
 20
55.984186
 30
0.0
 11
267.007192
 21
54.720877
 31
0.0
  0
LINE
  5
259
330
1F
100
AcDbEntity
  8
GR1-1
  6
CONTINUOUS
 62
     7
100
AcDbLine
 10
267.007192
 20
54.720877
 30
0.0
 11
265.743883
 21
54.292383
 31
0.0
  0
LINE
  5
25A
330
1F
100
AcDbEntity
  8
GR1-1
  6
CONTINUOUS
 62
     7
100
AcDbLine
 10
265.743883
 20
54.292383
 30
0.0
 11
265.406286
 21
55.287703
 31
0.0
  0
LINE
  5
25B
330
1F
100
AcDbEntity
  8
GR1-1
  6
CONTINUOUS
 62
     7
100
AcDbLine
 10
265.406286
 20
55.287703
 30
0.0
 11
264.560385
 21
55.705111
 31
0.0
  0
LINE
  5
25C
330
1F
100
AcDbEntity
  8
GR1-1
  6
CONTINUOUS
 62
     7
100
AcDbLine
 10
264.560385
 20
55.705111
 30
0.0
 11
265.326476
 21
53.446482
 31
0.0
  0
LINE
  5
25D
330
1F
100
AcDbEntity
  8
GR1-1
  6
CONTINUOUS
 62
     7
100
AcDbLine
 10
265.326476
 20
53.446482
 30
0.0
 11
267.853093
 21
54.30347
 31
0.0
  0
LINE
  5
25E
330
1F
100
AcDbEntity
  8
GR1-1
  6
CONTINUOUS
 62
     7
100
AcDbLine
 10
267.853093
 20
54.30347
 30
0.0
 11
266.996105
 21
56.830087
 31
0.0
  0
ARC
  5
25F
330
1F
100
AcDbEntity
  8
GR1-1
  6
CONTINUOUS
 62
     7
100
AcDbCircle
 10
265.493852
 20
56.390979
 30
0.0
 40
0.0667
100
AcDbArc
 50
153.736116
 51
288.736116
  0
INSERT
  5
263
330
1F
100
AcDbEntity
  8
0
100
AcDbBlockReference
  2
BLKF022
 10
0.0
 20
0.0
 30
0.0
  0
ENDSEC
  0
SECTION
  2
OBJECTS
  0
DICTIONARY
  5
C
330
0
100
AcDbDictionary
  3
ACAD_GROUP
350
D
  3
ACAD_LAYOUT
350
1A
  3
ACAD_MLINESTYLE
350
17
  3
ACAD_PLOTSETTINGS
350
19
  3
ACDBHEADERROUNDTRIPXREC
350
28E
  0
DICTIONARY
  5
D
102
{ACAD_REACTORS
330
C
102
}
330
C
100
AcDbDictionary
  0
DICTIONARY
  5
1A
102
{ACAD_REACTORS
330
C
102
}
330
C
100
AcDbDictionary
  0
DICTIONARY
  5
17
102
{ACAD_REACTORS
330
C
102
}
330
C
100
AcDbDictionary
  3
STANDARD
350
18
  0
DICTIONARY
  5
19
102
{ACAD_REACTORS
330
C
102
}
330
C
100
AcDbDictionary
  0
DICTIONARY
  5
28E
102
{ACAD_REACTORS
330
C
102
}
330
C
100
AcDbDictionary
  3
CEPSNTYPE
350
297
  3
DIMSTYLEDATA
350
2AD
  3
FINGERPRINTGUID
350
298
  3
HYPERLINKBASE
350
291
  3
INSUNITS
350
296
  3
LAYOUTDICT
350
293
  3
LWETCUNION
350
295
  3
PLOTSETDICT
350
294
  3
PSVPSCALE
350
29A
  3
PUCSBASE
350
29D
  3
PUCSORGBACK
350
2A3
  3
PUCSORGBOTTOM
350
29F
  3
PUCSORGFRONT
350
2A2
  3
PUCSORGLEFT
350
2A0
  3
PUCSORGRIGHT
350
2A1
  3
PUCSORGTOP
350
29E
  3
PUCSORTHOREF
350
29B
  3
PUCSORTHOVIEW
350
29C
  3
STYLESHEET
350
292
  3
TSTACKALIGN
350
28F
  3
TSTACKSIZE
350
290
  3
UCSBASE
350
2A6
  3
UCSORGBACK
350
2AC
  3
UCSORGBOTTOM
350
2A8
  3
UCSORGFRONT
350
2AB
  3
UCSORGLEFT
350
2A9
  3
UCSORGRIGHT
350
2AA
  3
UCSORGTOP
350
2A7
  3
UCSORTHOREF
350
2A4
  3
UCSORTHOVIEW
350
2A5
  3
VERSIONGUID
350
299
  0
MLINESTYLE
  5
18
102
{ACAD_REACTORS
330
17
102
}
330
17
100
AcDbMlineStyle
  2
Standard
 70
     0
  3

 62
   256
 51
90.0
 52
90.0
 71
     2
 49
0.5
 62
   256
  6
BYLAYER
 49
-0.5
 62
   256
  6
BYLAYER
  0
XRECORD
  5
297
102
{ACAD_REACTORS
330
28E
102
}
330
28E
100
AcDbXrecord
 90
        0
  0
XRECORD
  5
2AD
102
{ACAD_REACTORS
330
28E
102
}
330
28E
100
AcDbXrecord
1000
DSTYLE
1002
{
1070
   179
 70
     2
1070
   171
 70
     3
1070
   143
 40
0.03937
1070
   274
 70
     3
1070
    41
 40
4.0
1070
   343
340
41
1070
   344
340
47
1070
   141
 40
2.5
1070
   176
 70
     7
1070
   177
 70
     7
1070
   178
 70
     7
1070
   271
 70
     2
1070
    46
 40
6.0
1070
    43
 40
10.0
1070
    44
 40
1.0
1070
    42
 40
1.0
1070
   147
 40
1.0
1070
   341
340
41
1070
   173
 70
     1
1070
    77
 70
     1
1070
   272
 70
     2
1070
    73
 70
     0
1070
   172
 70
     1
1070
    74
 70
     0
1070
   283
 70
     0
1070
   340
340
3F
1070
   140
 40
4.0
1070
   284
 70
     8
1070
    78
 70
     8
1002
}
  0
XRECORD
  5
298
102
{ACAD_REACTORS
330
28E
102
}
330
28E
100
AcDbXrecord
  1
{86C89DDE-8982-4371-A11A-B172CF4A8796}
  0
XRECORD
  5
291
102
{ACAD_REACTORS
330
28E
102
}
330
28E
100
AcDbXrecord
  1

  0
XRECORD
  5
296
102
{ACAD_REACTORS
330
28E
102
}
330
28E
100
AcDbXrecord
 90
        1
  0
XRECORD
  5
293
102
{ACAD_REACTORS
330
28E
102
}
330
28E
100
AcDbXrecord
340
1A
  0
XRECORD
  5
295
102
{ACAD_REACTORS
330
28E
102
}
330
28E
100
AcDbXrecord
 90
    10781
  0
XRECORD
  5
294
102
{ACAD_REACTORS
330
28E
102
}
330
28E
100
AcDbXrecord
340
19
  0
XRECORD
  5
29A
102
{ACAD_REACTORS
330
28E
102
}
330
28E
100
AcDbXrecord
 40
0.0
  0
XRECORD
  5
29D
102
{ACAD_REACTORS
330
28E
102
}
330
28E
100
AcDbXrecord
340
0
  0
XRECORD
  5
2A3
102
{ACAD_REACTORS
330
28E
102
}
330
28E
100
AcDbXrecord
 10
0.0
 20
0.0
 30
0.0
  0
XRECORD
  5
29F
102
{ACAD_REACTORS
330
28E
102
}
330
28E
100
AcDbXrecord
 10
0.0
 20
0.0
 30
0.0
  0
XRECORD
  5
2A2
102
{ACAD_REACTORS
330
28E
102
}
330
28E
100
AcDbXrecord
 10
0.0
 20
0.0
 30
0.0
  0
XRECORD
  5
2A0
102
{ACAD_REACTORS
330
28E
102
}
330
28E
100
AcDbXrecord
 10
0.0
 20
0.0
 30
0.0
  0
XRECORD
  5
2A1
102
{ACAD_REACTORS
330
28E
102
}
330
28E
100
AcDbXrecord
 10
0.0
 20
0.0
 30
0.0
  0
XRECORD
  5
29E
102
{ACAD_REACTORS
330
28E
102
}
330
28E
100
AcDbXrecord
 10
0.0
 20
0.0
 30
0.0
  0
XRECORD
  5
29B
102
{ACAD_REACTORS
330
28E
102
}
330
28E
100
AcDbXrecord
340
0
  0
XRECORD
  5
29C
102
{ACAD_REACTORS
330
28E
102
}
330
28E
100
AcDbXrecord
 70
     0
  0
XRECORD
  5
292
102
{ACAD_REACTORS
330
28E
102
}
330
28E
100
AcDbXrecord
  1

  0
XRECORD
  5
28F
102
{ACAD_REACTORS
330
28E
102
}
330
28E
100
AcDbXrecord
 90
        1
  0
XRECORD
  5
290
102
{ACAD_REACTORS
330
28E
102
}
330
28E
100
AcDbXrecord
 90
       70
  0
XRECORD
  5
2A6
102
{ACAD_REACTORS
330
28E
102
}
330
28E
100
AcDbXrecord
340
0
  0
XRECORD
  5
2AC
102
{ACAD_REACTORS
330
28E
102
}
330
28E
100
AcDbXrecord
 10
0.0
 20
0.0
 30
0.0
  0
XRECORD
  5
2A8
102
{ACAD_REACTORS
330
28E
102
}
330
28E
100
AcDbXrecord
 10
0.0
 20
0.0
 30
0.0
  0
XRECORD
  5
2AB
102
{ACAD_REACTORS
330
28E
102
}
330
28E
100
AcDbXrecord
 10
0.0
 20
0.0
 30
0.0
  0
XRECORD
  5
2A9
102
{ACAD_REACTORS
330
28E
102
}
330
28E
100
AcDbXrecord
 10
0.0
 20
0.0
 30
0.0
  0
XRECORD
  5
2AA
102
{ACAD_REACTORS
330
28E
102
}
330
28E
100
AcDbXrecord
 10
0.0
 20
0.0
 30
0.0
  0
XRECORD
  5
2A7
102
{ACAD_REACTORS
330
28E
102
}
330
28E
100
AcDbXrecord
 10
0.0
 20
0.0
 30
0.0
  0
XRECORD
  5
2A4
102
{ACAD_REACTORS
330
28E
102
}
330
28E
100
AcDbXrecord
340
0
  0
XRECORD
  5
2A5
102
{ACAD_REACTORS
330
28E
102
}
330
28E
100
AcDbXrecord
 70
     0
  0
XRECORD
  5
299
102
{ACAD_REACTORS
330
28E
102
}
330
28E
100
AcDbXrecord
  1
{FAEB1C32-E019-11D5-929B-00C0DF256EC4}
  0
ENDSEC
  0
EOF
